ISO-10303-21;
HEADER;
/****************************************************************
 * Generated by software with PDE/Lib inside                    *
 * PDE/Lib Version 3.2.6, created Mon Nov 19, 2001 at 18:43:38  *
 * International Technegroup Inc. (www.iti-oh.com)              *
 ****************************************************************/
FILE_DESCRIPTION((''),'2;1');
FILE_NAME('I:\\DOC-EDP\\Lib-3d\\1200\\FISSAGGI\\1200_Ø_02X\\1200_16_02X.stp','2003-04-08T08:43:25',('maffial1'),(''),'Autodesk Inventor (R) 6.0','Autodesk Inventor (R) 6.0','');
FILE_SCHEMA(('AUTOMOTIVE_DESIGN { 1 0 10303 214 1 1 1 1 }'));
ENDSEC;
DATA;
#5=APPLICATION_CONTEXT('automotive design');
#6=APPLICATION_PROTOCOL_DEFINITION('Draft International Standard','automotive_design',1998,#5);
#7=PRODUCT_CONTEXT('None',#5,'mechanical');
#8=PRODUCT('1200_16_02X','1200_16_02X','None',(#7));
#9=PRODUCT_RELATED_PRODUCT_CATEGORY('part','description',(#8));
#10=PRODUCT_DEFINITION_FORMATION('None','None',#8);
#11=PRODUCT_DEFINITION_CONTEXT('part definition',#5,'design');
#12=PRODUCT_DEFINITION('None','None',#10,#11);
#18=(NAMED_UNIT(*)PLANE_ANGLE_UNIT()SI_UNIT($,.RADIAN.));
#19=DIMENSIONAL_EXPONENTS(0.0,0.0,0.0,0.0,0.0,0.0,0.0);
#20=PLANE_ANGLE_MEASURE_WITH_UNIT(PLANE_ANGLE_MEASURE(0.017453292500000),#18);
#24=(CONVERSION_BASED_UNIT('DEGREE',#20)NAMED_UNIT(#19)PLANE_ANGLE_UNIT());
#28=(NAMED_UNIT(*)SI_UNIT($,.STERADIAN.)SOLID_ANGLE_UNIT());
#32=(LENGTH_UNIT()NAMED_UNIT(*)SI_UNIT(.MILLI.,.METRE.));
#34=UNCERTAINTY_MEASURE_WITH_UNIT(LENGTH_MEASURE(0.000001000000000),#32,'DISTANCE_ACCURACY_VALUE','');
#36=(GEOMETRIC_REPRESENTATION_CONTEXT(3)GLOBAL_UNCERTAINTY_ASSIGNED_CONTEXT((#34))GLOBAL_UNIT_ASSIGNED_CONTEXT((#24,#28,#32))REPRESENTATION_CONTEXT('None','None'));
#37=AXIS2_PLACEMENT_3D('',#38,#39,#40);
#38=CARTESIAN_POINT('',(0.0,0.0,0.0));
#39=DIRECTION('',(0.0,0.0,1.0));
#40=DIRECTION('',(1.0,0.0,0.0));
#41=SHAPE_REPRESENTATION('',(#37),#36);
#42=PRODUCT_DEFINITION_SHAPE('','',#12);
#43=SHAPE_DEFINITION_REPRESENTATION(#42,#41);
#44=CARTESIAN_POINT('',(-20.0,0.0,0.0));
#45=DIRECTION('',(0.0,0.0,1.0));
#46=DIRECTION('',(-1.0,0.0,0.0));
#47=AXIS2_PLACEMENT_3D('',#44,#45,#46);
#48=CYLINDRICAL_SURFACE('',#47,2.750000000000000);
#49=CARTESIAN_POINT('',(-22.750000000000000,3.367667E-016,4.0));
#50=VERTEX_POINT('',#49);
#51=CARTESIAN_POINT('',(-22.750000000000000,3.367667E-016,0.0));
#52=VERTEX_POINT('',#51);
#53=CARTESIAN_POINT('',(-22.750000000000000,3.367667E-016,4.0));
#54=DIRECTION('',(0.0,0.0,-1.0));
#55=VECTOR('',#54,4.0);
#56=LINE('',#53,#55);
#57=EDGE_CURVE('',#50,#52,#56,.T.);
#58=ORIENTED_EDGE('',*,*,#57,.F.);
#59=CARTESIAN_POINT('',(-17.250000000000000,3.367667E-016,4.0));
#60=VERTEX_POINT('',#59);
#61=CARTESIAN_POINT('',(-20.0,0.0,4.0));
#62=DIRECTION('',(0.0,0.0,-1.0));
#63=DIRECTION('',(-1.0,0.0,0.0));
#64=AXIS2_PLACEMENT_3D('',#61,#62,#63);
#65=CIRCLE('',#64,2.750000000000000);
#66=EDGE_CURVE('',#60,#50,#65,.T.);
#67=ORIENTED_EDGE('',*,*,#66,.F.);
#68=CARTESIAN_POINT('',(-17.250000000000000,3.367667E-016,0.0));
#69=VERTEX_POINT('',#68);
#70=CARTESIAN_POINT('',(-17.250000000000000,3.367667E-016,0.0));
#71=DIRECTION('',(0.0,0.0,1.0));
#72=VECTOR('',#71,4.0);
#73=LINE('',#70,#72);
#74=EDGE_CURVE('',#69,#60,#73,.T.);
#75=ORIENTED_EDGE('',*,*,#74,.F.);
#76=CARTESIAN_POINT('',(-20.0,0.0,0.0));
#77=DIRECTION('',(0.0,0.0,1.0));
#78=DIRECTION('',(-1.0,0.0,0.0));
#79=AXIS2_PLACEMENT_3D('',#76,#77,#78);
#80=CIRCLE('',#79,2.750000000000000);
#81=EDGE_CURVE('',#52,#69,#80,.T.);
#82=ORIENTED_EDGE('',*,*,#81,.F.);
#83=EDGE_LOOP('',(#58,#67,#75,#82));
#84=FACE_OUTER_BOUND('',#83,.T.);
#85=ADVANCED_FACE('',(#84),#48,.F.);
#86=CARTESIAN_POINT('',(20.0,0.0,0.0));
#87=DIRECTION('',(0.0,0.0,1.0));
#88=DIRECTION('',(-1.0,0.0,0.0));
#89=AXIS2_PLACEMENT_3D('',#86,#87,#88);
#90=CYLINDRICAL_SURFACE('',#89,2.750000000000000);
#91=CARTESIAN_POINT('',(17.250000000000000,3.367667E-016,4.0));
#92=VERTEX_POINT('',#91);
#93=CARTESIAN_POINT('',(17.250000000000000,3.367667E-016,0.0));
#94=VERTEX_POINT('',#93);
#95=CARTESIAN_POINT('',(17.250000000000000,3.367667E-016,4.0));
#96=DIRECTION('',(0.0,0.0,-1.0));
#97=VECTOR('',#96,4.0);
#98=LINE('',#95,#97);
#99=EDGE_CURVE('',#92,#94,#98,.T.);
#100=ORIENTED_EDGE('',*,*,#99,.F.);
#101=CARTESIAN_POINT('',(22.750000000000000,3.367667E-016,4.0));
#102=VERTEX_POINT('',#101);
#103=CARTESIAN_POINT('',(20.0,0.0,4.0));
#104=DIRECTION('',(0.0,0.0,-1.0));
#105=DIRECTION('',(-1.0,0.0,0.0));
#106=AXIS2_PLACEMENT_3D('',#103,#104,#105);
#107=CIRCLE('',#106,2.750000000000000);
#108=EDGE_CURVE('',#102,#92,#107,.T.);
#109=ORIENTED_EDGE('',*,*,#108,.F.);
#110=CARTESIAN_POINT('',(22.750000000000000,3.367667E-016,0.0));
#111=VERTEX_POINT('',#110);
#112=CARTESIAN_POINT('',(22.750000000000000,3.367667E-016,0.0));
#113=DIRECTION('',(0.0,0.0,1.0));
#114=VECTOR('',#113,4.0);
#115=LINE('',#112,#114);
#116=EDGE_CURVE('',#111,#102,#115,.T.);
#117=ORIENTED_EDGE('',*,*,#116,.F.);
#118=CARTESIAN_POINT('',(20.0,0.0,0.0));
#119=DIRECTION('',(0.0,0.0,1.0));
#120=DIRECTION('',(-1.0,0.0,0.0));
#121=AXIS2_PLACEMENT_3D('',#118,#119,#120);
#122=CIRCLE('',#121,2.750000000000000);
#123=EDGE_CURVE('',#94,#111,#122,.T.);
#124=ORIENTED_EDGE('',*,*,#123,.F.);
#125=EDGE_LOOP('',(#100,#109,#117,#124));
#126=FACE_OUTER_BOUND('',#125,.T.);
#127=ADVANCED_FACE('',(#126),#90,.F.);
#128=CARTESIAN_POINT('',(0.0,0.0,0.0));
#129=DIRECTION('',(0.0,0.0,1.0));
#130=DIRECTION('',(-1.0,0.0,0.0));
#131=AXIS2_PLACEMENT_3D('',#128,#129,#130);
#132=CYLINDRICAL_SURFACE('',#131,8.0);
#133=CARTESIAN_POINT('',(-8.0,9.796851E-016,4.0));
#134=VERTEX_POINT('',#133);
#135=CARTESIAN_POINT('',(-8.0,9.796851E-016,0.0));
#136=VERTEX_POINT('',#135);
#137=CARTESIAN_POINT('',(-8.0,9.796851E-016,4.0));
#138=DIRECTION('',(0.0,0.0,-1.0));
#139=VECTOR('',#138,4.0);
#140=LINE('',#137,#139);
#141=EDGE_CURVE('',#134,#136,#140,.T.);
#142=ORIENTED_EDGE('',*,*,#141,.F.);
#143=CARTESIAN_POINT('',(8.0,9.796851E-016,4.0));
#144=VERTEX_POINT('',#143);
#145=CARTESIAN_POINT('',(0.0,0.0,4.0));
#146=DIRECTION('',(0.0,0.0,-1.0));
#147=DIRECTION('',(-1.0,0.0,0.0));
#148=AXIS2_PLACEMENT_3D('',#145,#146,#147);
#149=CIRCLE('',#148,8.0);
#150=EDGE_CURVE('',#144,#134,#149,.T.);
#151=ORIENTED_EDGE('',*,*,#150,.F.);
#152=CARTESIAN_POINT('',(8.0,9.796851E-016,0.0));
#153=VERTEX_POINT('',#152);
#154=CARTESIAN_POINT('',(8.0,9.796851E-016,0.0));
#155=DIRECTION('',(0.0,0.0,1.0));
#156=VECTOR('',#155,4.0);
#157=LINE('',#154,#156);
#158=EDGE_CURVE('',#153,#144,#157,.T.);
#159=ORIENTED_EDGE('',*,*,#158,.F.);
#160=CARTESIAN_POINT('',(0.0,0.0,0.0));
#161=DIRECTION('',(0.0,0.0,1.0));
#162=DIRECTION('',(-1.0,0.0,0.0));
#163=AXIS2_PLACEMENT_3D('',#160,#161,#162);
#164=CIRCLE('',#163,8.0);
#165=EDGE_CURVE('',#136,#153,#164,.T.);
#166=ORIENTED_EDGE('',*,*,#165,.F.);
#167=EDGE_LOOP('',(#142,#151,#159,#166));
#168=FACE_OUTER_BOUND('',#167,.T.);
#169=ADVANCED_FACE('',(#168),#132,.F.);
#170=CARTESIAN_POINT('',(0.0,0.0,0.0));
#171=DIRECTION('',(0.0,0.0,1.0));
#172=DIRECTION('',(-1.0,0.0,0.0));
#173=AXIS2_PLACEMENT_3D('',#170,#171,#172);
#174=CYLINDRICAL_SURFACE('',#173,8.0);
#175=ORIENTED_EDGE('',*,*,#141,.T.);
#176=CARTESIAN_POINT('',(0.0,0.0,0.0));
#177=DIRECTION('',(0.0,0.0,1.0));
#178=DIRECTION('',(-1.0,0.0,0.0));
#179=AXIS2_PLACEMENT_3D('',#176,#177,#178);
#180=CIRCLE('',#179,8.0);
#181=EDGE_CURVE('',#153,#136,#180,.T.);
#182=ORIENTED_EDGE('',*,*,#181,.F.);
#183=ORIENTED_EDGE('',*,*,#158,.T.);
#184=CARTESIAN_POINT('',(0.0,0.0,4.0));
#185=DIRECTION('',(0.0,0.0,-1.0));
#186=DIRECTION('',(-1.0,0.0,0.0));
#187=AXIS2_PLACEMENT_3D('',#184,#185,#186);
#188=CIRCLE('',#187,8.0);
#189=EDGE_CURVE('',#134,#144,#188,.T.);
#190=ORIENTED_EDGE('',*,*,#189,.F.);
#191=EDGE_LOOP('',(#175,#182,#183,#190));
#192=FACE_OUTER_BOUND('',#191,.T.);
#193=ADVANCED_FACE('',(#192),#174,.F.);
#194=CARTESIAN_POINT('',(20.0,0.0,0.0));
#195=DIRECTION('',(0.0,0.0,1.0));
#196=DIRECTION('',(-1.0,0.0,0.0));
#197=AXIS2_PLACEMENT_3D('',#194,#195,#196);
#198=CYLINDRICAL_SURFACE('',#197,2.750000000000000);
#199=ORIENTED_EDGE('',*,*,#99,.T.);
#200=CARTESIAN_POINT('',(20.0,0.0,0.0));
#201=DIRECTION('',(0.0,0.0,1.0));
#202=DIRECTION('',(-1.0,0.0,0.0));
#203=AXIS2_PLACEMENT_3D('',#200,#201,#202);
#204=CIRCLE('',#203,2.750000000000000);
#205=EDGE_CURVE('',#111,#94,#204,.T.);
#206=ORIENTED_EDGE('',*,*,#205,.F.);
#207=ORIENTED_EDGE('',*,*,#116,.T.);
#208=CARTESIAN_POINT('',(20.0,0.0,4.0));
#209=DIRECTION('',(0.0,0.0,-1.0));
#210=DIRECTION('',(-1.0,0.0,0.0));
#211=AXIS2_PLACEMENT_3D('',#208,#209,#210);
#212=CIRCLE('',#211,2.750000000000000);
#213=EDGE_CURVE('',#92,#102,#212,.T.);
#214=ORIENTED_EDGE('',*,*,#213,.F.);
#215=EDGE_LOOP('',(#199,#206,#207,#214));
#216=FACE_OUTER_BOUND('',#215,.T.);
#217=ADVANCED_FACE('',(#216),#198,.F.);
#218=CARTESIAN_POINT('',(-20.0,0.0,0.0));
#219=DIRECTION('',(0.0,0.0,1.0));
#220=DIRECTION('',(-1.0,0.0,0.0));
#221=AXIS2_PLACEMENT_3D('',#218,#219,#220);
#222=CYLINDRICAL_SURFACE('',#221,2.750000000000000);
#223=ORIENTED_EDGE('',*,*,#57,.T.);
#224=CARTESIAN_POINT('',(-20.0,0.0,0.0));
#225=DIRECTION('',(0.0,0.0,1.0));
#226=DIRECTION('',(-1.0,0.0,0.0));
#227=AXIS2_PLACEMENT_3D('',#224,#225,#226);
#228=CIRCLE('',#227,2.750000000000000);
#229=EDGE_CURVE('',#69,#52,#228,.T.);
#230=ORIENTED_EDGE('',*,*,#229,.F.);
#231=ORIENTED_EDGE('',*,*,#74,.T.);
#232=CARTESIAN_POINT('',(-20.0,0.0,4.0));
#233=DIRECTION('',(0.0,0.0,-1.0));
#234=DIRECTION('',(-1.0,0.0,0.0));
#235=AXIS2_PLACEMENT_3D('',#232,#233,#234);
#236=CIRCLE('',#235,2.750000000000000);
#237=EDGE_CURVE('',#50,#60,#236,.T.);
#238=ORIENTED_EDGE('',*,*,#237,.F.);
#239=EDGE_LOOP('',(#223,#230,#231,#238));
#240=FACE_OUTER_BOUND('',#239,.T.);
#241=ADVANCED_FACE('',(#240),#222,.F.);
#242=CARTESIAN_POINT('',(0.0,0.0,0.0));
#243=DIRECTION('',(0.0,0.0,1.0));
#244=DIRECTION('',(-0.425000000000000,-0.905193349511584,0.0));
#245=AXIS2_PLACEMENT_3D('',#242,#243,#244);
#246=CYLINDRICAL_SURFACE('',#245,14.999999999999996);
#247=CARTESIAN_POINT('',(6.374999999999998,-13.577900242673753,4.0));
#248=VERTEX_POINT('',#247);
#249=CARTESIAN_POINT('',(-6.374999999999998,-13.577900242673753,4.0));
#250=VERTEX_POINT('',#249);
#251=CARTESIAN_POINT('',(0.0,0.0,4.0));
#252=DIRECTION('',(0.0,0.0,-1.0));
#253=DIRECTION('',(-0.425000000000000,-0.905193349511584,0.0));
#254=AXIS2_PLACEMENT_3D('',#251,#252,#253);
#255=CIRCLE('',#254,14.999999999999996);
#256=EDGE_CURVE('',#248,#250,#255,.T.);
#257=ORIENTED_EDGE('',*,*,#256,.T.);
#258=CARTESIAN_POINT('',(-6.374999999999998,-13.577900242673753,0.0));
#259=VERTEX_POINT('',#258);
#260=CARTESIAN_POINT('',(-6.374999999999998,-13.577900242673753,0.0));
#261=DIRECTION('',(0.0,0.0,1.0));
#262=VECTOR('',#261,4.0);
#263=LINE('',#260,#262);
#264=EDGE_CURVE('',#259,#250,#263,.T.);
#265=ORIENTED_EDGE('',*,*,#264,.F.);
#266=CARTESIAN_POINT('',(6.374999999999998,-13.577900242673753,0.0));
#267=VERTEX_POINT('',#266);
#268=CARTESIAN_POINT('',(0.0,0.0,0.0));
#269=DIRECTION('',(0.0,0.0,1.0));
#270=DIRECTION('',(-0.425000000000000,-0.905193349511584,0.0));
#271=AXIS2_PLACEMENT_3D('',#268,#269,#270);
#272=CIRCLE('',#271,14.999999999999996);
#273=EDGE_CURVE('',#259,#267,#272,.T.);
#274=ORIENTED_EDGE('',*,*,#273,.T.);
#275=CARTESIAN_POINT('',(6.374999999999998,-13.577900242673753,0.0));
#276=DIRECTION('',(0.0,0.0,1.0));
#277=VECTOR('',#276,4.0);
#278=LINE('',#275,#277);
#279=EDGE_CURVE('',#267,#248,#278,.T.);
#280=ORIENTED_EDGE('',*,*,#279,.T.);
#281=EDGE_LOOP('',(#257,#265,#274,#280));
#282=FACE_OUTER_BOUND('',#281,.T.);
#283=ADVANCED_FACE('',(#282),#246,.T.);
#284=CARTESIAN_POINT('',(-6.374999999999998,-13.577900242673753,0.0));
#285=DIRECTION('',(-0.425000000000000,-0.905193349511584,0.0));
#286=DIRECTION('',(0.0,0.0,-1.0));
#287=AXIS2_PLACEMENT_3D('',#284,#285,#286);
#288=PLANE('',#287);
#289=CARTESIAN_POINT('',(-22.762499999999996,-5.883756771825293,4.0));
#290=VERTEX_POINT('',#289);
#291=CARTESIAN_POINT('',(-6.374999999999998,-13.577900242673753,4.0));
#292=DIRECTION('',(-0.905193349511584,0.425000000000000,0.0));
#293=VECTOR('',#292,18.103866990231669);
#294=LINE('',#291,#293);
#295=EDGE_CURVE('',#250,#290,#294,.T.);
#296=ORIENTED_EDGE('',*,*,#295,.T.);
#297=CARTESIAN_POINT('',(-22.762499999999996,-5.883756771825293,0.0));
#298=VERTEX_POINT('',#297);
#299=CARTESIAN_POINT('',(-22.762499999999996,-5.883756771825293,0.0));
#300=DIRECTION('',(0.0,0.0,1.0));
#301=VECTOR('',#300,4.0);
#302=LINE('',#299,#301);
#303=EDGE_CURVE('',#298,#290,#302,.T.);
#304=ORIENTED_EDGE('',*,*,#303,.F.);
#305=CARTESIAN_POINT('',(-22.762499999999996,-5.883756771825293,0.0));
#306=DIRECTION('',(0.905193349511584,-0.425000000000000,0.0));
#307=VECTOR('',#306,18.103866990231669);
#308=LINE('',#305,#307);
#309=EDGE_CURVE('',#298,#259,#308,.T.);
#310=ORIENTED_EDGE('',*,*,#309,.T.);
#311=ORIENTED_EDGE('',*,*,#264,.T.);
#312=EDGE_LOOP('',(#296,#304,#310,#311));
#313=FACE_OUTER_BOUND('',#312,.T.);
#314=ADVANCED_FACE('',(#313),#288,.T.);
#315=CARTESIAN_POINT('',(-20.0,0.0,0.0));
#316=DIRECTION('',(0.0,0.0,1.0));
#317=DIRECTION('',(-0.425000000000000,0.905193349511584,0.0));
#318=AXIS2_PLACEMENT_3D('',#315,#316,#317);
#319=CYLINDRICAL_SURFACE('',#318,6.500000000000004);
#320=CARTESIAN_POINT('',(-22.762499999999996,5.883756771825295,4.0));
#321=VERTEX_POINT('',#320);
#322=CARTESIAN_POINT('',(-20.0,0.0,4.0));
#323=DIRECTION('',(0.0,0.0,-1.000000000000000));
#324=DIRECTION('',(-0.425000000000000,0.905193349511584,0.0));
#325=AXIS2_PLACEMENT_3D('',#322,#323,#324);
#326=CIRCLE('',#325,6.500000000000003);
#327=EDGE_CURVE('',#290,#321,#326,.T.);
#328=ORIENTED_EDGE('',*,*,#327,.T.);
#329=CARTESIAN_POINT('',(-22.762499999999996,5.883756771825295,0.0));
#330=VERTEX_POINT('',#329);
#331=CARTESIAN_POINT('',(-22.762499999999996,5.883756771825295,0.0));
#332=DIRECTION('',(0.0,0.0,1.0));
#333=VECTOR('',#332,4.0);
#334=LINE('',#331,#333);
#335=EDGE_CURVE('',#330,#321,#334,.T.);
#336=ORIENTED_EDGE('',*,*,#335,.F.);
#337=CARTESIAN_POINT('',(-20.0,0.0,0.0));
#338=DIRECTION('',(0.0,0.0,1.000000000000000));
#339=DIRECTION('',(-0.425000000000000,0.905193349511584,0.0));
#340=AXIS2_PLACEMENT_3D('',#337,#338,#339);
#341=CIRCLE('',#340,6.500000000000003);
#342=EDGE_CURVE('',#330,#298,#341,.T.);
#343=ORIENTED_EDGE('',*,*,#342,.T.);
#344=ORIENTED_EDGE('',*,*,#303,.T.);
#345=EDGE_LOOP('',(#328,#336,#343,#344));
#346=FACE_OUTER_BOUND('',#345,.T.);
#347=ADVANCED_FACE('',(#346),#319,.T.);
#348=CARTESIAN_POINT('',(-22.762499999999996,5.883756771825295,0.0));
#349=DIRECTION('',(-0.425000000000000,0.905193349511584,0.0));
#350=DIRECTION('',(0.0,0.0,1.0));
#351=AXIS2_PLACEMENT_3D('',#348,#349,#350);
#352=PLANE('',#351);
#353=CARTESIAN_POINT('',(-6.374999999999997,13.577900242673751,4.0));
#354=VERTEX_POINT('',#353);
#355=CARTESIAN_POINT('',(-22.762499999999996,5.883756771825295,4.0));
#356=DIRECTION('',(0.905193349511584,0.425000000000000,0.0));
#357=VECTOR('',#356,18.103866990231669);
#358=LINE('',#355,#357);
#359=EDGE_CURVE('',#321,#354,#358,.T.);
#360=ORIENTED_EDGE('',*,*,#359,.T.);
#361=CARTESIAN_POINT('',(-6.374999999999997,13.577900242673751,0.0));
#362=VERTEX_POINT('',#361);
#363=CARTESIAN_POINT('',(-6.374999999999997,13.577900242673751,0.0));
#364=DIRECTION('',(0.0,0.0,1.0));
#365=VECTOR('',#364,4.0);
#366=LINE('',#363,#365);
#367=EDGE_CURVE('',#362,#354,#366,.T.);
#368=ORIENTED_EDGE('',*,*,#367,.F.);
#369=CARTESIAN_POINT('',(-6.374999999999997,13.577900242673751,0.0));
#370=DIRECTION('',(-0.905193349511584,-0.425000000000000,0.0));
#371=VECTOR('',#370,18.103866990231669);
#372=LINE('',#369,#371);
#373=EDGE_CURVE('',#362,#330,#372,.T.);
#374=ORIENTED_EDGE('',*,*,#373,.T.);
#375=ORIENTED_EDGE('',*,*,#335,.T.);
#376=EDGE_LOOP('',(#360,#368,#374,#375));
#377=FACE_OUTER_BOUND('',#376,.T.);
#378=ADVANCED_FACE('',(#377),#352,.T.);
#379=CARTESIAN_POINT('',(0.0,0.0,0.0));
#380=DIRECTION('',(0.0,0.0,1.0));
#381=DIRECTION('',(0.425000000000000,0.905193349511584,0.0));
#382=AXIS2_PLACEMENT_3D('',#379,#380,#381);
#383=CYLINDRICAL_SURFACE('',#382,14.999999999999996);
#384=CARTESIAN_POINT('',(6.374999999999997,13.577900242673751,4.0));
#385=VERTEX_POINT('',#384);
#386=CARTESIAN_POINT('',(0.0,0.0,4.0));
#387=DIRECTION('',(0.0,0.0,-1.0));
#388=DIRECTION('',(0.425000000000000,0.905193349511584,0.0));
#389=AXIS2_PLACEMENT_3D('',#386,#387,#388);
#390=CIRCLE('',#389,14.999999999999996);
#391=EDGE_CURVE('',#354,#385,#390,.T.);
#392=ORIENTED_EDGE('',*,*,#391,.T.);
#393=CARTESIAN_POINT('',(6.374999999999997,13.577900242673751,0.0));
#394=VERTEX_POINT('',#393);
#395=CARTESIAN_POINT('',(6.374999999999997,13.577900242673751,0.0));
#396=DIRECTION('',(0.0,0.0,1.0));
#397=VECTOR('',#396,4.0);
#398=LINE('',#395,#397);
#399=EDGE_CURVE('',#394,#385,#398,.T.);
#400=ORIENTED_EDGE('',*,*,#399,.F.);
#401=CARTESIAN_POINT('',(0.0,0.0,0.0));
#402=DIRECTION('',(0.0,0.0,1.0));
#403=DIRECTION('',(0.425000000000000,0.905193349511584,0.0));
#404=AXIS2_PLACEMENT_3D('',#401,#402,#403);
#405=CIRCLE('',#404,14.999999999999996);
#406=EDGE_CURVE('',#394,#362,#405,.T.);
#407=ORIENTED_EDGE('',*,*,#406,.T.);
#408=ORIENTED_EDGE('',*,*,#367,.T.);
#409=EDGE_LOOP('',(#392,#400,#407,#408));
#410=FACE_OUTER_BOUND('',#409,.T.);
#411=ADVANCED_FACE('',(#410),#383,.T.);
#412=CARTESIAN_POINT('',(6.374999999999997,13.577900242673751,0.0));
#413=DIRECTION('',(0.425000000000000,0.905193349511584,0.0));
#414=DIRECTION('',(0.0,0.0,1.0));
#415=AXIS2_PLACEMENT_3D('',#412,#413,#414);
#416=PLANE('',#415);
#417=CARTESIAN_POINT('',(22.762499999999996,5.883756771825295,4.0));
#418=VERTEX_POINT('',#417);
#419=CARTESIAN_POINT('',(6.374999999999997,13.577900242673751,4.0));
#420=DIRECTION('',(0.905193349511584,-0.425000000000000,0.0));
#421=VECTOR('',#420,18.103866990231669);
#422=LINE('',#419,#421);
#423=EDGE_CURVE('',#385,#418,#422,.T.);
#424=ORIENTED_EDGE('',*,*,#423,.T.);
#425=CARTESIAN_POINT('',(22.762499999999996,5.883756771825295,0.0));
#426=VERTEX_POINT('',#425);
#427=CARTESIAN_POINT('',(22.762499999999996,5.883756771825295,0.0));
#428=DIRECTION('',(0.0,0.0,1.0));
#429=VECTOR('',#428,4.0);
#430=LINE('',#427,#429);
#431=EDGE_CURVE('',#426,#418,#430,.T.);
#432=ORIENTED_EDGE('',*,*,#431,.F.);
#433=CARTESIAN_POINT('',(22.762499999999996,5.883756771825295,0.0));
#434=DIRECTION('',(-0.905193349511584,0.425000000000000,0.0));
#435=VECTOR('',#434,18.103866990231669);
#436=LINE('',#433,#435);
#437=EDGE_CURVE('',#426,#394,#436,.T.);
#438=ORIENTED_EDGE('',*,*,#437,.T.);
#439=ORIENTED_EDGE('',*,*,#399,.T.);
#440=EDGE_LOOP('',(#424,#432,#438,#439));
#441=FACE_OUTER_BOUND('',#440,.T.);
#442=ADVANCED_FACE('',(#441),#416,.T.);
#443=CARTESIAN_POINT('',(20.0,0.0,0.0));
#444=DIRECTION('',(0.0,0.0,1.0));
#445=DIRECTION('',(0.425000000000000,-0.905193349511584,0.0));
#446=AXIS2_PLACEMENT_3D('',#443,#444,#445);
#447=CYLINDRICAL_SURFACE('',#446,6.500000000000004);
#448=CARTESIAN_POINT('',(22.762499999999996,-5.883756771825293,4.0));
#449=VERTEX_POINT('',#448);
#450=CARTESIAN_POINT('',(20.0,0.0,4.0));
#451=DIRECTION('',(0.0,0.0,-1.000000000000000));
#452=DIRECTION('',(0.425000000000000,-0.905193349511584,0.0));
#453=AXIS2_PLACEMENT_3D('',#450,#451,#452);
#454=CIRCLE('',#453,6.500000000000004);
#455=EDGE_CURVE('',#418,#449,#454,.T.);
#456=ORIENTED_EDGE('',*,*,#455,.T.);
#457=CARTESIAN_POINT('',(22.762499999999996,-5.883756771825293,0.0));
#458=VERTEX_POINT('',#457);
#459=CARTESIAN_POINT('',(22.762499999999996,-5.883756771825293,0.0));
#460=DIRECTION('',(0.0,0.0,1.0));
#461=VECTOR('',#460,4.0);
#462=LINE('',#459,#461);
#463=EDGE_CURVE('',#458,#449,#462,.T.);
#464=ORIENTED_EDGE('',*,*,#463,.F.);
#465=CARTESIAN_POINT('',(20.0,0.0,0.0));
#466=DIRECTION('',(0.0,0.0,1.000000000000000));
#467=DIRECTION('',(0.425000000000000,-0.905193349511584,0.0));
#468=AXIS2_PLACEMENT_3D('',#465,#466,#467);
#469=CIRCLE('',#468,6.500000000000004);
#470=EDGE_CURVE('',#458,#426,#469,.T.);
#471=ORIENTED_EDGE('',*,*,#470,.T.);
#472=ORIENTED_EDGE('',*,*,#431,.T.);
#473=EDGE_LOOP('',(#456,#464,#471,#472));
#474=FACE_OUTER_BOUND('',#473,.T.);
#475=ADVANCED_FACE('',(#474),#447,.T.);
#476=CARTESIAN_POINT('',(22.762499999999996,-5.883756771825293,0.0));
#477=DIRECTION('',(0.425000000000000,-0.905193349511584,0.0));
#478=DIRECTION('',(0.0,0.0,-1.0));
#479=AXIS2_PLACEMENT_3D('',#476,#477,#478);
#480=PLANE('',#479);
#481=CARTESIAN_POINT('',(22.762499999999996,-5.883756771825293,4.0));
#482=DIRECTION('',(-0.905193349511584,-0.425000000000000,0.0));
#483=VECTOR('',#482,18.103866990231669);
#484=LINE('',#481,#483);
#485=EDGE_CURVE('',#449,#248,#484,.T.);
#486=ORIENTED_EDGE('',*,*,#485,.T.);
#487=ORIENTED_EDGE('',*,*,#279,.F.);
#488=CARTESIAN_POINT('',(6.374999999999998,-13.577900242673753,0.0));
#489=DIRECTION('',(0.905193349511584,0.425000000000000,0.0));
#490=VECTOR('',#489,18.103866990231669);
#491=LINE('',#488,#490);
#492=EDGE_CURVE('',#267,#458,#491,.T.);
#493=ORIENTED_EDGE('',*,*,#492,.T.);
#494=ORIENTED_EDGE('',*,*,#463,.T.);
#495=EDGE_LOOP('',(#486,#487,#493,#494));
#496=FACE_OUTER_BOUND('',#495,.T.);
#497=ADVANCED_FACE('',(#496),#480,.T.);
#498=CARTESIAN_POINT('',(-1.110223E-015,-1.506135E-016,0.0));
#499=DIRECTION('',(0.0,0.0,1.0));
#500=DIRECTION('',(1.0,0.0,0.0));
#501=AXIS2_PLACEMENT_3D('',#498,#499,#500);
#502=PLANE('',#501);
#503=ORIENTED_EDGE('',*,*,#492,.F.);
#504=ORIENTED_EDGE('',*,*,#273,.F.);
#505=ORIENTED_EDGE('',*,*,#309,.F.);
#506=ORIENTED_EDGE('',*,*,#342,.F.);
#507=ORIENTED_EDGE('',*,*,#373,.F.);
#508=ORIENTED_EDGE('',*,*,#406,.F.);
#509=ORIENTED_EDGE('',*,*,#437,.F.);
#510=ORIENTED_EDGE('',*,*,#470,.F.);
#511=EDGE_LOOP('',(#503,#504,#505,#506,#507,#508,#509,#510));
#512=FACE_OUTER_BOUND('',#511,.T.);
#513=ORIENTED_EDGE('',*,*,#181,.T.);
#514=ORIENTED_EDGE('',*,*,#165,.T.);
#515=EDGE_LOOP('',(#513,#514));
#516=FACE_BOUND('',#515,.T.);
#517=ORIENTED_EDGE('',*,*,#205,.T.);
#518=ORIENTED_EDGE('',*,*,#123,.T.);
#519=EDGE_LOOP('',(#517,#518));
#520=FACE_BOUND('',#519,.T.);
#521=ORIENTED_EDGE('',*,*,#229,.T.);
#522=ORIENTED_EDGE('',*,*,#81,.T.);
#523=EDGE_LOOP('',(#521,#522));
#524=FACE_BOUND('',#523,.T.);
#525=ADVANCED_FACE('',(#512,#516,#520,#524),#502,.F.);
#526=CARTESIAN_POINT('',(-8.119290E-016,-8.326673E-016,4.0));
#527=DIRECTION('',(0.0,0.0,1.0));
#528=DIRECTION('',(1.0,0.0,0.0));
#529=AXIS2_PLACEMENT_3D('',#526,#527,#528);
#530=PLANE('',#529);
#531=ORIENTED_EDGE('',*,*,#256,.F.);
#532=ORIENTED_EDGE('',*,*,#485,.F.);
#533=ORIENTED_EDGE('',*,*,#455,.F.);
#534=ORIENTED_EDGE('',*,*,#423,.F.);
#535=ORIENTED_EDGE('',*,*,#391,.F.);
#536=ORIENTED_EDGE('',*,*,#359,.F.);
#537=ORIENTED_EDGE('',*,*,#327,.F.);
#538=ORIENTED_EDGE('',*,*,#295,.F.);
#539=EDGE_LOOP('',(#531,#532,#533,#534,#535,#536,#537,#538));
#540=FACE_OUTER_BOUND('',#539,.T.);
#541=ORIENTED_EDGE('',*,*,#150,.T.);
#542=ORIENTED_EDGE('',*,*,#189,.T.);
#543=EDGE_LOOP('',(#541,#542));
#544=FACE_BOUND('',#543,.T.);
#545=ORIENTED_EDGE('',*,*,#108,.T.);
#546=ORIENTED_EDGE('',*,*,#213,.T.);
#547=EDGE_LOOP('',(#545,#546));
#548=FACE_BOUND('',#547,.T.);
#549=ORIENTED_EDGE('',*,*,#66,.T.);
#550=ORIENTED_EDGE('',*,*,#237,.T.);
#551=EDGE_LOOP('',(#549,#550));
#552=FACE_BOUND('',#551,.T.);
#553=ADVANCED_FACE('',(#540,#544,#548,#552),#530,.T.);
#554=CLOSED_SHELL('',(#85,#127,#169,#193,#217,#241,#283,#314,#347,#378,#411,#442,#475,#497,#525,#553));
#555=MANIFOLD_SOLID_BREP('',#554);
#556=COLOUR_RGB('Acciaio metallizzato (brillante)',0.639215707778931,0.639215707778931,0.686274528503418);
#557=FILL_AREA_STYLE_COLOUR('Acciaio metallizzato (brillante)',#556);
#558=FILL_AREA_STYLE('Acciaio metallizzato (brillante)',(#557));
#559=SURFACE_STYLE_FILL_AREA(#558);
#560=SURFACE_SIDE_STYLE('Acciaio metallizzato (brillante)',(#559));
#561=SURFACE_STYLE_USAGE(.BOTH.,#560);
#562=PRESENTATION_STYLE_ASSIGNMENT((#561));
#563=STYLED_ITEM('',(#562),#555);
#564=MECHANICAL_DESIGN_GEOMETRIC_PRESENTATION_REPRESENTATION('',(#563),#36);
#565=ADVANCED_BREP_SHAPE_REPRESENTATION('ABSR',(#555),#36);
#566=SHAPE_REPRESENTATION_RELATIONSHIP('SRR','None',#565,#41);
ENDSEC;
END-ISO-10303-21;
