ISO-10303-21;
HEADER;
/* Generated by software containing ST-Developer
 * from STEP Tools, Inc. (www.steptools.com) 
 */
/* OPTION: strings as raw bytes, not using required /X/ escapes */

FILE_DESCRIPTION(
/* description */ ('Unknown'),
/* implementation_level */ '2;1');

FILE_NAME(
/* name */ '1200.20.32FX',
/* time_stamp */ '2019-10-17T10:02:14-04:00',
/* author */ ('Unknown'),
/* organization */ ('Unknown'),
/* preprocessor_version */ 'ST-DEVELOPER v16.7',
/* originating_system */ 'DEX',
/* authorisation */ $);

FILE_SCHEMA (('AUTOMOTIVE_DESIGN {1 0 10303 214 3 1 1}'));
ENDSEC;

DATA;
#10=PROPERTY_DEFINITION_REPRESENTATION(#14,#12);
#11=PROPERTY_DEFINITION_REPRESENTATION(#15,#13);
#12=REPRESENTATION('',(#16),#571);
#13=REPRESENTATION('',(#17),#571);
#14=PROPERTY_DEFINITION('pmi validation property','',#576);
#15=PROPERTY_DEFINITION('pmi validation property','',#576);
#16=VALUE_REPRESENTATION_ITEM('number of annotations',COUNT_MEASURE(0.));
#17=VALUE_REPRESENTATION_ITEM('number of views',COUNT_MEASURE(0.));
#18=SHAPE_REPRESENTATION_RELATIONSHIP('','',#326,#19);
#19=ADVANCED_BREP_SHAPE_REPRESENTATION('',(#324),#571);
#20=VERTEX_LOOP('',#193);
#21=SPHERICAL_SURFACE('',#348,8.864);
#22=SPHERICAL_SURFACE('',#361,8.864);
#23=SPHERICAL_SURFACE('',#364,12.);
#24=CONICAL_SURFACE('',#344,10.0920600883543,0.571658186857601);
#25=CONICAL_SURFACE('',#363,3.3235,0.785398163397446);
#26=CONICAL_SURFACE('',#370,866.025403784438,1.0471975511966);
#27=CONICAL_SURFACE('',#371,10.0920600883543,0.571658186857601);
#28=ELLIPSE('',#340,12.928,6.464);
#29=ELLIPSE('',#342,12.928,6.464);
#30=CYLINDRICAL_SURFACE('',#336,8.);
#31=CYLINDRICAL_SURFACE('',#338,6.464);
#32=CYLINDRICAL_SURFACE('',#346,8.);
#33=CYLINDRICAL_SURFACE('',#355,3.3235);
#34=CYLINDRICAL_SURFACE('',#369,4.);
#35=B_SPLINE_CURVE_WITH_KNOTS('',3,(#485,#486,#487,#488),.UNSPECIFIED.,
 .F.,.F.,(4,4),(8.67361737988404E-19,0.00714864190399029),.UNSPECIFIED.);
#36=B_SPLINE_CURVE_WITH_KNOTS('',3,(#493,#494,#495,#496),.UNSPECIFIED.,
 .F.,.F.,(4,4),(1.93947980722443E-18,0.0071486419039903),.UNSPECIFIED.);
#37=B_SPLINE_CURVE_WITH_KNOTS('',3,(#523,#524,#525,#526),.UNSPECIFIED.,
 .F.,.F.,(4,4),(3.87895961444886E-18,0.00714864190399029),.UNSPECIFIED.);
#38=B_SPLINE_CURVE_WITH_KNOTS('',3,(#540,#541,#542,#543),.UNSPECIFIED.,
 .F.,.F.,(4,4),(3.87895961444886E-18,0.00714864190399029),.UNSPECIFIED.);
#39=CIRCLE('',#330,7.63678571127932);
#40=CIRCLE('',#331,11.1242977306435);
#41=CIRCLE('',#333,4.);
#42=CIRCLE('',#334,8.);
#43=CIRCLE('',#335,8.);
#44=CIRCLE('',#337,8.);
#45=CIRCLE('',#339,6.464);
#46=CIRCLE('',#341,6.464);
#47=CIRCLE('',#343,6.464);
#48=CIRCLE('',#345,10.0920600883543);
#49=CIRCLE('',#347,8.);
#50=CIRCLE('',#349,6.52460696134258);
#51=CIRCLE('',#350,7.63678571127932);
#52=CIRCLE('',#354,11.1242977306435);
#53=CIRCLE('',#356,3.3235);
#54=CIRCLE('',#357,3.3235);
#55=CIRCLE('',#360,4.);
#56=CIRCLE('',#362,6.52460696134257);
#57=CIRCLE('',#365,10.0920600883543);
#58=CIRCLE('',#368,4.);
#59=ORIENTED_EDGE('',*,*,#131,.T.);
#60=ORIENTED_EDGE('',*,*,#132,.T.);
#61=ORIENTED_EDGE('',*,*,#133,.T.);
#62=ORIENTED_EDGE('',*,*,#134,.T.);
#63=ORIENTED_EDGE('',*,*,#135,.F.);
#64=ORIENTED_EDGE('',*,*,#136,.T.);
#65=ORIENTED_EDGE('',*,*,#137,.F.);
#66=ORIENTED_EDGE('',*,*,#138,.T.);
#67=ORIENTED_EDGE('',*,*,#139,.F.);
#68=ORIENTED_EDGE('',*,*,#140,.F.);
#69=ORIENTED_EDGE('',*,*,#133,.F.);
#70=ORIENTED_EDGE('',*,*,#141,.T.);
#71=ORIENTED_EDGE('',*,*,#142,.F.);
#72=ORIENTED_EDGE('',*,*,#143,.T.);
#73=ORIENTED_EDGE('',*,*,#144,.F.);
#74=ORIENTED_EDGE('',*,*,#145,.T.);
#75=ORIENTED_EDGE('',*,*,#134,.F.);
#76=ORIENTED_EDGE('',*,*,#143,.F.);
#77=ORIENTED_EDGE('',*,*,#146,.F.);
#78=ORIENTED_EDGE('',*,*,#147,.F.);
#79=ORIENTED_EDGE('',*,*,#148,.T.);
#80=ORIENTED_EDGE('',*,*,#149,.F.);
#81=ORIENTED_EDGE('',*,*,#150,.T.);
#82=ORIENTED_EDGE('',*,*,#136,.F.);
#83=ORIENTED_EDGE('',*,*,#151,.T.);
#84=ORIENTED_EDGE('',*,*,#152,.F.);
#85=ORIENTED_EDGE('',*,*,#148,.F.);
#86=ORIENTED_EDGE('',*,*,#153,.F.);
#87=ORIENTED_EDGE('',*,*,#141,.F.);
#88=ORIENTED_EDGE('',*,*,#132,.F.);
#89=ORIENTED_EDGE('',*,*,#154,.T.);
#90=ORIENTED_EDGE('',*,*,#155,.T.);
#91=ORIENTED_EDGE('',*,*,#156,.T.);
#92=ORIENTED_EDGE('',*,*,#147,.T.);
#93=ORIENTED_EDGE('',*,*,#137,.T.);
#94=ORIENTED_EDGE('',*,*,#149,.T.);
#95=ORIENTED_EDGE('',*,*,#157,.F.);
#96=ORIENTED_EDGE('',*,*,#156,.F.);
#97=ORIENTED_EDGE('',*,*,#158,.T.);
#98=ORIENTED_EDGE('',*,*,#157,.T.);
#99=ORIENTED_EDGE('',*,*,#152,.T.);
#100=ORIENTED_EDGE('',*,*,#159,.F.);
#101=ORIENTED_EDGE('',*,*,#160,.T.);
#102=ORIENTED_EDGE('',*,*,#161,.F.);
#103=ORIENTED_EDGE('',*,*,#162,.T.);
#104=ORIENTED_EDGE('',*,*,#144,.T.);
#105=ORIENTED_EDGE('',*,*,#142,.T.);
#106=ORIENTED_EDGE('',*,*,#153,.T.);
#107=ORIENTED_EDGE('',*,*,#163,.T.);
#108=ORIENTED_EDGE('',*,*,#155,.F.);
#109=ORIENTED_EDGE('',*,*,#135,.T.);
#110=ORIENTED_EDGE('',*,*,#164,.F.);
#111=ORIENTED_EDGE('',*,*,#160,.F.);
#112=ORIENTED_EDGE('',*,*,#140,.T.);
#113=ORIENTED_EDGE('',*,*,#151,.F.);
#114=ORIENTED_EDGE('',*,*,#139,.T.);
#115=ORIENTED_EDGE('',*,*,#165,.F.);
#116=ORIENTED_EDGE('',*,*,#159,.T.);
#117=ORIENTED_EDGE('',*,*,#146,.T.);
#118=ORIENTED_EDGE('',*,*,#154,.F.);
#119=ORIENTED_EDGE('',*,*,#131,.F.);
#120=ORIENTED_EDGE('',*,*,#145,.F.);
#121=ORIENTED_EDGE('',*,*,#162,.F.);
#122=ORIENTED_EDGE('',*,*,#166,.F.);
#123=ORIENTED_EDGE('',*,*,#164,.T.);
#124=ORIENTED_EDGE('',*,*,#166,.T.);
#125=ORIENTED_EDGE('',*,*,#163,.F.);
#126=ORIENTED_EDGE('',*,*,#161,.T.);
#127=ORIENTED_EDGE('',*,*,#138,.F.);
#128=ORIENTED_EDGE('',*,*,#150,.F.);
#129=ORIENTED_EDGE('',*,*,#158,.F.);
#130=ORIENTED_EDGE('',*,*,#165,.T.);
#131=EDGE_CURVE('',#167,#168,#194,.T.);
#132=EDGE_CURVE('',#168,#169,#195,.T.);
#133=EDGE_CURVE('',#169,#170,#196,.T.);
#134=EDGE_CURVE('',#170,#167,#197,.T.);
#135=EDGE_CURVE('',#171,#171,#39,.T.);
#136=EDGE_CURVE('',#172,#173,#35,.T.);
#137=EDGE_CURVE('',#174,#173,#198,.T.);
#138=EDGE_CURVE('',#174,#175,#36,.T.);
#139=EDGE_CURVE('',#172,#175,#40,.T.);
#140=EDGE_CURVE('',#176,#176,#41,.T.);
#141=EDGE_CURVE('',#169,#177,#42,.T.);
#142=EDGE_CURVE('',#178,#177,#199,.T.);
#143=EDGE_CURVE('',#178,#170,#43,.T.);
#144=EDGE_CURVE('',#179,#178,#200,.T.);
#145=EDGE_CURVE('',#179,#167,#44,.T.);
#146=EDGE_CURVE('',#180,#180,#45,.T.);
#147=EDGE_CURVE('',#173,#174,#28,.T.);
#148=EDGE_CURVE('',#173,#181,#46,.T.);
#149=EDGE_CURVE('',#182,#181,#29,.T.);
#150=EDGE_CURVE('',#182,#174,#47,.T.);
#151=EDGE_CURVE('',#172,#183,#48,.T.);
#152=EDGE_CURVE('',#181,#183,#37,.T.);
#153=EDGE_CURVE('',#177,#184,#201,.T.);
#154=EDGE_CURVE('',#168,#184,#49,.T.);
#155=EDGE_CURVE('',#185,#185,#50,.T.);
#156=EDGE_CURVE('',#186,#186,#51,.T.);
#157=EDGE_CURVE('',#182,#181,#202,.T.);
#158=EDGE_CURVE('',#187,#182,#38,.T.);
#159=EDGE_CURVE('',#187,#183,#52,.T.);
#160=EDGE_CURVE('',#188,#188,#53,.T.);
#161=EDGE_CURVE('',#189,#189,#54,.T.);
#162=EDGE_CURVE('',#184,#179,#203,.T.);
#163=EDGE_CURVE('',#190,#190,#55,.T.);
#164=EDGE_CURVE('',#191,#191,#56,.T.);
#165=EDGE_CURVE('',#187,#175,#57,.T.);
#166=EDGE_CURVE('',#192,#192,#58,.T.);
#167=VERTEX_POINT('',#475);
#168=VERTEX_POINT('',#476);
#169=VERTEX_POINT('',#478);
#170=VERTEX_POINT('',#480);
#171=VERTEX_POINT('',#484);
#172=VERTEX_POINT('',#489);
#173=VERTEX_POINT('',#490);
#174=VERTEX_POINT('',#492);
#175=VERTEX_POINT('',#497);
#176=VERTEX_POINT('',#501);
#177=VERTEX_POINT('',#503);
#178=VERTEX_POINT('',#505);
#179=VERTEX_POINT('',#509);
#180=VERTEX_POINT('',#513);
#181=VERTEX_POINT('',#516);
#182=VERTEX_POINT('',#518);
#183=VERTEX_POINT('',#522);
#184=VERTEX_POINT('',#529);
#185=VERTEX_POINT('',#533);
#186=VERTEX_POINT('',#535);
#187=VERTEX_POINT('',#544);
#188=VERTEX_POINT('',#548);
#189=VERTEX_POINT('',#550);
#190=VERTEX_POINT('',#555);
#191=VERTEX_POINT('',#558);
#192=VERTEX_POINT('',#565);
#193=VERTEX_POINT('',#568);
#194=LINE('',#474,#204);
#195=LINE('',#477,#205);
#196=LINE('',#479,#206);
#197=LINE('',#481,#207);
#198=LINE('',#491,#208);
#199=LINE('',#504,#209);
#200=LINE('',#508,#210);
#201=LINE('',#528,#211);
#202=LINE('',#538,#212);
#203=LINE('',#552,#213);
#204=VECTOR('',#376,1000.);
#205=VECTOR('',#377,1000.);
#206=VECTOR('',#378,1000.);
#207=VECTOR('',#379,1000.);
#208=VECTOR('',#384,1000.);
#209=VECTOR('',#393,1000.);
#210=VECTOR('',#398,1000.);
#211=VECTOR('',#419,1000.);
#212=VECTOR('',#432,1000.);
#213=VECTOR('',#445,1000.);
#214=EDGE_LOOP('',(#59,#60,#61,#62));
#215=EDGE_LOOP('',(#63));
#216=EDGE_LOOP('',(#64,#65,#66,#67));
#217=EDGE_LOOP('',(#68));
#218=EDGE_LOOP('',(#69,#70,#71,#72));
#219=EDGE_LOOP('',(#73,#74,#75,#76));
#220=EDGE_LOOP('',(#77));
#221=EDGE_LOOP('',(#78,#79,#80,#81));
#222=EDGE_LOOP('',(#82,#83,#84,#85));
#223=EDGE_LOOP('',(#86,#87,#88,#89));
#224=EDGE_LOOP('',(#90));
#225=EDGE_LOOP('',(#91));
#226=EDGE_LOOP('',(#92,#93));
#227=EDGE_LOOP('',(#94,#95));
#228=EDGE_LOOP('',(#96));
#229=EDGE_LOOP('',(#97,#98,#99,#100));
#230=EDGE_LOOP('',(#101));
#231=EDGE_LOOP('',(#102));
#232=EDGE_LOOP('',(#103,#104,#105,#106));
#233=EDGE_LOOP('',(#107));
#234=EDGE_LOOP('',(#108));
#235=EDGE_LOOP('',(#109));
#236=EDGE_LOOP('',(#110));
#237=EDGE_LOOP('',(#111));
#238=EDGE_LOOP('',(#112));
#239=EDGE_LOOP('',(#113,#114,#115,#116));
#240=EDGE_LOOP('',(#117));
#241=EDGE_LOOP('',(#118,#119,#120,#121));
#242=EDGE_LOOP('',(#122));
#243=EDGE_LOOP('',(#123));
#244=EDGE_LOOP('',(#124));
#245=EDGE_LOOP('',(#125));
#246=EDGE_LOOP('',(#126));
#247=EDGE_LOOP('',(#127,#128,#129,#130));
#248=FACE_BOUND('',#214,.T.);
#249=FACE_BOUND('',#215,.T.);
#250=FACE_BOUND('',#216,.T.);
#251=FACE_BOUND('',#217,.T.);
#252=FACE_BOUND('',#218,.T.);
#253=FACE_BOUND('',#219,.T.);
#254=FACE_BOUND('',#220,.T.);
#255=FACE_BOUND('',#221,.T.);
#256=FACE_BOUND('',#222,.T.);
#257=FACE_BOUND('',#223,.T.);
#258=FACE_BOUND('',#224,.T.);
#259=FACE_BOUND('',#225,.T.);
#260=FACE_BOUND('',#226,.T.);
#261=FACE_BOUND('',#227,.T.);
#262=FACE_BOUND('',#228,.T.);
#263=FACE_BOUND('',#229,.T.);
#264=FACE_BOUND('',#230,.T.);
#265=FACE_BOUND('',#231,.T.);
#266=FACE_BOUND('',#232,.T.);
#267=FACE_BOUND('',#233,.T.);
#268=FACE_BOUND('',#234,.T.);
#269=FACE_BOUND('',#235,.T.);
#270=FACE_BOUND('',#236,.T.);
#271=FACE_BOUND('',#237,.T.);
#272=FACE_BOUND('',#238,.T.);
#273=FACE_BOUND('',#239,.T.);
#274=FACE_BOUND('',#240,.T.);
#275=FACE_BOUND('',#241,.T.);
#276=FACE_BOUND('',#242,.T.);
#277=FACE_BOUND('',#243,.T.);
#278=FACE_BOUND('',#244,.T.);
#279=FACE_BOUND('',#245,.T.);
#280=FACE_BOUND('',#20,.T.);
#281=FACE_BOUND('',#246,.T.);
#282=FACE_BOUND('',#247,.T.);
#283=PLANE('',#328);
#284=PLANE('',#329);
#285=PLANE('',#332);
#286=PLANE('',#351);
#287=PLANE('',#352);
#288=PLANE('',#353);
#289=PLANE('',#358);
#290=PLANE('',#359);
#291=PLANE('',#366);
#292=PLANE('',#367);
#293=ADVANCED_FACE('',(#248),#283,.T.);
#294=ADVANCED_FACE('',(#249,#250),#284,.T.);
#295=ADVANCED_FACE('',(#251,#252),#285,.F.);
#296=ADVANCED_FACE('',(#253),#30,.T.);
#297=ADVANCED_FACE('',(#254,#255),#31,.T.);
#298=ADVANCED_FACE('',(#256),#24,.T.);
#299=ADVANCED_FACE('',(#257),#32,.T.);
#300=ADVANCED_FACE('',(#258,#259),#21,.T.);
#301=ADVANCED_FACE('',(#260),#286,.T.);
#302=ADVANCED_FACE('',(#261),#287,.T.);
#303=ADVANCED_FACE('',(#262,#263),#288,.T.);
#304=ADVANCED_FACE('',(#264,#265),#33,.F.);
#305=ADVANCED_FACE('',(#266),#289,.T.);
#306=ADVANCED_FACE('',(#267,#268),#290,.T.);
#307=ADVANCED_FACE('',(#269,#270),#22,.T.);
#308=ADVANCED_FACE('',(#271,#272),#25,.F.);
#309=ADVANCED_FACE('',(#273),#23,.T.);
#310=ADVANCED_FACE('',(#274,#275),#291,.F.);
#311=ADVANCED_FACE('',(#276,#277),#292,.T.);
#312=ADVANCED_FACE('',(#278,#279),#34,.F.);
#313=ADVANCED_FACE('',(#280,#281),#26,.F.);
#314=ADVANCED_FACE('',(#282),#27,.T.);
#315=CLOSED_SHELL('',(#293,#294,#295,#296,#297,#298,#299,#300,#301,#302,
#303,#304,#305,#306,#307,#308,#309,#310,#311,#312,#313,#314));
#316=STYLED_ITEM('',(#317),#324);
#317=PRESENTATION_STYLE_ASSIGNMENT((#318));
#318=SURFACE_STYLE_USAGE(.BOTH.,#319);
#319=SURFACE_SIDE_STYLE('',(#320));
#320=SURFACE_STYLE_FILL_AREA(#321);
#321=FILL_AREA_STYLE('',(#322));
#322=FILL_AREA_STYLE_COLOUR('',#323);
#323=COLOUR_RGB('',0.423529446125031,0.470588266849518,0.470588266849518);
#324=MANIFOLD_SOLID_BREP('_9255 SGS-M8---(S_0_0_0)',#315);
#325=SHAPE_DEFINITION_REPRESENTATION(#576,#326);
#326=SHAPE_REPRESENTATION('1200.20.32FX',(#327),#571);
#327=AXIS2_PLACEMENT_3D('',#472,#372,#373);
#328=AXIS2_PLACEMENT_3D('',#473,#374,#375);
#329=AXIS2_PLACEMENT_3D('',#482,#380,#381);
#330=AXIS2_PLACEMENT_3D('',#483,#382,#383);
#331=AXIS2_PLACEMENT_3D('',#498,#385,#386);
#332=AXIS2_PLACEMENT_3D('',#499,#387,#388);
#333=AXIS2_PLACEMENT_3D('',#500,#389,#390);
#334=AXIS2_PLACEMENT_3D('',#502,#391,#392);
#335=AXIS2_PLACEMENT_3D('',#506,#394,#395);
#336=AXIS2_PLACEMENT_3D('',#507,#396,#397);
#337=AXIS2_PLACEMENT_3D('',#510,#399,#400);
#338=AXIS2_PLACEMENT_3D('',#511,#401,#402);
#339=AXIS2_PLACEMENT_3D('',#512,#403,#404);
#340=AXIS2_PLACEMENT_3D('',#514,#405,#406);
#341=AXIS2_PLACEMENT_3D('',#515,#407,#408);
#342=AXIS2_PLACEMENT_3D('',#517,#409,#410);
#343=AXIS2_PLACEMENT_3D('',#519,#411,#412);
#344=AXIS2_PLACEMENT_3D('',#520,#413,#414);
#345=AXIS2_PLACEMENT_3D('',#521,#415,#416);
#346=AXIS2_PLACEMENT_3D('',#527,#417,#418);
#347=AXIS2_PLACEMENT_3D('',#530,#420,#421);
#348=AXIS2_PLACEMENT_3D('',#531,#422,#423);
#349=AXIS2_PLACEMENT_3D('',#532,#424,#425);
#350=AXIS2_PLACEMENT_3D('',#534,#426,#427);
#351=AXIS2_PLACEMENT_3D('',#536,#428,#429);
#352=AXIS2_PLACEMENT_3D('',#537,#430,#431);
#353=AXIS2_PLACEMENT_3D('',#539,#433,#434);
#354=AXIS2_PLACEMENT_3D('',#545,#435,#436);
#355=AXIS2_PLACEMENT_3D('',#546,#437,#438);
#356=AXIS2_PLACEMENT_3D('',#547,#439,#440);
#357=AXIS2_PLACEMENT_3D('',#549,#441,#442);
#358=AXIS2_PLACEMENT_3D('',#551,#443,#444);
#359=AXIS2_PLACEMENT_3D('',#553,#446,#447);
#360=AXIS2_PLACEMENT_3D('',#554,#448,#449);
#361=AXIS2_PLACEMENT_3D('',#556,#450,#451);
#362=AXIS2_PLACEMENT_3D('',#557,#452,#453);
#363=AXIS2_PLACEMENT_3D('',#559,#454,#455);
#364=AXIS2_PLACEMENT_3D('',#560,#456,#457);
#365=AXIS2_PLACEMENT_3D('',#561,#458,#459);
#366=AXIS2_PLACEMENT_3D('',#562,#460,#461);
#367=AXIS2_PLACEMENT_3D('',#563,#462,#463);
#368=AXIS2_PLACEMENT_3D('',#564,#464,#465);
#369=AXIS2_PLACEMENT_3D('',#566,#466,#467);
#370=AXIS2_PLACEMENT_3D('',#567,#468,#469);
#371=AXIS2_PLACEMENT_3D('',#569,#470,#471);
#372=DIRECTION('',(0.,0.,1.));
#373=DIRECTION('',(1.,0.,0.));
#374=DIRECTION('',(0.,1.,0.));
#375=DIRECTION('',(1.,0.,0.));
#376=DIRECTION('',(0.,0.,1.));
#377=DIRECTION('',(1.,0.,0.));
#378=DIRECTION('',(0.,0.,-1.));
#379=DIRECTION('',(-1.,0.,0.));
#380=DIRECTION('',(0.,-1.,0.));
#381=DIRECTION('',(0.,0.,-1.));
#382=DIRECTION('',(0.,-1.,0.));
#383=DIRECTION('',(0.,0.,-1.));
#384=DIRECTION('',(0.,0.,-1.));
#385=DIRECTION('',(0.,1.,0.));
#386=DIRECTION('',(0.,0.,-1.));
#387=DIRECTION('',(-1.,0.,0.));
#388=DIRECTION('',(0.,0.,1.));
#389=DIRECTION('',(1.,0.,0.));
#390=DIRECTION('',(0.,0.,-1.));
#391=DIRECTION('',(1.,0.,0.));
#392=DIRECTION('',(0.,0.,-1.));
#393=DIRECTION('',(0.,0.,1.));
#394=DIRECTION('',(1.,0.,0.));
#395=DIRECTION('',(0.,0.,-1.));
#396=DIRECTION('',(1.,0.,0.));
#397=DIRECTION('',(0.,0.,-1.));
#398=DIRECTION('',(1.,0.,0.));
#399=DIRECTION('',(1.,0.,0.));
#400=DIRECTION('',(0.,0.,-1.));
#401=DIRECTION('',(1.,0.,0.));
#402=DIRECTION('',(0.,0.,-1.));
#403=DIRECTION('',(1.,0.,0.));
#404=DIRECTION('',(0.,0.,-1.));
#405=DIRECTION('',(-0.5,-0.866025403784439,0.));
#406=DIRECTION('',(0.866025403784439,-0.5,0.));
#407=DIRECTION('',(1.,0.,0.));
#408=DIRECTION('',(0.,0.,-1.));
#409=DIRECTION('',(-0.5,0.866025403784439,0.));
#410=DIRECTION('',(0.866025403784439,0.5,0.));
#411=DIRECTION('',(1.,0.,0.));
#412=DIRECTION('',(0.,0.,-1.));
#413=DIRECTION('',(-1.,0.,0.));
#414=DIRECTION('',(0.,0.,1.));
#415=DIRECTION('',(1.,0.,0.));
#416=DIRECTION('',(0.,0.,-1.));
#417=DIRECTION('',(1.,0.,0.));
#418=DIRECTION('',(0.,0.,-1.));
#419=DIRECTION('',(-1.,0.,0.));
#420=DIRECTION('',(1.,0.,0.));
#421=DIRECTION('',(0.,0.,-1.));
#422=DIRECTION('',(0.,-1.,0.));
#423=DIRECTION('',(1.,0.,0.));
#424=DIRECTION('',(0.,-1.,0.));
#425=DIRECTION('',(0.,0.,-1.));
#426=DIRECTION('',(0.,1.,0.));
#427=DIRECTION('',(0.,0.,1.));
#428=DIRECTION('',(-0.5,-0.866025403784439,0.));
#429=DIRECTION('',(-0.866025403784439,0.5,0.));
#430=DIRECTION('',(-0.5,0.866025403784439,0.));
#431=DIRECTION('',(0.,0.,1.));
#432=DIRECTION('',(0.,0.,-1.));
#433=DIRECTION('',(0.,1.,0.));
#434=DIRECTION('',(1.,0.,0.));
#435=DIRECTION('',(0.,-1.,0.));
#436=DIRECTION('',(0.,0.,1.));
#437=DIRECTION('',(1.,0.,0.));
#438=DIRECTION('',(0.,0.,-1.));
#439=DIRECTION('',(1.,0.,0.));
#440=DIRECTION('',(0.,0.,-1.));
#441=DIRECTION('',(1.,0.,0.));
#442=DIRECTION('',(0.,0.,-1.));
#443=DIRECTION('',(0.,-1.,0.));
#444=DIRECTION('',(0.,0.,-1.));
#445=DIRECTION('',(0.,0.,-1.));
#446=DIRECTION('',(0.,1.,0.));
#447=DIRECTION('',(1.,0.,0.));
#448=DIRECTION('',(0.,-1.,0.));
#449=DIRECTION('',(0.,0.,-1.));
#450=DIRECTION('',(0.,-1.,0.));
#451=DIRECTION('',(1.,0.,0.));
#452=DIRECTION('',(0.,-1.,0.));
#453=DIRECTION('',(0.,0.,-1.));
#454=DIRECTION('',(1.,0.,0.));
#455=DIRECTION('',(0.,0.,-1.));
#456=DIRECTION('',(1.,0.,0.));
#457=DIRECTION('',(0.,1.,0.));
#458=DIRECTION('',(1.,0.,0.));
#459=DIRECTION('',(0.,0.,-1.));
#460=DIRECTION('',(1.,0.,0.));
#461=DIRECTION('',(0.,1.,0.));
#462=DIRECTION('',(0.,-1.,0.));
#463=DIRECTION('',(0.,0.,-1.));
#464=DIRECTION('',(0.,-1.,0.));
#465=DIRECTION('',(0.,0.,-1.));
#466=DIRECTION('',(0.,-1.,0.));
#467=DIRECTION('',(0.,0.,-1.));
#468=DIRECTION('',(1.,0.,0.));
#469=DIRECTION('',(0.,0.,-1.));
#470=DIRECTION('',(-1.,0.,0.));
#471=DIRECTION('',(0.,0.,1.));
#472=CARTESIAN_POINT('',(0.,0.,0.));
#473=CARTESIAN_POINT('',(52.,7.,12.));
#474=CARTESIAN_POINT('',(31.356,7.,0.));
#475=CARTESIAN_POINT('',(31.356,7.,-3.87298334620742));
#476=CARTESIAN_POINT('',(31.356,7.,3.87298334620742));
#477=CARTESIAN_POINT('',(36.,7.,3.87298334620742));
#478=CARTESIAN_POINT('',(36.,7.,3.87298334620742));
#479=CARTESIAN_POINT('',(36.,7.,0.));
#480=CARTESIAN_POINT('',(36.,7.,-3.87298334620742));
#481=CARTESIAN_POINT('',(36.,7.,-3.87298334620742));
#482=CARTESIAN_POINT('',(12.132,-4.5,12.));
#483=CARTESIAN_POINT('',(8.67361737988404E-16,-4.5,0.));
#484=CARTESIAN_POINT('',(8.67361737988404E-16,-4.5,-7.63678571127932));
#485=CARTESIAN_POINT('',(6.49232802414089,-4.5,-9.0332539445625));
#486=CARTESIAN_POINT('',(8.42873738008151,-4.5,-7.64152901300012));
#487=CARTESIAN_POINT('',(10.3531779836068,-4.5,-6.23443825965553));
#488=CARTESIAN_POINT('',(12.132,-4.5,-4.64039825877045));
#489=CARTESIAN_POINT('',(6.4923280241409,-4.5,-9.03325394456251));
#490=CARTESIAN_POINT('',(12.132,-4.5,-4.64039825877046));
#491=CARTESIAN_POINT('',(12.132,-4.5,12.));
#492=CARTESIAN_POINT('',(12.132,-4.5,4.64039825877046));
#493=CARTESIAN_POINT('',(12.132,-4.5,4.64039825877044));
#494=CARTESIAN_POINT('',(10.3531779836068,-4.5,6.23443825965552));
#495=CARTESIAN_POINT('',(8.4287373800815,-4.5,7.64152901300013));
#496=CARTESIAN_POINT('',(6.49232802414089,-4.5,9.03325394456251));
#497=CARTESIAN_POINT('',(6.49232802414091,-4.5,9.03325394456252));
#498=CARTESIAN_POINT('',(3.46944695195361E-15,-4.5,0.));
#499=CARTESIAN_POINT('',(36.,8.,0.));
#500=CARTESIAN_POINT('',(36.,0.,0.));
#501=CARTESIAN_POINT('',(36.,0.,-4.));
#502=CARTESIAN_POINT('',(36.,0.,0.));
#503=CARTESIAN_POINT('',(36.,-7.,3.87298334620742));
#504=CARTESIAN_POINT('',(36.,-7.,0.));
#505=CARTESIAN_POINT('',(36.,-7.,-3.87298334620742));
#506=CARTESIAN_POINT('',(36.,0.,0.));
#507=CARTESIAN_POINT('',(36.,0.,0.));
#508=CARTESIAN_POINT('',(36.,-7.,-3.87298334620742));
#509=CARTESIAN_POINT('',(31.356,-7.,-3.87298334620742));
#510=CARTESIAN_POINT('',(31.356,0.,0.));
#511=CARTESIAN_POINT('',(36.,0.,0.));
#512=CARTESIAN_POINT('',(31.356,0.,0.));
#513=CARTESIAN_POINT('',(31.356,0.,-6.464));
#514=CARTESIAN_POINT('',(4.33777136594006,0.,0.));
#515=CARTESIAN_POINT('',(12.132,0.,0.));
#516=CARTESIAN_POINT('',(12.132,4.5,-4.64039825877046));
#517=CARTESIAN_POINT('',(4.33777136594006,0.,0.));
#518=CARTESIAN_POINT('',(12.132,4.5,4.64039825877046));
#519=CARTESIAN_POINT('',(12.132,0.,0.));
#520=CARTESIAN_POINT('',(6.49232802414091,0.,0.));
#521=CARTESIAN_POINT('',(6.49232802414091,0.,0.));
#522=CARTESIAN_POINT('',(6.4923280241409,4.5,-9.03325394456251));
#523=CARTESIAN_POINT('',(12.132,4.5,-4.64039825877045));
#524=CARTESIAN_POINT('',(10.3531779836068,4.5,-6.23443825965553));
#525=CARTESIAN_POINT('',(8.42873738008151,4.5,-7.64152901300013));
#526=CARTESIAN_POINT('',(6.4923280241409,4.5,-9.0332539445625));
#527=CARTESIAN_POINT('',(36.,0.,0.));
#528=CARTESIAN_POINT('',(36.,-7.,3.87298334620742));
#529=CARTESIAN_POINT('',(31.356,-7.,3.87298334620742));
#530=CARTESIAN_POINT('',(31.356,0.,0.));
#531=CARTESIAN_POINT('',(8.67361737988404E-16,-1.30104260698261E-15,0.));
#532=CARTESIAN_POINT('',(0.,6.,0.));
#533=CARTESIAN_POINT('',(0.,6.,-6.52460696134258));
#534=CARTESIAN_POINT('',(8.67361737988404E-16,4.5,0.));
#535=CARTESIAN_POINT('',(8.67361737988404E-16,4.5,7.63678571127932));
#536=CARTESIAN_POINT('',(25.2955861375235,-12.1,12.));
#537=CARTESIAN_POINT('',(12.132,4.5,12.));
#538=CARTESIAN_POINT('',(12.132,4.5,12.));
#539=CARTESIAN_POINT('',(-15.,4.5,12.));
#540=CARTESIAN_POINT('',(6.4923280241409,4.5,9.0332539445625));
#541=CARTESIAN_POINT('',(8.42873738008151,4.5,7.64152901300012));
#542=CARTESIAN_POINT('',(10.3531779836068,4.5,6.23443825965553));
#543=CARTESIAN_POINT('',(12.132,4.5,4.64039825877045));
#544=CARTESIAN_POINT('',(6.49232802414092,4.5,9.03325394456251));
#545=CARTESIAN_POINT('',(3.46944695195361E-15,4.5,0.));
#546=CARTESIAN_POINT('',(36.,0.,0.));
#547=CARTESIAN_POINT('',(35.3235,0.,0.));
#548=CARTESIAN_POINT('',(35.3235,0.,-3.3235));
#549=CARTESIAN_POINT('',(16.,0.,0.));
#550=CARTESIAN_POINT('',(16.,0.,-3.3235));
#551=CARTESIAN_POINT('',(52.,-7.,-14.));
#552=CARTESIAN_POINT('',(31.356,-7.,0.));
#553=CARTESIAN_POINT('',(6.52460696134257,6.,0.));
#554=CARTESIAN_POINT('',(0.,6.,0.));
#555=CARTESIAN_POINT('',(0.,6.,-4.));
#556=CARTESIAN_POINT('',(8.67361737988404E-16,-1.30104260698261E-15,0.));
#557=CARTESIAN_POINT('',(0.,-6.,0.));
#558=CARTESIAN_POINT('',(0.,-6.,-6.52460696134257));
#559=CARTESIAN_POINT('',(35.3235,0.,0.));
#560=CARTESIAN_POINT('',(3.46944695195361E-15,-6.07153216591882E-15,0.));
#561=CARTESIAN_POINT('',(6.49232802414091,0.,0.));
#562=CARTESIAN_POINT('',(31.356,6.464,0.));
#563=CARTESIAN_POINT('',(4.,-6.,0.));
#564=CARTESIAN_POINT('',(0.,-6.,0.));
#565=CARTESIAN_POINT('',(0.,-6.,-4.));
#566=CARTESIAN_POINT('',(0.,-6.,0.));
#567=CARTESIAN_POINT('',(514.081176380349,0.,0.));
#568=CARTESIAN_POINT('',(14.0811763803483,0.,0.));
#569=CARTESIAN_POINT('',(6.49232802414091,0.,0.));
#570=MECHANICAL_DESIGN_GEOMETRIC_PRESENTATION_REPRESENTATION('',(#316),
#571);
#571=(
GEOMETRIC_REPRESENTATION_CONTEXT(3)
GLOBAL_UNCERTAINTY_ASSIGNED_CONTEXT((#572))
GLOBAL_UNIT_ASSIGNED_CONTEXT((#575,#574,#573))
REPRESENTATION_CONTEXT('1200.20.32FX','TOP_LEVEL_ASSEMBLY_PART')
);
#572=UNCERTAINTY_MEASURE_WITH_UNIT(LENGTH_MEASURE(0.005),#575,
'DISTANCE_ACCURACY_VALUE','Maximum Tolerance applied to model');
#573=(
NAMED_UNIT(*)
SI_UNIT($,.STERADIAN.)
SOLID_ANGLE_UNIT()
);
#574=(
NAMED_UNIT(*)
PLANE_ANGLE_UNIT()
SI_UNIT($,.RADIAN.)
);
#575=(
LENGTH_UNIT()
NAMED_UNIT(*)
SI_UNIT(.MILLI.,.METRE.)
);
#576=PRODUCT_DEFINITION_SHAPE('','',#577);
#577=PRODUCT_DEFINITION('','',#579,#578);
#578=PRODUCT_DEFINITION_CONTEXT('',#585,'design');
#579=PRODUCT_DEFINITION_FORMATION_WITH_SPECIFIED_SOURCE('','',#581,
 .NOT_KNOWN.);
#580=PRODUCT_RELATED_PRODUCT_CATEGORY('','',(#581));
#581=PRODUCT('1200.20.32FX','1200.20.32FX','1200.20.32FX',(#583));
#582=PRODUCT_CATEGORY('','');
#583=PRODUCT_CONTEXT('',#585,'mechanical');
#584=APPLICATION_PROTOCOL_DEFINITION('international standard',
'automotive_design',2010,#585);
#585=APPLICATION_CONTEXT(
'core data for automotive mechanical design processes');
ENDSEC;
END-ISO-10303-21;
