ISO-10303-21;
HEADER;
/****************************************************************
 * Generated by software with PDE/Lib inside                    *
 * PDE/Lib Version 3.2.6, created Mon Nov 19, 2001 at 18:43:38  *
 * International Technegroup Inc. (www.iti-oh.com)              *
 ****************************************************************/
FILE_DESCRIPTION((''),'2;1');
FILE_NAME('I:\\DOC-EDP\\Lib-3d\\1200\\FISSAGGI\\1200_Ø_02\\1200_32_02.stp','2003-04-08T08:41:43',('maffial1'),(''),'Autodesk Inventor (R) 6.0','Autodesk Inventor (R) 6.0','');
FILE_SCHEMA(('AUTOMOTIVE_DESIGN { 1 0 10303 214 1 1 1 1 }'));
ENDSEC;
DATA;
#5=APPLICATION_CONTEXT('automotive design');
#6=APPLICATION_PROTOCOL_DEFINITION('Draft International Standard','automotive_design',1998,#5);
#7=PRODUCT_CONTEXT('None',#5,'mechanical');
#8=PRODUCT('1200_32_02','1200_32_02','None',(#7));
#9=PRODUCT_RELATED_PRODUCT_CATEGORY('part','description',(#8));
#10=PRODUCT_DEFINITION_FORMATION('None','None',#8);
#11=PRODUCT_DEFINITION_CONTEXT('part definition',#5,'design');
#12=PRODUCT_DEFINITION('None','None',#10,#11);
#18=(NAMED_UNIT(*)PLANE_ANGLE_UNIT()SI_UNIT($,.RADIAN.));
#19=DIMENSIONAL_EXPONENTS(0.0,0.0,0.0,0.0,0.0,0.0,0.0);
#20=PLANE_ANGLE_MEASURE_WITH_UNIT(PLANE_ANGLE_MEASURE(0.017453292500000),#18);
#24=(CONVERSION_BASED_UNIT('DEGREE',#20)NAMED_UNIT(#19)PLANE_ANGLE_UNIT());
#28=(NAMED_UNIT(*)SI_UNIT($,.STERADIAN.)SOLID_ANGLE_UNIT());
#32=(LENGTH_UNIT()NAMED_UNIT(*)SI_UNIT(.MILLI.,.METRE.));
#34=UNCERTAINTY_MEASURE_WITH_UNIT(LENGTH_MEASURE(0.000001000000000),#32,'DISTANCE_ACCURACY_VALUE','');
#36=(GEOMETRIC_REPRESENTATION_CONTEXT(3)GLOBAL_UNCERTAINTY_ASSIGNED_CONTEXT((#34))GLOBAL_UNIT_ASSIGNED_CONTEXT((#24,#28,#32))REPRESENTATION_CONTEXT('None','None'));
#37=AXIS2_PLACEMENT_3D('',#38,#39,#40);
#38=CARTESIAN_POINT('',(0.0,0.0,0.0));
#39=DIRECTION('',(0.0,0.0,1.0));
#40=DIRECTION('',(1.0,0.0,0.0));
#41=SHAPE_REPRESENTATION('',(#37),#36);
#42=PRODUCT_DEFINITION_SHAPE('','',#12);
#43=SHAPE_DEFINITION_REPRESENTATION(#42,#41);
#44=CARTESIAN_POINT('',(-26.0,0.0,0.0));
#45=DIRECTION('',(0.0,0.0,1.0));
#46=DIRECTION('',(-1.0,0.0,0.0));
#47=AXIS2_PLACEMENT_3D('',#44,#45,#46);
#48=CYLINDRICAL_SURFACE('',#47,3.250000000000000);
#49=CARTESIAN_POINT('',(-29.250000000000000,3.979971E-016,5.0));
#50=VERTEX_POINT('',#49);
#51=CARTESIAN_POINT('',(-29.250000000000000,3.979971E-016,0.0));
#52=VERTEX_POINT('',#51);
#53=CARTESIAN_POINT('',(-29.250000000000000,3.979971E-016,5.0));
#54=DIRECTION('',(0.0,0.0,-1.0));
#55=VECTOR('',#54,5.0);
#56=LINE('',#53,#55);
#57=EDGE_CURVE('',#50,#52,#56,.T.);
#58=ORIENTED_EDGE('',*,*,#57,.F.);
#59=CARTESIAN_POINT('',(-22.750000000000000,3.979971E-016,5.0));
#60=VERTEX_POINT('',#59);
#61=CARTESIAN_POINT('',(-26.0,0.0,5.0));
#62=DIRECTION('',(0.0,0.0,-1.0));
#63=DIRECTION('',(-1.0,0.0,0.0));
#64=AXIS2_PLACEMENT_3D('',#61,#62,#63);
#65=CIRCLE('',#64,3.250000000000000);
#66=EDGE_CURVE('',#60,#50,#65,.T.);
#67=ORIENTED_EDGE('',*,*,#66,.F.);
#68=CARTESIAN_POINT('',(-22.750000000000000,3.979971E-016,0.0));
#69=VERTEX_POINT('',#68);
#70=CARTESIAN_POINT('',(-22.750000000000000,3.979971E-016,0.0));
#71=DIRECTION('',(0.0,0.0,1.0));
#72=VECTOR('',#71,5.0);
#73=LINE('',#70,#72);
#74=EDGE_CURVE('',#69,#60,#73,.T.);
#75=ORIENTED_EDGE('',*,*,#74,.F.);
#76=CARTESIAN_POINT('',(-26.0,0.0,0.0));
#77=DIRECTION('',(0.0,0.0,1.0));
#78=DIRECTION('',(-1.0,0.0,0.0));
#79=AXIS2_PLACEMENT_3D('',#76,#77,#78);
#80=CIRCLE('',#79,3.250000000000000);
#81=EDGE_CURVE('',#52,#69,#80,.T.);
#82=ORIENTED_EDGE('',*,*,#81,.F.);
#83=EDGE_LOOP('',(#58,#67,#75,#82));
#84=FACE_OUTER_BOUND('',#83,.T.);
#85=ADVANCED_FACE('',(#84),#48,.F.);
#86=CARTESIAN_POINT('',(26.0,0.0,0.0));
#87=DIRECTION('',(0.0,0.0,1.0));
#88=DIRECTION('',(-1.0,0.0,0.0));
#89=AXIS2_PLACEMENT_3D('',#86,#87,#88);
#90=CYLINDRICAL_SURFACE('',#89,3.250000000000000);
#91=CARTESIAN_POINT('',(22.750000000000000,3.979971E-016,5.0));
#92=VERTEX_POINT('',#91);
#93=CARTESIAN_POINT('',(22.750000000000000,3.979971E-016,0.0));
#94=VERTEX_POINT('',#93);
#95=CARTESIAN_POINT('',(22.750000000000000,3.979971E-016,5.0));
#96=DIRECTION('',(0.0,0.0,-1.0));
#97=VECTOR('',#96,5.0);
#98=LINE('',#95,#97);
#99=EDGE_CURVE('',#92,#94,#98,.T.);
#100=ORIENTED_EDGE('',*,*,#99,.F.);
#101=CARTESIAN_POINT('',(29.250000000000004,3.979971E-016,5.0));
#102=VERTEX_POINT('',#101);
#103=CARTESIAN_POINT('',(26.0,0.0,5.0));
#104=DIRECTION('',(0.0,0.0,-1.0));
#105=DIRECTION('',(-1.0,0.0,0.0));
#106=AXIS2_PLACEMENT_3D('',#103,#104,#105);
#107=CIRCLE('',#106,3.250000000000000);
#108=EDGE_CURVE('',#102,#92,#107,.T.);
#109=ORIENTED_EDGE('',*,*,#108,.F.);
#110=CARTESIAN_POINT('',(29.250000000000004,3.979971E-016,0.0));
#111=VERTEX_POINT('',#110);
#112=CARTESIAN_POINT('',(29.250000000000004,3.979971E-016,0.0));
#113=DIRECTION('',(0.0,0.0,1.0));
#114=VECTOR('',#113,5.0);
#115=LINE('',#112,#114);
#116=EDGE_CURVE('',#111,#102,#115,.T.);
#117=ORIENTED_EDGE('',*,*,#116,.F.);
#118=CARTESIAN_POINT('',(26.0,0.0,0.0));
#119=DIRECTION('',(0.0,0.0,1.0));
#120=DIRECTION('',(-1.0,0.0,0.0));
#121=AXIS2_PLACEMENT_3D('',#118,#119,#120);
#122=CIRCLE('',#121,3.250000000000000);
#123=EDGE_CURVE('',#94,#111,#122,.T.);
#124=ORIENTED_EDGE('',*,*,#123,.F.);
#125=EDGE_LOOP('',(#100,#109,#117,#124));
#126=FACE_OUTER_BOUND('',#125,.T.);
#127=ADVANCED_FACE('',(#126),#90,.F.);
#128=CARTESIAN_POINT('',(0.0,0.0,0.0));
#129=DIRECTION('',(0.0,0.0,1.0));
#130=DIRECTION('',(-1.0,0.0,0.0));
#131=AXIS2_PLACEMENT_3D('',#128,#129,#130);
#132=CYLINDRICAL_SURFACE('',#131,15.0);
#133=CARTESIAN_POINT('',(-15.0,1.836910E-015,5.0));
#134=VERTEX_POINT('',#133);
#135=CARTESIAN_POINT('',(-15.0,1.836910E-015,0.0));
#136=VERTEX_POINT('',#135);
#137=CARTESIAN_POINT('',(-15.0,1.836910E-015,5.0));
#138=DIRECTION('',(0.0,0.0,-1.0));
#139=VECTOR('',#138,5.0);
#140=LINE('',#137,#139);
#141=EDGE_CURVE('',#134,#136,#140,.T.);
#142=ORIENTED_EDGE('',*,*,#141,.F.);
#143=CARTESIAN_POINT('',(15.0,1.836910E-015,5.0));
#144=VERTEX_POINT('',#143);
#145=CARTESIAN_POINT('',(0.0,0.0,5.0));
#146=DIRECTION('',(0.0,0.0,-1.0));
#147=DIRECTION('',(-1.0,0.0,0.0));
#148=AXIS2_PLACEMENT_3D('',#145,#146,#147);
#149=CIRCLE('',#148,15.0);
#150=EDGE_CURVE('',#144,#134,#149,.T.);
#151=ORIENTED_EDGE('',*,*,#150,.F.);
#152=CARTESIAN_POINT('',(15.0,1.836910E-015,0.0));
#153=VERTEX_POINT('',#152);
#154=CARTESIAN_POINT('',(15.0,1.836910E-015,0.0));
#155=DIRECTION('',(0.0,0.0,1.0));
#156=VECTOR('',#155,5.0);
#157=LINE('',#154,#156);
#158=EDGE_CURVE('',#153,#144,#157,.T.);
#159=ORIENTED_EDGE('',*,*,#158,.F.);
#160=CARTESIAN_POINT('',(0.0,0.0,0.0));
#161=DIRECTION('',(0.0,0.0,1.0));
#162=DIRECTION('',(-1.0,0.0,0.0));
#163=AXIS2_PLACEMENT_3D('',#160,#161,#162);
#164=CIRCLE('',#163,15.0);
#165=EDGE_CURVE('',#136,#153,#164,.T.);
#166=ORIENTED_EDGE('',*,*,#165,.F.);
#167=EDGE_LOOP('',(#142,#151,#159,#166));
#168=FACE_OUTER_BOUND('',#167,.T.);
#169=ADVANCED_FACE('',(#168),#132,.F.);
#170=CARTESIAN_POINT('',(0.0,0.0,0.0));
#171=DIRECTION('',(0.0,0.0,1.0));
#172=DIRECTION('',(-1.0,0.0,0.0));
#173=AXIS2_PLACEMENT_3D('',#170,#171,#172);
#174=CYLINDRICAL_SURFACE('',#173,15.0);
#175=ORIENTED_EDGE('',*,*,#141,.T.);
#176=CARTESIAN_POINT('',(0.0,0.0,0.0));
#177=DIRECTION('',(0.0,0.0,1.0));
#178=DIRECTION('',(-1.0,0.0,0.0));
#179=AXIS2_PLACEMENT_3D('',#176,#177,#178);
#180=CIRCLE('',#179,15.0);
#181=EDGE_CURVE('',#153,#136,#180,.T.);
#182=ORIENTED_EDGE('',*,*,#181,.F.);
#183=ORIENTED_EDGE('',*,*,#158,.T.);
#184=CARTESIAN_POINT('',(0.0,0.0,5.0));
#185=DIRECTION('',(0.0,0.0,-1.0));
#186=DIRECTION('',(-1.0,0.0,0.0));
#187=AXIS2_PLACEMENT_3D('',#184,#185,#186);
#188=CIRCLE('',#187,15.0);
#189=EDGE_CURVE('',#134,#144,#188,.T.);
#190=ORIENTED_EDGE('',*,*,#189,.F.);
#191=EDGE_LOOP('',(#175,#182,#183,#190));
#192=FACE_OUTER_BOUND('',#191,.T.);
#193=ADVANCED_FACE('',(#192),#174,.F.);
#194=CARTESIAN_POINT('',(26.0,0.0,0.0));
#195=DIRECTION('',(0.0,0.0,1.0));
#196=DIRECTION('',(-1.0,0.0,0.0));
#197=AXIS2_PLACEMENT_3D('',#194,#195,#196);
#198=CYLINDRICAL_SURFACE('',#197,3.250000000000000);
#199=ORIENTED_EDGE('',*,*,#99,.T.);
#200=CARTESIAN_POINT('',(26.0,0.0,0.0));
#201=DIRECTION('',(0.0,0.0,1.0));
#202=DIRECTION('',(-1.0,0.0,0.0));
#203=AXIS2_PLACEMENT_3D('',#200,#201,#202);
#204=CIRCLE('',#203,3.250000000000000);
#205=EDGE_CURVE('',#111,#94,#204,.T.);
#206=ORIENTED_EDGE('',*,*,#205,.F.);
#207=ORIENTED_EDGE('',*,*,#116,.T.);
#208=CARTESIAN_POINT('',(26.0,0.0,5.0));
#209=DIRECTION('',(0.0,0.0,-1.0));
#210=DIRECTION('',(-1.0,0.0,0.0));
#211=AXIS2_PLACEMENT_3D('',#208,#209,#210);
#212=CIRCLE('',#211,3.250000000000000);
#213=EDGE_CURVE('',#92,#102,#212,.T.);
#214=ORIENTED_EDGE('',*,*,#213,.F.);
#215=EDGE_LOOP('',(#199,#206,#207,#214));
#216=FACE_OUTER_BOUND('',#215,.T.);
#217=ADVANCED_FACE('',(#216),#198,.F.);
#218=CARTESIAN_POINT('',(-26.0,0.0,0.0));
#219=DIRECTION('',(0.0,0.0,1.0));
#220=DIRECTION('',(-1.0,0.0,0.0));
#221=AXIS2_PLACEMENT_3D('',#218,#219,#220);
#222=CYLINDRICAL_SURFACE('',#221,3.250000000000000);
#223=ORIENTED_EDGE('',*,*,#57,.T.);
#224=CARTESIAN_POINT('',(-26.0,0.0,0.0));
#225=DIRECTION('',(0.0,0.0,1.0));
#226=DIRECTION('',(-1.0,0.0,0.0));
#227=AXIS2_PLACEMENT_3D('',#224,#225,#226);
#228=CIRCLE('',#227,3.250000000000000);
#229=EDGE_CURVE('',#69,#52,#228,.T.);
#230=ORIENTED_EDGE('',*,*,#229,.F.);
#231=ORIENTED_EDGE('',*,*,#74,.T.);
#232=CARTESIAN_POINT('',(-26.0,0.0,5.0));
#233=DIRECTION('',(0.0,0.0,-1.0));
#234=DIRECTION('',(-1.0,0.0,0.0));
#235=AXIS2_PLACEMENT_3D('',#232,#233,#234);
#236=CIRCLE('',#235,3.250000000000000);
#237=EDGE_CURVE('',#50,#60,#236,.T.);
#238=ORIENTED_EDGE('',*,*,#237,.F.);
#239=EDGE_LOOP('',(#223,#230,#231,#238));
#240=FACE_OUTER_BOUND('',#239,.T.);
#241=ADVANCED_FACE('',(#240),#222,.F.);
#242=CARTESIAN_POINT('',(-31.000000000000007,25.0,0.0));
#243=DIRECTION('',(0.0,1.0,0.0));
#244=DIRECTION('',(0.0,0.0,1.0));
#245=AXIS2_PLACEMENT_3D('',#242,#243,#244);
#246=PLANE('',#245);
#247=CARTESIAN_POINT('',(-31.000000000000007,25.0,5.0));
#248=VERTEX_POINT('',#247);
#249=CARTESIAN_POINT('',(31.000000000000007,25.0,5.0));
#250=VERTEX_POINT('',#249);
#251=CARTESIAN_POINT('',(-31.000000000000007,25.0,5.0));
#252=DIRECTION('',(1.0,0.0,0.0));
#253=VECTOR('',#252,62.000000000000014);
#254=LINE('',#251,#253);
#255=EDGE_CURVE('',#248,#250,#254,.T.);
#256=ORIENTED_EDGE('',*,*,#255,.T.);
#257=CARTESIAN_POINT('',(31.000000000000007,25.0,0.0));
#258=VERTEX_POINT('',#257);
#259=CARTESIAN_POINT('',(31.000000000000007,25.0,0.0));
#260=DIRECTION('',(0.0,0.0,1.0));
#261=VECTOR('',#260,5.0);
#262=LINE('',#259,#261);
#263=EDGE_CURVE('',#258,#250,#262,.T.);
#264=ORIENTED_EDGE('',*,*,#263,.F.);
#265=CARTESIAN_POINT('',(-31.000000000000007,25.0,0.0));
#266=VERTEX_POINT('',#265);
#267=CARTESIAN_POINT('',(31.000000000000007,25.0,0.0));
#268=DIRECTION('',(-1.0,0.0,0.0));
#269=VECTOR('',#268,62.000000000000014);
#270=LINE('',#267,#269);
#271=EDGE_CURVE('',#258,#266,#270,.T.);
#272=ORIENTED_EDGE('',*,*,#271,.T.);
#273=CARTESIAN_POINT('',(-31.000000000000007,25.0,0.0));
#274=DIRECTION('',(0.0,0.0,1.0));
#275=VECTOR('',#274,5.0);
#276=LINE('',#273,#275);
#277=EDGE_CURVE('',#266,#248,#276,.T.);
#278=ORIENTED_EDGE('',*,*,#277,.T.);
#279=EDGE_LOOP('',(#256,#264,#272,#278));
#280=FACE_OUTER_BOUND('',#279,.T.);
#281=ADVANCED_FACE('',(#280),#246,.T.);
#282=CARTESIAN_POINT('',(31.000000000000007,25.0,0.0));
#283=DIRECTION('',(0.707106781186547,0.707106781186548,0.0));
#284=DIRECTION('',(0.0,0.0,-1.0));
#285=AXIS2_PLACEMENT_3D('',#282,#283,#284);
#286=PLANE('',#285);
#287=CARTESIAN_POINT('',(34.000000000000007,22.0,5.0));
#288=VERTEX_POINT('',#287);
#289=CARTESIAN_POINT('',(31.000000000000007,25.0,5.0));
#290=DIRECTION('',(0.707106781186548,-0.707106781186548,0.0));
#291=VECTOR('',#290,4.242640687119285);
#292=LINE('',#289,#291);
#293=EDGE_CURVE('',#250,#288,#292,.T.);
#294=ORIENTED_EDGE('',*,*,#293,.T.);
#295=CARTESIAN_POINT('',(34.000000000000007,22.0,0.0));
#296=VERTEX_POINT('',#295);
#297=CARTESIAN_POINT('',(34.000000000000007,22.0,0.0));
#298=DIRECTION('',(0.0,0.0,1.0));
#299=VECTOR('',#298,5.0);
#300=LINE('',#297,#299);
#301=EDGE_CURVE('',#296,#288,#300,.T.);
#302=ORIENTED_EDGE('',*,*,#301,.F.);
#303=CARTESIAN_POINT('',(34.000000000000007,22.0,0.0));
#304=DIRECTION('',(-0.707106781186548,0.707106781186548,0.0));
#305=VECTOR('',#304,4.242640687119285);
#306=LINE('',#303,#305);
#307=EDGE_CURVE('',#296,#258,#306,.T.);
#308=ORIENTED_EDGE('',*,*,#307,.T.);
#309=ORIENTED_EDGE('',*,*,#263,.T.);
#310=EDGE_LOOP('',(#294,#302,#308,#309));
#311=FACE_OUTER_BOUND('',#310,.T.);
#312=ADVANCED_FACE('',(#311),#286,.T.);
#313=CARTESIAN_POINT('',(34.000000000000007,22.0,0.0));
#314=DIRECTION('',(1.0,0.0,0.0));
#315=DIRECTION('',(0.0,0.0,-1.0));
#316=AXIS2_PLACEMENT_3D('',#313,#314,#315);
#317=PLANE('',#316);
#318=CARTESIAN_POINT('',(34.000000000000007,-22.0,5.0));
#319=VERTEX_POINT('',#318);
#320=CARTESIAN_POINT('',(34.000000000000007,22.0,5.0));
#321=DIRECTION('',(0.0,-1.0,0.0));
#322=VECTOR('',#321,44.0);
#323=LINE('',#320,#322);
#324=EDGE_CURVE('',#288,#319,#323,.T.);
#325=ORIENTED_EDGE('',*,*,#324,.T.);
#326=CARTESIAN_POINT('',(34.000000000000007,-22.0,0.0));
#327=VERTEX_POINT('',#326);
#328=CARTESIAN_POINT('',(34.000000000000007,-22.0,0.0));
#329=DIRECTION('',(0.0,0.0,1.0));
#330=VECTOR('',#329,5.0);
#331=LINE('',#328,#330);
#332=EDGE_CURVE('',#327,#319,#331,.T.);
#333=ORIENTED_EDGE('',*,*,#332,.F.);
#334=CARTESIAN_POINT('',(34.000000000000007,-22.0,0.0));
#335=DIRECTION('',(0.0,1.0,0.0));
#336=VECTOR('',#335,44.0);
#337=LINE('',#334,#336);
#338=EDGE_CURVE('',#327,#296,#337,.T.);
#339=ORIENTED_EDGE('',*,*,#338,.T.);
#340=ORIENTED_EDGE('',*,*,#301,.T.);
#341=EDGE_LOOP('',(#325,#333,#339,#340));
#342=FACE_OUTER_BOUND('',#341,.T.);
#343=ADVANCED_FACE('',(#342),#317,.T.);
#344=CARTESIAN_POINT('',(34.000000000000007,-22.0,0.0));
#345=DIRECTION('',(0.707106781186547,-0.707106781186548,0.0));
#346=DIRECTION('',(0.0,0.0,-1.0));
#347=AXIS2_PLACEMENT_3D('',#344,#345,#346);
#348=PLANE('',#347);
#349=CARTESIAN_POINT('',(31.000000000000007,-25.0,5.0));
#350=VERTEX_POINT('',#349);
#351=CARTESIAN_POINT('',(34.000000000000007,-22.0,5.0));
#352=DIRECTION('',(-0.707106781186548,-0.707106781186548,0.0));
#353=VECTOR('',#352,4.242640687119285);
#354=LINE('',#351,#353);
#355=EDGE_CURVE('',#319,#350,#354,.T.);
#356=ORIENTED_EDGE('',*,*,#355,.T.);
#357=CARTESIAN_POINT('',(31.000000000000007,-25.0,0.0));
#358=VERTEX_POINT('',#357);
#359=CARTESIAN_POINT('',(31.000000000000007,-25.0,0.0));
#360=DIRECTION('',(0.0,0.0,1.0));
#361=VECTOR('',#360,5.0);
#362=LINE('',#359,#361);
#363=EDGE_CURVE('',#358,#350,#362,.T.);
#364=ORIENTED_EDGE('',*,*,#363,.F.);
#365=CARTESIAN_POINT('',(31.000000000000007,-25.0,0.0));
#366=DIRECTION('',(0.707106781186548,0.707106781186548,0.0));
#367=VECTOR('',#366,4.242640687119285);
#368=LINE('',#365,#367);
#369=EDGE_CURVE('',#358,#327,#368,.T.);
#370=ORIENTED_EDGE('',*,*,#369,.T.);
#371=ORIENTED_EDGE('',*,*,#332,.T.);
#372=EDGE_LOOP('',(#356,#364,#370,#371));
#373=FACE_OUTER_BOUND('',#372,.T.);
#374=ADVANCED_FACE('',(#373),#348,.T.);
#375=CARTESIAN_POINT('',(31.000000000000007,-25.0,0.0));
#376=DIRECTION('',(0.0,-1.0,0.0));
#377=DIRECTION('',(0.0,0.0,-1.0));
#378=AXIS2_PLACEMENT_3D('',#375,#376,#377);
#379=PLANE('',#378);
#380=CARTESIAN_POINT('',(-31.000000000000007,-25.0,5.0));
#381=VERTEX_POINT('',#380);
#382=CARTESIAN_POINT('',(31.000000000000007,-25.0,5.0));
#383=DIRECTION('',(-1.0,0.0,0.0));
#384=VECTOR('',#383,62.000000000000014);
#385=LINE('',#382,#384);
#386=EDGE_CURVE('',#350,#381,#385,.T.);
#387=ORIENTED_EDGE('',*,*,#386,.T.);
#388=CARTESIAN_POINT('',(-31.000000000000007,-25.0,0.0));
#389=VERTEX_POINT('',#388);
#390=CARTESIAN_POINT('',(-31.000000000000007,-25.0,0.0));
#391=DIRECTION('',(0.0,0.0,1.0));
#392=VECTOR('',#391,5.0);
#393=LINE('',#390,#392);
#394=EDGE_CURVE('',#389,#381,#393,.T.);
#395=ORIENTED_EDGE('',*,*,#394,.F.);
#396=CARTESIAN_POINT('',(-31.000000000000007,-25.0,0.0));
#397=DIRECTION('',(1.0,0.0,0.0));
#398=VECTOR('',#397,62.000000000000014);
#399=LINE('',#396,#398);
#400=EDGE_CURVE('',#389,#358,#399,.T.);
#401=ORIENTED_EDGE('',*,*,#400,.T.);
#402=ORIENTED_EDGE('',*,*,#363,.T.);
#403=EDGE_LOOP('',(#387,#395,#401,#402));
#404=FACE_OUTER_BOUND('',#403,.T.);
#405=ADVANCED_FACE('',(#404),#379,.T.);
#406=CARTESIAN_POINT('',(-31.000000000000007,-25.0,0.0));
#407=DIRECTION('',(-0.707106781186548,-0.707106781186548,0.0));
#408=DIRECTION('',(0.0,0.0,1.0));
#409=AXIS2_PLACEMENT_3D('',#406,#407,#408);
#410=PLANE('',#409);
#411=CARTESIAN_POINT('',(-34.0,-22.0,5.0));
#412=VERTEX_POINT('',#411);
#413=CARTESIAN_POINT('',(-31.000000000000007,-25.0,5.0));
#414=DIRECTION('',(-0.707106781186547,0.707106781186548,0.0));
#415=VECTOR('',#414,4.242640687119280);
#416=LINE('',#413,#415);
#417=EDGE_CURVE('',#381,#412,#416,.T.);
#418=ORIENTED_EDGE('',*,*,#417,.T.);
#419=CARTESIAN_POINT('',(-34.0,-22.0,0.0));
#420=VERTEX_POINT('',#419);
#421=CARTESIAN_POINT('',(-34.0,-22.0,0.0));
#422=DIRECTION('',(0.0,0.0,1.0));
#423=VECTOR('',#422,5.0);
#424=LINE('',#421,#423);
#425=EDGE_CURVE('',#420,#412,#424,.T.);
#426=ORIENTED_EDGE('',*,*,#425,.F.);
#427=CARTESIAN_POINT('',(-34.0,-22.0,0.0));
#428=DIRECTION('',(0.707106781186547,-0.707106781186548,0.0));
#429=VECTOR('',#428,4.242640687119280);
#430=LINE('',#427,#429);
#431=EDGE_CURVE('',#420,#389,#430,.T.);
#432=ORIENTED_EDGE('',*,*,#431,.T.);
#433=ORIENTED_EDGE('',*,*,#394,.T.);
#434=EDGE_LOOP('',(#418,#426,#432,#433));
#435=FACE_OUTER_BOUND('',#434,.T.);
#436=ADVANCED_FACE('',(#435),#410,.T.);
#437=CARTESIAN_POINT('',(-34.0,-22.0,0.0));
#438=DIRECTION('',(-1.0,0.0,0.0));
#439=DIRECTION('',(0.0,0.0,1.0));
#440=AXIS2_PLACEMENT_3D('',#437,#438,#439);
#441=PLANE('',#440);
#442=CARTESIAN_POINT('',(-34.000000000000007,22.0,5.0));
#443=VERTEX_POINT('',#442);
#444=CARTESIAN_POINT('',(-34.0,-22.0,5.0));
#445=DIRECTION('',(0.0,1.0,0.0));
#446=VECTOR('',#445,44.0);
#447=LINE('',#444,#446);
#448=EDGE_CURVE('',#412,#443,#447,.T.);
#449=ORIENTED_EDGE('',*,*,#448,.T.);
#450=CARTESIAN_POINT('',(-34.000000000000007,22.0,0.0));
#451=VERTEX_POINT('',#450);
#452=CARTESIAN_POINT('',(-34.000000000000007,22.0,0.0));
#453=DIRECTION('',(0.0,0.0,1.0));
#454=VECTOR('',#453,5.0);
#455=LINE('',#452,#454);
#456=EDGE_CURVE('',#451,#443,#455,.T.);
#457=ORIENTED_EDGE('',*,*,#456,.F.);
#458=CARTESIAN_POINT('',(-34.000000000000007,22.0,0.0));
#459=DIRECTION('',(0.0,-1.0,0.0));
#460=VECTOR('',#459,44.0);
#461=LINE('',#458,#460);
#462=EDGE_CURVE('',#451,#420,#461,.T.);
#463=ORIENTED_EDGE('',*,*,#462,.T.);
#464=ORIENTED_EDGE('',*,*,#425,.T.);
#465=EDGE_LOOP('',(#449,#457,#463,#464));
#466=FACE_OUTER_BOUND('',#465,.T.);
#467=ADVANCED_FACE('',(#466),#441,.T.);
#468=CARTESIAN_POINT('',(-34.000000000000007,22.0,0.0));
#469=DIRECTION('',(-0.707106781186547,0.707106781186548,0.0));
#470=DIRECTION('',(0.0,0.0,1.0));
#471=AXIS2_PLACEMENT_3D('',#468,#469,#470);
#472=PLANE('',#471);
#473=CARTESIAN_POINT('',(-34.000000000000007,22.0,5.0));
#474=DIRECTION('',(0.707106781186548,0.707106781186548,0.0));
#475=VECTOR('',#474,4.242640687119285);
#476=LINE('',#473,#475);
#477=EDGE_CURVE('',#443,#248,#476,.T.);
#478=ORIENTED_EDGE('',*,*,#477,.T.);
#479=ORIENTED_EDGE('',*,*,#277,.F.);
#480=CARTESIAN_POINT('',(-31.000000000000007,25.0,0.0));
#481=DIRECTION('',(-0.707106781186548,-0.707106781186548,0.0));
#482=VECTOR('',#481,4.242640687119285);
#483=LINE('',#480,#482);
#484=EDGE_CURVE('',#266,#451,#483,.T.);
#485=ORIENTED_EDGE('',*,*,#484,.T.);
#486=ORIENTED_EDGE('',*,*,#456,.T.);
#487=EDGE_LOOP('',(#478,#479,#485,#486));
#488=FACE_OUTER_BOUND('',#487,.T.);
#489=ADVANCED_FACE('',(#488),#472,.T.);
#490=CARTESIAN_POINT('',(2.220446E-015,-4.409072E-016,0.0));
#491=DIRECTION('',(0.0,0.0,1.0));
#492=DIRECTION('',(1.0,0.0,0.0));
#493=AXIS2_PLACEMENT_3D('',#490,#491,#492);
#494=PLANE('',#493);
#495=ORIENTED_EDGE('',*,*,#484,.F.);
#496=ORIENTED_EDGE('',*,*,#271,.F.);
#497=ORIENTED_EDGE('',*,*,#307,.F.);
#498=ORIENTED_EDGE('',*,*,#338,.F.);
#499=ORIENTED_EDGE('',*,*,#369,.F.);
#500=ORIENTED_EDGE('',*,*,#400,.F.);
#501=ORIENTED_EDGE('',*,*,#431,.F.);
#502=ORIENTED_EDGE('',*,*,#462,.F.);
#503=EDGE_LOOP('',(#495,#496,#497,#498,#499,#500,#501,#502));
#504=FACE_OUTER_BOUND('',#503,.T.);
#505=ORIENTED_EDGE('',*,*,#181,.T.);
#506=ORIENTED_EDGE('',*,*,#165,.T.);
#507=EDGE_LOOP('',(#505,#506));
#508=FACE_BOUND('',#507,.T.);
#509=ORIENTED_EDGE('',*,*,#205,.T.);
#510=ORIENTED_EDGE('',*,*,#123,.T.);
#511=EDGE_LOOP('',(#509,#510));
#512=FACE_BOUND('',#511,.T.);
#513=ORIENTED_EDGE('',*,*,#229,.T.);
#514=ORIENTED_EDGE('',*,*,#81,.T.);
#515=EDGE_LOOP('',(#513,#514));
#516=FACE_BOUND('',#515,.T.);
#517=ADVANCED_FACE('',(#504,#508,#512,#516),#494,.F.);
#518=CARTESIAN_POINT('',(2.893399E-015,0.0,5.0));
#519=DIRECTION('',(0.0,0.0,1.0));
#520=DIRECTION('',(1.0,0.0,0.0));
#521=AXIS2_PLACEMENT_3D('',#518,#519,#520);
#522=PLANE('',#521);
#523=ORIENTED_EDGE('',*,*,#255,.F.);
#524=ORIENTED_EDGE('',*,*,#477,.F.);
#525=ORIENTED_EDGE('',*,*,#448,.F.);
#526=ORIENTED_EDGE('',*,*,#417,.F.);
#527=ORIENTED_EDGE('',*,*,#386,.F.);
#528=ORIENTED_EDGE('',*,*,#355,.F.);
#529=ORIENTED_EDGE('',*,*,#324,.F.);
#530=ORIENTED_EDGE('',*,*,#293,.F.);
#531=EDGE_LOOP('',(#523,#524,#525,#526,#527,#528,#529,#530));
#532=FACE_OUTER_BOUND('',#531,.T.);
#533=ORIENTED_EDGE('',*,*,#150,.T.);
#534=ORIENTED_EDGE('',*,*,#189,.T.);
#535=EDGE_LOOP('',(#533,#534));
#536=FACE_BOUND('',#535,.T.);
#537=ORIENTED_EDGE('',*,*,#108,.T.);
#538=ORIENTED_EDGE('',*,*,#213,.T.);
#539=EDGE_LOOP('',(#537,#538));
#540=FACE_BOUND('',#539,.T.);
#541=ORIENTED_EDGE('',*,*,#66,.T.);
#542=ORIENTED_EDGE('',*,*,#237,.T.);
#543=EDGE_LOOP('',(#541,#542));
#544=FACE_BOUND('',#543,.T.);
#545=ADVANCED_FACE('',(#532,#536,#540,#544),#522,.T.);
#546=CLOSED_SHELL('',(#85,#127,#169,#193,#217,#241,#281,#312,#343,#374,#405,#436,#467,#489,#517,#545));
#547=MANIFOLD_SOLID_BREP('',#546);
#548=COLOUR_RGB('Nero di cromo',0.752941191196442,0.752941191196442,0.752941191196442);
#549=FILL_AREA_STYLE_COLOUR('Nero di cromo',#548);
#550=FILL_AREA_STYLE('Nero di cromo',(#549));
#551=SURFACE_STYLE_FILL_AREA(#550);
#552=SURFACE_SIDE_STYLE('Nero di cromo',(#551));
#553=SURFACE_STYLE_USAGE(.BOTH.,#552);
#554=PRESENTATION_STYLE_ASSIGNMENT((#553));
#555=STYLED_ITEM('',(#554),#547);
#556=MECHANICAL_DESIGN_GEOMETRIC_PRESENTATION_REPRESENTATION('',(#555),#36);
#557=ADVANCED_BREP_SHAPE_REPRESENTATION('ABSR',(#547),#36);
#558=SHAPE_REPRESENTATION_RELATIONSHIP('SRR','None',#557,#41);
ENDSEC;
END-ISO-10303-21;
