ISO-10303-21;
HEADER;
/****************************************************************
 * Generated by software with PDE/Lib inside                    *
 * PDElib Version v51a, created Tue 12/06/2005                  *
 * International Technegroup Inc. (www.iti-oh.com)              *
 ****************************************************************/
FILE_DESCRIPTION((''),'2;1');
FILE_NAME('K:\\A-Roberto\\_Inventor\\Rev.Librerie\\FISSAGGI\\1320_\S\X_12_1F\\STEP(1320_\S\X_12_1F)\\1320_160_12_1F.stp','2006-07-10T15:46:51',('rivolro1'),(''),'Autodesk Inventor 11','Autodesk Inventor 11','');
FILE_SCHEMA(('AUTOMOTIVE_DESIGN { 1 0 10303 214 1 1 1 1 }'));
ENDSEC;
DATA;
#5=APPLICATION_CONTEXT('automotive design');
#6=APPLICATION_PROTOCOL_DEFINITION('Draft International Standard','automotive_design',1998,#5);
#7=PRODUCT_CONTEXT('None',#5,'mechanical');
#8=PRODUCT('1320_160_12_1F','1320_160_12_1F','None',(#7));
#9=PRODUCT_RELATED_PRODUCT_CATEGORY('part','description',(#8));
#10=PRODUCT_DEFINITION_FORMATION('None','None',#8);
#11=PRODUCT_DEFINITION_CONTEXT('part definition',#5,'design');
#12=PRODUCT_DEFINITION('None','None',#10,#11);
#18=(NAMED_UNIT(*)PLANE_ANGLE_UNIT()SI_UNIT($,.RADIAN.));
#19=DIMENSIONAL_EXPONENTS(0.0,0.0,0.0,0.0,0.0,0.0,0.0);
#20=PLANE_ANGLE_MEASURE_WITH_UNIT(PLANE_ANGLE_MEASURE(0.017453292500000),#18);
#24=(CONVERSION_BASED_UNIT('DEGREE',#20)NAMED_UNIT(#19)PLANE_ANGLE_UNIT());
#28=(NAMED_UNIT(*)SI_UNIT($,.STERADIAN.)SOLID_ANGLE_UNIT());
#32=(LENGTH_UNIT()NAMED_UNIT(*)SI_UNIT(.MILLI.,.METRE.));
#34=UNCERTAINTY_MEASURE_WITH_UNIT(LENGTH_MEASURE(0.010000000000000),#32,'DISTANCE_ACCURACY_VALUE','');
#36=(GEOMETRIC_REPRESENTATION_CONTEXT(3)GLOBAL_UNCERTAINTY_ASSIGNED_CONTEXT((#34))GLOBAL_UNIT_ASSIGNED_CONTEXT((#24,#28,#32))REPRESENTATION_CONTEXT('None','None'));
#37=AXIS2_PLACEMENT_3D('',#38,#39,#40);
#38=CARTESIAN_POINT('',(0.0,0.0,0.0));
#39=DIRECTION('',(0.0,0.0,1.0));
#40=DIRECTION('',(1.0,0.0,0.0));
#41=SHAPE_REPRESENTATION('',(#37),#36);
#42=PRODUCT_DEFINITION_SHAPE('','',#12);
#43=SHAPE_DEFINITION_REPRESENTATION(#42,#41);
#44=CARTESIAN_POINT('',(-43.0,13.0,12.999999999999998));
#45=CARTESIAN_POINT('',(-17.0,13.0,12.999999999999998));
#46=CARTESIAN_POINT('',(-43.0,-13.0,12.999999999999998));
#47=CARTESIAN_POINT('',(-17.0,-13.0,12.999999999999998));
#48=B_SPLINE_SURFACE_WITH_KNOTS('',1,1,((#44,#46),(#45,#47)),.UNSPECIFIED.,.F.,.F.,.U.,(2,2),(2,2),(0.0,26.0),(0.0,26.0),.UNSPECIFIED.);
#49=CARTESIAN_POINT('',(-17.0,0.0,12.999999999999998));
#50=VERTEX_POINT('',#49);
#51=CARTESIAN_POINT('',(-30.0,0.0,12.999999999999998));
#52=DIRECTION('',(0.0,0.0,1.0));
#53=DIRECTION('',(1.0,0.0,0.0));
#54=AXIS2_PLACEMENT_3D('',#51,#52,#53);
#55=CIRCLE('',#54,13.0);
#56=EDGE_CURVE('',#50,#50,#55,.T.);
#57=ORIENTED_EDGE('',*,*,#56,.T.);
#58=EDGE_LOOP('',(#57));
#59=FACE_OUTER_BOUND('',#58,.T.);
#60=CARTESIAN_POINT('',(-39.0,-1.102146E-015,12.999999999999989));
#61=VERTEX_POINT('',#60);
#62=CARTESIAN_POINT('',(-30.0,0.0,12.999999999999989));
#63=DIRECTION('',(0.0,0.0,1.0));
#64=DIRECTION('',(1.0,0.0,0.0));
#65=AXIS2_PLACEMENT_3D('',#62,#63,#64);
#66=CIRCLE('',#65,9.0);
#67=EDGE_CURVE('',#61,#61,#66,.T.);
#68=ORIENTED_EDGE('',*,*,#67,.F.);
#69=EDGE_LOOP('',(#68));
#70=FACE_BOUND('',#69,.T.);
#71=ADVANCED_FACE('',(#59,#70),#48,.F.);
#72=CARTESIAN_POINT('',(-43.0,-1.591988E-015,30.0));
#73=CARTESIAN_POINT('',(-43.0,-1.591988E-015,12.999999999999998));
#74=CARTESIAN_POINT('',(-43.0,-12.999999999999998,30.0));
#75=CARTESIAN_POINT('',(-43.0,-12.999999999999998,12.999999999999998));
#76=CARTESIAN_POINT('',(-30.0,-13.0,30.0));
#77=CARTESIAN_POINT('',(-30.0,-13.0,12.999999999999998));
#78=CARTESIAN_POINT('',(-17.000000000000004,-12.999999999999993,30.0));
#79=CARTESIAN_POINT('',(-17.000000000000004,-12.999999999999993,12.999999999999998));
#80=CARTESIAN_POINT('',(-17.0,1.591988E-015,30.0));
#81=CARTESIAN_POINT('',(-17.0,1.591988E-015,12.999999999999998));
#82=CARTESIAN_POINT('',(-17.000000000000004,12.999999999999998,30.0));
#83=CARTESIAN_POINT('',(-17.000000000000004,12.999999999999998,12.999999999999998));
#84=CARTESIAN_POINT('',(-30.0,13.0,30.0));
#85=CARTESIAN_POINT('',(-30.0,13.0,12.999999999999998));
#86=CARTESIAN_POINT('',(-43.0,12.999999999999993,30.0));
#87=CARTESIAN_POINT('',(-43.0,12.999999999999993,12.999999999999998));
#88=CARTESIAN_POINT('',(-43.0,-1.591988E-015,30.0));
#89=CARTESIAN_POINT('',(-43.0,-1.591988E-015,12.999999999999998));
#97=(BOUNDED_SURFACE()B_SPLINE_SURFACE(1,2,((#72,#74,#76,#78,#80,#82,#84,#86,#88),(#73,#75,#77,#79,#81,#83,#85,#87,#89)),.UNSPECIFIED.,.F.,.T.,.U.)B_SPLINE_SURFACE_WITH_KNOTS((2,2),(3,2,2,2,3),(-0.653846153846154,0.653846153846154),(0.0,20.420352248333657,40.840704496667314,61.261056745000964,81.681408993334628),.UNSPECIFIED.)GEOMETRIC_REPRESENTATION_ITEM()RATIONAL_B_SPLINE_SURFACE(((1.0,0.707106781186548,1.0,0.707106781186548,1.0,0.707106781186548,1.0,0.707106781186548,1.0),(1.0,0.707106781186548,1.0,0.707106781186548,1.0,0.707106781186548,1.0,0.707106781186548,1.0)))REPRESENTATION_ITEM('')SURFACE());
#98=CARTESIAN_POINT('',(-17.0,0.0,30.0));
#99=VERTEX_POINT('',#98);
#100=CARTESIAN_POINT('',(-30.0,0.0,30.0));
#101=DIRECTION('',(0.0,0.0,-1.0));
#102=DIRECTION('',(1.0,0.0,0.0));
#103=AXIS2_PLACEMENT_3D('',#100,#101,#102);
#104=CIRCLE('',#103,13.0);
#105=EDGE_CURVE('',#99,#99,#104,.T.);
#106=ORIENTED_EDGE('',*,*,#105,.F.);
#107=EDGE_LOOP('',(#106));
#108=FACE_OUTER_BOUND('',#107,.T.);
#109=ORIENTED_EDGE('',*,*,#56,.F.);
#110=EDGE_LOOP('',(#109));
#111=FACE_BOUND('',#110,.T.);
#112=ADVANCED_FACE('',(#108,#111),#97,.F.);
#113=CARTESIAN_POINT('',(-39.0,-1.102146E-015,12.999999999999986));
#114=CARTESIAN_POINT('',(-39.0,-1.102146E-015,-30.0));
#115=CARTESIAN_POINT('',(-39.0,-9.0,12.999999999999986));
#116=CARTESIAN_POINT('',(-39.0,-9.0,-30.0));
#117=CARTESIAN_POINT('',(-30.0,-9.0,12.999999999999986));
#118=CARTESIAN_POINT('',(-30.0,-9.0,-30.0));
#119=CARTESIAN_POINT('',(-21.0,-8.999999999999996,12.999999999999986));
#120=CARTESIAN_POINT('',(-21.0,-8.999999999999996,-30.0));
#121=CARTESIAN_POINT('',(-21.0,1.102146E-015,12.999999999999986));
#122=CARTESIAN_POINT('',(-21.0,1.102146E-015,-30.0));
#123=CARTESIAN_POINT('',(-21.0,9.0,12.999999999999986));
#124=CARTESIAN_POINT('',(-21.0,9.0,-30.0));
#125=CARTESIAN_POINT('',(-30.0,9.0,12.999999999999986));
#126=CARTESIAN_POINT('',(-30.0,9.0,-30.0));
#127=CARTESIAN_POINT('',(-39.0,8.999999999999996,12.999999999999986));
#128=CARTESIAN_POINT('',(-39.0,8.999999999999996,-30.0));
#129=CARTESIAN_POINT('',(-39.0,-1.102146E-015,12.999999999999986));
#130=CARTESIAN_POINT('',(-39.0,-1.102146E-015,-30.0));
#138=(BOUNDED_SURFACE()B_SPLINE_SURFACE(1,2,((#113,#115,#117,#119,#121,#123,#125,#127,#129),(#114,#116,#118,#120,#122,#124,#126,#128,#130)),.UNSPECIFIED.,.F.,.T.,.U.)B_SPLINE_SURFACE_WITH_KNOTS((2,2),(3,2,2,2,3),(-11.099234841068851,-6.321457063291074),(0.0,14.137166941154069,28.274333882308138,42.411500823462205,56.548667764616276),.UNSPECIFIED.)GEOMETRIC_REPRESENTATION_ITEM()RATIONAL_B_SPLINE_SURFACE(((1.0,0.707106781186548,1.0,0.707106781186548,1.0,0.707106781186548,1.0,0.707106781186548,1.0),(1.0,0.707106781186548,1.0,0.707106781186548,1.0,0.707106781186548,1.0,0.707106781186548,1.0)))REPRESENTATION_ITEM('')SURFACE());
#139=CARTESIAN_POINT('',(-39.0,-1.102146E-015,-30.0));
#140=VERTEX_POINT('',#139);
#141=CARTESIAN_POINT('',(-30.0,0.0,-30.0));
#142=DIRECTION('',(0.0,0.0,1.0));
#143=DIRECTION('',(1.0,0.0,0.0));
#144=AXIS2_PLACEMENT_3D('',#141,#142,#143);
#145=CIRCLE('',#144,9.0);
#146=EDGE_CURVE('',#140,#140,#145,.T.);
#147=ORIENTED_EDGE('',*,*,#146,.F.);
#148=EDGE_LOOP('',(#147));
#149=FACE_OUTER_BOUND('',#148,.T.);
#150=ORIENTED_EDGE('',*,*,#67,.T.);
#151=EDGE_LOOP('',(#150));
#152=FACE_BOUND('',#151,.T.);
#153=ADVANCED_FACE('',(#149,#152),#138,.F.);
#154=CARTESIAN_POINT('',(17.0,13.0,12.999999999999998));
#155=CARTESIAN_POINT('',(43.0,13.0,12.999999999999998));
#156=CARTESIAN_POINT('',(17.0,-13.0,12.999999999999998));
#157=CARTESIAN_POINT('',(43.0,-13.0,12.999999999999998));
#158=B_SPLINE_SURFACE_WITH_KNOTS('',1,1,((#154,#156),(#155,#157)),.UNSPECIFIED.,.F.,.F.,.U.,(2,2),(2,2),(0.0,26.0),(0.0,26.0),.UNSPECIFIED.);
#159=CARTESIAN_POINT('',(43.0,0.0,12.999999999999998));
#160=VERTEX_POINT('',#159);
#161=CARTESIAN_POINT('',(30.0,0.0,12.999999999999998));
#162=DIRECTION('',(0.0,0.0,1.0));
#163=DIRECTION('',(1.0,0.0,0.0));
#164=AXIS2_PLACEMENT_3D('',#161,#162,#163);
#165=CIRCLE('',#164,13.0);
#166=EDGE_CURVE('',#160,#160,#165,.T.);
#167=ORIENTED_EDGE('',*,*,#166,.T.);
#168=EDGE_LOOP('',(#167));
#169=FACE_OUTER_BOUND('',#168,.T.);
#170=CARTESIAN_POINT('',(21.0,-1.102146E-015,12.999999999999989));
#171=VERTEX_POINT('',#170);
#172=CARTESIAN_POINT('',(30.0,0.0,12.999999999999989));
#173=DIRECTION('',(0.0,0.0,1.0));
#174=DIRECTION('',(1.0,0.0,0.0));
#175=AXIS2_PLACEMENT_3D('',#172,#173,#174);
#176=CIRCLE('',#175,9.0);
#177=EDGE_CURVE('',#171,#171,#176,.T.);
#178=ORIENTED_EDGE('',*,*,#177,.F.);
#179=EDGE_LOOP('',(#178));
#180=FACE_BOUND('',#179,.T.);
#181=ADVANCED_FACE('',(#169,#180),#158,.F.);
#182=CARTESIAN_POINT('',(17.0,-1.591988E-015,30.0));
#183=CARTESIAN_POINT('',(17.0,-1.591988E-015,12.999999999999998));
#184=CARTESIAN_POINT('',(17.000000000000004,-12.999999999999998,30.0));
#185=CARTESIAN_POINT('',(17.000000000000004,-12.999999999999998,12.999999999999998));
#186=CARTESIAN_POINT('',(30.0,-13.0,30.0));
#187=CARTESIAN_POINT('',(30.0,-13.0,12.999999999999998));
#188=CARTESIAN_POINT('',(43.0,-12.999999999999993,30.0));
#189=CARTESIAN_POINT('',(43.0,-12.999999999999993,12.999999999999998));
#190=CARTESIAN_POINT('',(43.0,1.591988E-015,30.0));
#191=CARTESIAN_POINT('',(43.0,1.591988E-015,12.999999999999998));
#192=CARTESIAN_POINT('',(43.0,12.999999999999998,30.0));
#193=CARTESIAN_POINT('',(43.0,12.999999999999998,12.999999999999998));
#194=CARTESIAN_POINT('',(30.0,13.0,30.0));
#195=CARTESIAN_POINT('',(30.0,13.0,12.999999999999998));
#196=CARTESIAN_POINT('',(17.000000000000004,12.999999999999993,30.0));
#197=CARTESIAN_POINT('',(17.000000000000004,12.999999999999993,12.999999999999998));
#198=CARTESIAN_POINT('',(17.0,-1.591988E-015,30.0));
#199=CARTESIAN_POINT('',(17.0,-1.591988E-015,12.999999999999998));
#207=(BOUNDED_SURFACE()B_SPLINE_SURFACE(1,2,((#182,#184,#186,#188,#190,#192,#194,#196,#198),(#183,#185,#187,#189,#191,#193,#195,#197,#199)),.UNSPECIFIED.,.F.,.T.,.U.)B_SPLINE_SURFACE_WITH_KNOTS((2,2),(3,2,2,2,3),(-0.653846153846154,0.653846153846154),(0.0,20.420352248333657,40.840704496667314,61.261056745000964,81.681408993334628),.UNSPECIFIED.)GEOMETRIC_REPRESENTATION_ITEM()RATIONAL_B_SPLINE_SURFACE(((1.0,0.707106781186548,1.0,0.707106781186548,1.0,0.707106781186548,1.0,0.707106781186548,1.0),(1.0,0.707106781186548,1.0,0.707106781186548,1.0,0.707106781186548,1.0,0.707106781186548,1.0)))REPRESENTATION_ITEM('')SURFACE());
#208=CARTESIAN_POINT('',(43.0,0.0,30.0));
#209=VERTEX_POINT('',#208);
#210=CARTESIAN_POINT('',(30.0,0.0,30.0));
#211=DIRECTION('',(0.0,0.0,-1.0));
#212=DIRECTION('',(1.0,0.0,0.0));
#213=AXIS2_PLACEMENT_3D('',#210,#211,#212);
#214=CIRCLE('',#213,13.0);
#215=EDGE_CURVE('',#209,#209,#214,.T.);
#216=ORIENTED_EDGE('',*,*,#215,.F.);
#217=EDGE_LOOP('',(#216));
#218=FACE_OUTER_BOUND('',#217,.T.);
#219=ORIENTED_EDGE('',*,*,#166,.F.);
#220=EDGE_LOOP('',(#219));
#221=FACE_BOUND('',#220,.T.);
#222=ADVANCED_FACE('',(#218,#221),#207,.F.);
#223=CARTESIAN_POINT('',(21.0,-1.102146E-015,12.999999999999986));
#224=CARTESIAN_POINT('',(21.0,-1.102146E-015,-30.0));
#225=CARTESIAN_POINT('',(21.0,-9.0,12.999999999999986));
#226=CARTESIAN_POINT('',(21.0,-9.0,-30.0));
#227=CARTESIAN_POINT('',(30.0,-9.0,12.999999999999986));
#228=CARTESIAN_POINT('',(30.0,-9.0,-30.0));
#229=CARTESIAN_POINT('',(39.0,-8.999999999999996,12.999999999999986));
#230=CARTESIAN_POINT('',(39.0,-8.999999999999996,-30.0));
#231=CARTESIAN_POINT('',(39.0,1.102146E-015,12.999999999999986));
#232=CARTESIAN_POINT('',(39.0,1.102146E-015,-30.0));
#233=CARTESIAN_POINT('',(39.0,9.0,12.999999999999986));
#234=CARTESIAN_POINT('',(39.0,9.0,-30.0));
#235=CARTESIAN_POINT('',(30.0,9.0,12.999999999999986));
#236=CARTESIAN_POINT('',(30.0,9.0,-30.0));
#237=CARTESIAN_POINT('',(21.0,8.999999999999996,12.999999999999986));
#238=CARTESIAN_POINT('',(21.0,8.999999999999996,-30.0));
#239=CARTESIAN_POINT('',(21.0,-1.102146E-015,12.999999999999986));
#240=CARTESIAN_POINT('',(21.0,-1.102146E-015,-30.0));
#248=(BOUNDED_SURFACE()B_SPLINE_SURFACE(1,2,((#223,#225,#227,#229,#231,#233,#235,#237,#239),(#224,#226,#228,#230,#232,#234,#236,#238,#240)),.UNSPECIFIED.,.F.,.T.,.U.)B_SPLINE_SURFACE_WITH_KNOTS((2,2),(3,2,2,2,3),(-11.099234841068851,-6.321457063291074),(0.0,14.137166941154069,28.274333882308138,42.411500823462205,56.548667764616276),.UNSPECIFIED.)GEOMETRIC_REPRESENTATION_ITEM()RATIONAL_B_SPLINE_SURFACE(((1.0,0.707106781186548,1.0,0.707106781186548,1.0,0.707106781186548,1.0,0.707106781186548,1.0),(1.0,0.707106781186548,1.0,0.707106781186548,1.0,0.707106781186548,1.0,0.707106781186548,1.0)))REPRESENTATION_ITEM('')SURFACE());
#249=CARTESIAN_POINT('',(21.0,-1.102146E-015,-30.0));
#250=VERTEX_POINT('',#249);
#251=CARTESIAN_POINT('',(30.0,0.0,-30.0));
#252=DIRECTION('',(0.0,0.0,1.0));
#253=DIRECTION('',(1.0,0.0,0.0));
#254=AXIS2_PLACEMENT_3D('',#251,#252,#253);
#255=CIRCLE('',#254,9.0);
#256=EDGE_CURVE('',#250,#250,#255,.T.);
#257=ORIENTED_EDGE('',*,*,#256,.F.);
#258=EDGE_LOOP('',(#257));
#259=FACE_OUTER_BOUND('',#258,.T.);
#260=ORIENTED_EDGE('',*,*,#177,.T.);
#261=EDGE_LOOP('',(#260));
#262=FACE_BOUND('',#261,.T.);
#263=ADVANCED_FACE('',(#259,#262),#248,.F.);
#264=CARTESIAN_POINT('',(-16.0,-22.500000000000000,-1.959370E-015));
#265=CARTESIAN_POINT('',(-16.0,17.500000000000000,-1.959370E-015));
#266=CARTESIAN_POINT('',(-15.999999999999995,-22.500000000000000,-15.999999999999998));
#267=CARTESIAN_POINT('',(-15.999999999999995,17.500000000000000,-15.999999999999998));
#268=CARTESIAN_POINT('',(1.959370E-015,-22.500000000000000,-16.0));
#269=CARTESIAN_POINT('',(1.959370E-015,17.500000000000000,-16.0));
#270=CARTESIAN_POINT('',(15.999999999999998,-22.500000000000000,-15.999999999999995));
#271=CARTESIAN_POINT('',(15.999999999999998,17.500000000000000,-15.999999999999995));
#272=CARTESIAN_POINT('',(16.0,-22.500000000000000,1.959370E-015));
#273=CARTESIAN_POINT('',(16.0,17.500000000000000,1.959370E-015));
#274=CARTESIAN_POINT('',(15.999999999999995,-22.500000000000000,15.999999999999998));
#275=CARTESIAN_POINT('',(15.999999999999995,17.500000000000000,15.999999999999998));
#276=CARTESIAN_POINT('',(-1.959370E-015,-22.500000000000000,16.0));
#277=CARTESIAN_POINT('',(-1.959370E-015,17.500000000000000,16.0));
#278=CARTESIAN_POINT('',(-15.999999999999998,-22.500000000000000,15.999999999999995));
#279=CARTESIAN_POINT('',(-15.999999999999998,17.500000000000000,15.999999999999995));
#280=CARTESIAN_POINT('',(-16.0,-22.500000000000000,-1.959370E-015));
#281=CARTESIAN_POINT('',(-16.0,17.500000000000000,-1.959370E-015));
#289=(BOUNDED_SURFACE()B_SPLINE_SURFACE(1,2,((#264,#266,#268,#270,#272,#274,#276,#278,#280),(#265,#267,#269,#271,#273,#275,#277,#279,#281)),.UNSPECIFIED.,.F.,.T.,.U.)B_SPLINE_SURFACE_WITH_KNOTS((2,2),(3,2,2,2,3),(-7.305819598101230,-4.805819598101230),(0.0,25.132741228718345,50.265482457436690,75.398223686155035,100.530964914873380),.UNSPECIFIED.)GEOMETRIC_REPRESENTATION_ITEM()RATIONAL_B_SPLINE_SURFACE(((1.0,0.707106781186548,1.0,0.707106781186548,1.0,0.707106781186548,1.0,0.707106781186548,1.0),(1.0,0.707106781186548,1.0,0.707106781186548,1.0,0.707106781186548,1.0,0.707106781186548,1.0)))REPRESENTATION_ITEM('')SURFACE());
#290=CARTESIAN_POINT('',(-16.0,17.500000000000000,-1.959370E-015));
#291=VERTEX_POINT('',#290);
#292=CARTESIAN_POINT('',(0.0,17.500000000000000,0.0));
#293=DIRECTION('',(0.0,-1.0,0.0));
#294=DIRECTION('',(1.0,0.0,0.0));
#295=AXIS2_PLACEMENT_3D('',#292,#293,#294);
#296=CIRCLE('',#295,16.0);
#297=EDGE_CURVE('',#291,#291,#296,.T.);
#298=ORIENTED_EDGE('',*,*,#297,.F.);
#299=EDGE_LOOP('',(#298));
#300=FACE_OUTER_BOUND('',#299,.T.);
#301=CARTESIAN_POINT('',(16.0,-22.500000000000000,0.0));
#302=VERTEX_POINT('',#301);
#303=CARTESIAN_POINT('',(0.0,-22.500000000000000,0.0));
#304=DIRECTION('',(0.0,1.0,0.0));
#305=DIRECTION('',(1.0,0.0,0.0));
#306=AXIS2_PLACEMENT_3D('',#303,#304,#305);
#307=CIRCLE('',#306,16.0);
#308=EDGE_CURVE('',#302,#302,#307,.T.);
#309=ORIENTED_EDGE('',*,*,#308,.F.);
#310=EDGE_LOOP('',(#309));
#311=FACE_BOUND('',#310,.T.);
#312=ADVANCED_FACE('',(#300,#311),#289,.F.);
#313=CARTESIAN_POINT('',(0.0,17.500000000000000,0.0));
#314=DIRECTION('',(0.0,-1.0,0.0));
#315=DIRECTION('',(-1.0,0.0,0.0));
#316=AXIS2_PLACEMENT_3D('',#313,#314,#315);
#317=CYLINDRICAL_SURFACE('',#316,21.0);
#318=CARTESIAN_POINT('',(21.0,-22.500000000000000,-2.571673E-015));
#319=VERTEX_POINT('',#318);
#320=CARTESIAN_POINT('',(0.0,-22.500000000000000,0.0));
#321=DIRECTION('',(0.0,1.0,0.0));
#322=DIRECTION('',(-1.0,0.0,0.0));
#323=AXIS2_PLACEMENT_3D('',#320,#321,#322);
#324=CIRCLE('',#323,21.0);
#325=EDGE_CURVE('',#319,#319,#324,.T.);
#326=ORIENTED_EDGE('',*,*,#325,.T.);
#327=EDGE_LOOP('',(#326));
#328=FACE_OUTER_BOUND('',#327,.T.);
#329=CARTESIAN_POINT('',(21.0,-17.500000000000000,-2.571673E-015));
#330=VERTEX_POINT('',#329);
#331=CARTESIAN_POINT('',(0.0,-17.500000000000000,0.0));
#332=DIRECTION('',(0.0,1.0,0.0));
#333=DIRECTION('',(-1.0,0.0,0.0));
#334=AXIS2_PLACEMENT_3D('',#331,#332,#333);
#335=CIRCLE('',#334,21.0);
#336=EDGE_CURVE('',#330,#330,#335,.T.);
#337=ORIENTED_EDGE('',*,*,#336,.F.);
#338=EDGE_LOOP('',(#337));
#339=FACE_BOUND('',#338,.T.);
#340=ADVANCED_FACE('',(#328,#339),#317,.T.);
#341=CARTESIAN_POINT('',(0.0,-22.500000000000000,0.0));
#342=DIRECTION('',(0.0,-1.0,0.0));
#343=DIRECTION('',(0.0,0.0,-1.0));
#344=AXIS2_PLACEMENT_3D('',#341,#342,#343);
#345=PLANE('',#344);
#346=ORIENTED_EDGE('',*,*,#325,.F.);
#347=EDGE_LOOP('',(#346));
#348=FACE_OUTER_BOUND('',#347,.T.);
#349=ORIENTED_EDGE('',*,*,#308,.T.);
#350=EDGE_LOOP('',(#349));
#351=FACE_BOUND('',#350,.T.);
#352=ADVANCED_FACE('',(#348,#351),#345,.T.);
#353=CARTESIAN_POINT('',(0.0,-1.668911E-016,-30.0));
#354=DIRECTION('',(0.0,0.0,1.0));
#355=DIRECTION('',(1.0,0.0,0.0));
#356=AXIS2_PLACEMENT_3D('',#353,#354,#355);
#357=PLANE('',#356);
#358=CARTESIAN_POINT('',(-46.000000000000007,17.500000000000000,-30.0));
#359=VERTEX_POINT('',#358);
#360=CARTESIAN_POINT('',(-46.000000000000007,-17.500000000000000,-30.0));
#361=VERTEX_POINT('',#360);
#362=CARTESIAN_POINT('',(-46.000000000000007,17.500000000000000,-30.0));
#363=DIRECTION('',(0.0,-1.0,0.0));
#364=VECTOR('',#363,35.0);
#365=LINE('',#362,#364);
#366=EDGE_CURVE('',#359,#361,#365,.T.);
#367=ORIENTED_EDGE('',*,*,#366,.F.);
#368=CARTESIAN_POINT('',(46.000000000000007,17.500000000000000,-30.0));
#369=VERTEX_POINT('',#368);
#370=CARTESIAN_POINT('',(46.000000000000007,17.500000000000000,-30.0));
#371=DIRECTION('',(-1.0,0.0,0.0));
#372=VECTOR('',#371,92.000000000000014);
#373=LINE('',#370,#372);
#374=EDGE_CURVE('',#369,#359,#373,.T.);
#375=ORIENTED_EDGE('',*,*,#374,.F.);
#376=CARTESIAN_POINT('',(46.000000000000007,-17.500000000000000,-30.0));
#377=VERTEX_POINT('',#376);
#378=CARTESIAN_POINT('',(46.000000000000007,-17.500000000000000,-30.0));
#379=DIRECTION('',(0.0,1.0,0.0));
#380=VECTOR('',#379,35.0);
#381=LINE('',#378,#380);
#382=EDGE_CURVE('',#377,#369,#381,.T.);
#383=ORIENTED_EDGE('',*,*,#382,.F.);
#384=CARTESIAN_POINT('',(-46.000000000000007,-17.500000000000000,-30.0));
#385=DIRECTION('',(1.0,0.0,0.0));
#386=VECTOR('',#385,92.000000000000014);
#387=LINE('',#384,#386);
#388=EDGE_CURVE('',#361,#377,#387,.T.);
#389=ORIENTED_EDGE('',*,*,#388,.F.);
#390=EDGE_LOOP('',(#367,#375,#383,#389));
#391=FACE_OUTER_BOUND('',#390,.T.);
#392=ORIENTED_EDGE('',*,*,#146,.T.);
#393=EDGE_LOOP('',(#392));
#394=FACE_BOUND('',#393,.T.);
#395=ORIENTED_EDGE('',*,*,#256,.T.);
#396=EDGE_LOOP('',(#395));
#397=FACE_BOUND('',#396,.T.);
#398=ADVANCED_FACE('',(#391,#394,#397),#357,.F.);
#399=CARTESIAN_POINT('',(46.000000000000007,17.500000000000000,0.0));
#400=DIRECTION('',(1.0,0.0,0.0));
#401=DIRECTION('',(0.0,0.0,-1.0));
#402=AXIS2_PLACEMENT_3D('',#399,#400,#401);
#403=PLANE('',#402);
#404=CARTESIAN_POINT('',(46.000000000000007,17.500000000000000,30.0));
#405=VERTEX_POINT('',#404);
#406=CARTESIAN_POINT('',(46.000000000000007,-17.500000000000000,30.0));
#407=VERTEX_POINT('',#406);
#408=CARTESIAN_POINT('',(46.000000000000007,17.500000000000000,30.0));
#409=DIRECTION('',(0.0,-1.0,0.0));
#410=VECTOR('',#409,35.0);
#411=LINE('',#408,#410);
#412=EDGE_CURVE('',#405,#407,#411,.T.);
#413=ORIENTED_EDGE('',*,*,#412,.T.);
#414=CARTESIAN_POINT('',(46.000000000000007,-17.500000000000000,30.0));
#415=DIRECTION('',(0.0,0.0,-1.0));
#416=VECTOR('',#415,60.0);
#417=LINE('',#414,#416);
#418=EDGE_CURVE('',#407,#377,#417,.T.);
#419=ORIENTED_EDGE('',*,*,#418,.T.);
#420=ORIENTED_EDGE('',*,*,#382,.T.);
#421=CARTESIAN_POINT('',(46.000000000000007,17.500000000000000,30.0));
#422=DIRECTION('',(0.0,0.0,-1.0));
#423=VECTOR('',#422,60.0);
#424=LINE('',#421,#423);
#425=EDGE_CURVE('',#405,#369,#424,.T.);
#426=ORIENTED_EDGE('',*,*,#425,.F.);
#427=EDGE_LOOP('',(#413,#419,#420,#426));
#428=FACE_OUTER_BOUND('',#427,.T.);
#429=ADVANCED_FACE('',(#428),#403,.T.);
#430=CARTESIAN_POINT('',(46.000000000000007,-17.500000000000000,0.0));
#431=DIRECTION('',(0.0,-1.0,0.0));
#432=DIRECTION('',(0.0,0.0,-1.0));
#433=AXIS2_PLACEMENT_3D('',#430,#431,#432);
#434=PLANE('',#433);
#435=CARTESIAN_POINT('',(-46.000000000000007,-17.500000000000000,30.0));
#436=VERTEX_POINT('',#435);
#437=CARTESIAN_POINT('',(46.000000000000007,-17.500000000000000,30.0));
#438=DIRECTION('',(-1.0,0.0,0.0));
#439=VECTOR('',#438,92.000000000000014);
#440=LINE('',#437,#439);
#441=EDGE_CURVE('',#407,#436,#440,.T.);
#442=ORIENTED_EDGE('',*,*,#441,.T.);
#443=CARTESIAN_POINT('',(-46.000000000000007,-17.500000000000000,30.0));
#444=DIRECTION('',(0.0,0.0,-1.0));
#445=VECTOR('',#444,60.0);
#446=LINE('',#443,#445);
#447=EDGE_CURVE('',#436,#361,#446,.T.);
#448=ORIENTED_EDGE('',*,*,#447,.T.);
#449=ORIENTED_EDGE('',*,*,#388,.T.);
#450=ORIENTED_EDGE('',*,*,#418,.F.);
#451=EDGE_LOOP('',(#442,#448,#449,#450));
#452=FACE_OUTER_BOUND('',#451,.T.);
#453=ORIENTED_EDGE('',*,*,#336,.T.);
#454=EDGE_LOOP('',(#453));
#455=FACE_BOUND('',#454,.T.);
#456=ADVANCED_FACE('',(#452,#455),#434,.T.);
#457=CARTESIAN_POINT('',(-46.000000000000007,-17.500000000000000,0.0));
#458=DIRECTION('',(-1.0,0.0,0.0));
#459=DIRECTION('',(0.0,0.0,1.0));
#460=AXIS2_PLACEMENT_3D('',#457,#458,#459);
#461=PLANE('',#460);
#462=CARTESIAN_POINT('',(-46.000000000000007,17.500000000000000,30.0));
#463=VERTEX_POINT('',#462);
#464=CARTESIAN_POINT('',(-46.000000000000007,-17.500000000000000,30.0));
#465=DIRECTION('',(0.0,1.0,0.0));
#466=VECTOR('',#465,35.0);
#467=LINE('',#464,#466);
#468=EDGE_CURVE('',#436,#463,#467,.T.);
#469=ORIENTED_EDGE('',*,*,#468,.T.);
#470=CARTESIAN_POINT('',(-46.000000000000007,17.500000000000000,-30.0));
#471=DIRECTION('',(0.0,0.0,1.0));
#472=VECTOR('',#471,60.0);
#473=LINE('',#470,#472);
#474=EDGE_CURVE('',#359,#463,#473,.T.);
#475=ORIENTED_EDGE('',*,*,#474,.F.);
#476=ORIENTED_EDGE('',*,*,#366,.T.);
#477=ORIENTED_EDGE('',*,*,#447,.F.);
#478=EDGE_LOOP('',(#469,#475,#476,#477));
#479=FACE_OUTER_BOUND('',#478,.T.);
#480=ADVANCED_FACE('',(#479),#461,.T.);
#481=CARTESIAN_POINT('',(-46.000000000000007,17.500000000000000,0.0));
#482=DIRECTION('',(0.0,1.0,0.0));
#483=DIRECTION('',(0.0,0.0,1.0));
#484=AXIS2_PLACEMENT_3D('',#481,#482,#483);
#485=PLANE('',#484);
#486=CARTESIAN_POINT('',(-46.000000000000007,17.500000000000000,30.0));
#487=DIRECTION('',(1.0,0.0,0.0));
#488=VECTOR('',#487,92.000000000000014);
#489=LINE('',#486,#488);
#490=EDGE_CURVE('',#463,#405,#489,.T.);
#491=ORIENTED_EDGE('',*,*,#490,.T.);
#492=ORIENTED_EDGE('',*,*,#425,.T.);
#493=ORIENTED_EDGE('',*,*,#374,.T.);
#494=ORIENTED_EDGE('',*,*,#474,.T.);
#495=EDGE_LOOP('',(#491,#492,#493,#494));
#496=FACE_OUTER_BOUND('',#495,.T.);
#497=ORIENTED_EDGE('',*,*,#297,.T.);
#498=EDGE_LOOP('',(#497));
#499=FACE_BOUND('',#498,.T.);
#500=ADVANCED_FACE('',(#496,#499),#485,.T.);
#501=CARTESIAN_POINT('',(0.0,1.668911E-016,30.0));
#502=DIRECTION('',(0.0,0.0,1.0));
#503=DIRECTION('',(1.0,0.0,0.0));
#504=AXIS2_PLACEMENT_3D('',#501,#502,#503);
#505=PLANE('',#504);
#506=ORIENTED_EDGE('',*,*,#412,.F.);
#507=ORIENTED_EDGE('',*,*,#490,.F.);
#508=ORIENTED_EDGE('',*,*,#468,.F.);
#509=ORIENTED_EDGE('',*,*,#441,.F.);
#510=EDGE_LOOP('',(#506,#507,#508,#509));
#511=FACE_OUTER_BOUND('',#510,.T.);
#512=ORIENTED_EDGE('',*,*,#105,.T.);
#513=EDGE_LOOP('',(#512));
#514=FACE_BOUND('',#513,.T.);
#515=ORIENTED_EDGE('',*,*,#215,.T.);
#516=EDGE_LOOP('',(#515));
#517=FACE_BOUND('',#516,.T.);
#518=ADVANCED_FACE('',(#511,#514,#517),#505,.T.);
#519=CLOSED_SHELL('',(#71,#112,#153,#181,#222,#263,#312,#340,#352,#398,#429,#456,#480,#500,#518));
#520=MANIFOLD_SOLID_BREP('',#519);
#521=DRAUGHTING_PRE_DEFINED_COLOUR('white');
#522=FILL_AREA_STYLE_COLOUR('Cromo',#521);
#523=FILL_AREA_STYLE('Cromo',(#522));
#524=SURFACE_STYLE_FILL_AREA(#523);
#525=SURFACE_SIDE_STYLE('Cromo',(#524));
#526=SURFACE_STYLE_USAGE(.BOTH.,#525);
#527=PRESENTATION_STYLE_ASSIGNMENT((#526));
#528=STYLED_ITEM('',(#527),#520);
#529=MECHANICAL_DESIGN_GEOMETRIC_PRESENTATION_REPRESENTATION('',(#528),#36);
#530=ADVANCED_BREP_SHAPE_REPRESENTATION('ABSR',(#520),#36);
#531=SHAPE_REPRESENTATION_RELATIONSHIP('SRR','None',#530,#41);
ENDSEC;
END-ISO-10303-21;
