ISO-10303-21;
HEADER;
/* Generated by software containing ST-Developer
 * from STEP Tools, Inc. (www.steptools.com) 
 */
/* OPTION: strings as raw bytes, not using required /X/ escapes */

FILE_DESCRIPTION(
/* description */ ('Unknown'),
/* implementation_level */ '2;1');

FILE_NAME(
/* name */ '1320.50.32F',
/* time_stamp */ '2020-02-18T14:15:26-05:00',
/* author */ ('Unknown'),
/* organization */ ('Unknown'),
/* preprocessor_version */ 'ST-DEVELOPER v16.7',
/* originating_system */ 'Solid Edge',
/* authorisation */ 'Unknown');

FILE_SCHEMA (('AUTOMOTIVE_DESIGN {1 0 10303 214 3 1 1}'));
ENDSEC;

DATA;
#10=PROPERTY_DEFINITION_REPRESENTATION(#14,#12);
#11=PROPERTY_DEFINITION_REPRESENTATION(#15,#13);
#12=REPRESENTATION('',(#16),#597);
#13=REPRESENTATION('',(#17),#597);
#14=PROPERTY_DEFINITION('pmi validation property','',#602);
#15=PROPERTY_DEFINITION('pmi validation property','',#602);
#16=VALUE_REPRESENTATION_ITEM('number of annotations',COUNT_MEASURE(0.));
#17=VALUE_REPRESENTATION_ITEM('number of views',COUNT_MEASURE(0.));
#18=SHAPE_REPRESENTATION_RELATIONSHIP('','',#343,#19);
#19=ADVANCED_BREP_SHAPE_REPRESENTATION('',(#341),#597);
#20=ELLIPSE('',#368,15.556349186104,11.);
#21=ELLIPSE('',#369,15.556349186104,11.);
#22=VERTEX_LOOP('',#193);
#23=SPHERICAL_SURFACE('',#354,21.);
#24=SPHERICAL_SURFACE('',#382,14.3);
#25=SPHERICAL_SURFACE('',#384,14.3);
#26=(
BOUNDED_CURVE()
B_SPLINE_CURVE(2,(#516,#517,#518),.UNSPECIFIED.,.F.,.F.)
B_SPLINE_CURVE_WITH_KNOTS((3,3),(0.,1.35426962111878),.UNSPECIFIED.)
CURVE()
GEOMETRIC_REPRESENTATION_ITEM()
RATIONAL_B_SPLINE_CURVE((1.,1.04199717667787,1.))
REPRESENTATION_ITEM('')
);
#27=(
BOUNDED_CURVE()
B_SPLINE_CURVE(2,(#523,#524,#525),.UNSPECIFIED.,.F.,.F.)
B_SPLINE_CURVE_WITH_KNOTS((3,3),(0.,1.35426962111878),.UNSPECIFIED.)
CURVE()
GEOMETRIC_REPRESENTATION_ITEM()
RATIONAL_B_SPLINE_CURVE((1.,1.04199717667787,1.))
REPRESENTATION_ITEM('')
);
#28=(
BOUNDED_CURVE()
B_SPLINE_CURVE(2,(#543,#544,#545),.UNSPECIFIED.,.F.,.F.)
B_SPLINE_CURVE_WITH_KNOTS((3,3),(0.,1.35426962111878),.UNSPECIFIED.)
CURVE()
GEOMETRIC_REPRESENTATION_ITEM()
RATIONAL_B_SPLINE_CURVE((1.,1.04199717667787,1.))
REPRESENTATION_ITEM('')
);
#29=(
BOUNDED_CURVE()
B_SPLINE_CURVE(2,(#547,#548,#549),.UNSPECIFIED.,.F.,.F.)
B_SPLINE_CURVE_WITH_KNOTS((3,3),(0.,1.35426962111878),.UNSPECIFIED.)
CURVE()
GEOMETRIC_REPRESENTATION_ITEM()
RATIONAL_B_SPLINE_CURVE((1.,1.04199717667787,1.))
REPRESENTATION_ITEM('')
);
#30=CONICAL_SURFACE('',#351,14.398749417676,0.559538911965466);
#31=CONICAL_SURFACE('',#358,3.625,1.0471975511966);
#32=CONICAL_SURFACE('',#362,7.875,0.785398163397448);
#33=CONICAL_SURFACE('',#363,14.398749417676,0.559538911965466);
#34=CYLINDRICAL_SURFACE('',#349,13.5);
#35=CYLINDRICAL_SURFACE('',#360,7.25);
#36=CYLINDRICAL_SURFACE('',#365,11.);
#37=CYLINDRICAL_SURFACE('',#370,13.5);
#38=CYLINDRICAL_SURFACE('',#388,8.00000000000001);
#39=LINE('',#501,#51);
#40=LINE('',#506,#52);
#41=LINE('',#510,#53);
#42=LINE('',#514,#54);
#43=LINE('',#560,#55);
#44=LINE('',#562,#56);
#45=LINE('',#566,#57);
#46=LINE('',#567,#58);
#47=LINE('',#569,#59);
#48=LINE('',#570,#60);
#49=LINE('',#574,#61);
#50=LINE('',#581,#62);
#51=VECTOR('',#397,1000.);
#52=VECTOR('',#400,1000.);
#53=VECTOR('',#405,1000.);
#54=VECTOR('',#408,1000.);
#55=VECTOR('',#449,1000.);
#56=VECTOR('',#450,1000.);
#57=VECTOR('',#455,1000.);
#58=VECTOR('',#456,1000.);
#59=VECTOR('',#459,1000.);
#60=VECTOR('',#460,1000.);
#61=VECTOR('',#465,1000.);
#62=VECTOR('',#476,1000.);
#63=ORIENTED_EDGE('',*,*,#141,.F.);
#64=ORIENTED_EDGE('',*,*,#142,.T.);
#65=ORIENTED_EDGE('',*,*,#143,.T.);
#66=ORIENTED_EDGE('',*,*,#144,.T.);
#67=ORIENTED_EDGE('',*,*,#145,.T.);
#68=ORIENTED_EDGE('',*,*,#146,.T.);
#69=ORIENTED_EDGE('',*,*,#147,.T.);
#70=ORIENTED_EDGE('',*,*,#148,.T.);
#71=ORIENTED_EDGE('',*,*,#143,.F.);
#72=ORIENTED_EDGE('',*,*,#149,.T.);
#73=ORIENTED_EDGE('',*,*,#150,.F.);
#74=ORIENTED_EDGE('',*,*,#151,.T.);
#75=ORIENTED_EDGE('',*,*,#152,.T.);
#76=ORIENTED_EDGE('',*,*,#153,.T.);
#77=ORIENTED_EDGE('',*,*,#152,.F.);
#78=ORIENTED_EDGE('',*,*,#154,.T.);
#79=ORIENTED_EDGE('',*,*,#155,.F.);
#80=ORIENTED_EDGE('',*,*,#156,.T.);
#81=ORIENTED_EDGE('',*,*,#157,.T.);
#82=ORIENTED_EDGE('',*,*,#156,.F.);
#83=ORIENTED_EDGE('',*,*,#141,.T.);
#84=ORIENTED_EDGE('',*,*,#157,.F.);
#85=ORIENTED_EDGE('',*,*,#158,.T.);
#86=ORIENTED_EDGE('',*,*,#155,.T.);
#87=ORIENTED_EDGE('',*,*,#159,.T.);
#88=ORIENTED_EDGE('',*,*,#160,.F.);
#89=ORIENTED_EDGE('',*,*,#161,.F.);
#90=ORIENTED_EDGE('',*,*,#162,.F.);
#91=ORIENTED_EDGE('',*,*,#163,.T.);
#92=ORIENTED_EDGE('',*,*,#160,.T.);
#93=ORIENTED_EDGE('',*,*,#164,.T.);
#94=ORIENTED_EDGE('',*,*,#150,.T.);
#95=ORIENTED_EDGE('',*,*,#165,.T.);
#96=ORIENTED_EDGE('',*,*,#145,.F.);
#97=ORIENTED_EDGE('',*,*,#166,.T.);
#98=ORIENTED_EDGE('',*,*,#167,.T.);
#99=ORIENTED_EDGE('',*,*,#168,.T.);
#100=ORIENTED_EDGE('',*,*,#162,.T.);
#101=ORIENTED_EDGE('',*,*,#169,.T.);
#102=ORIENTED_EDGE('',*,*,#147,.F.);
#103=ORIENTED_EDGE('',*,*,#170,.T.);
#104=ORIENTED_EDGE('',*,*,#167,.F.);
#105=ORIENTED_EDGE('',*,*,#171,.T.);
#106=ORIENTED_EDGE('',*,*,#161,.T.);
#107=ORIENTED_EDGE('',*,*,#172,.F.);
#108=ORIENTED_EDGE('',*,*,#159,.F.);
#109=ORIENTED_EDGE('',*,*,#154,.F.);
#110=ORIENTED_EDGE('',*,*,#151,.F.);
#111=ORIENTED_EDGE('',*,*,#173,.T.);
#112=ORIENTED_EDGE('',*,*,#164,.F.);
#113=ORIENTED_EDGE('',*,*,#173,.F.);
#114=ORIENTED_EDGE('',*,*,#148,.F.);
#115=ORIENTED_EDGE('',*,*,#169,.F.);
#116=ORIENTED_EDGE('',*,*,#171,.F.);
#117=ORIENTED_EDGE('',*,*,#166,.F.);
#118=ORIENTED_EDGE('',*,*,#144,.F.);
#119=ORIENTED_EDGE('',*,*,#146,.F.);
#120=ORIENTED_EDGE('',*,*,#142,.F.);
#121=ORIENTED_EDGE('',*,*,#165,.F.);
#122=ORIENTED_EDGE('',*,*,#170,.F.);
#123=ORIENTED_EDGE('',*,*,#168,.F.);
#124=ORIENTED_EDGE('',*,*,#174,.F.);
#125=ORIENTED_EDGE('',*,*,#149,.F.);
#126=ORIENTED_EDGE('',*,*,#153,.F.);
#127=ORIENTED_EDGE('',*,*,#158,.F.);
#128=ORIENTED_EDGE('',*,*,#175,.T.);
#129=ORIENTED_EDGE('',*,*,#163,.F.);
#130=ORIENTED_EDGE('',*,*,#175,.F.);
#131=ORIENTED_EDGE('',*,*,#176,.F.);
#132=ORIENTED_EDGE('',*,*,#172,.T.);
#133=ORIENTED_EDGE('',*,*,#177,.T.);
#134=ORIENTED_EDGE('',*,*,#174,.T.);
#135=ORIENTED_EDGE('',*,*,#178,.T.);
#136=ORIENTED_EDGE('',*,*,#177,.F.);
#137=ORIENTED_EDGE('',*,*,#179,.T.);
#138=ORIENTED_EDGE('',*,*,#178,.F.);
#139=ORIENTED_EDGE('',*,*,#179,.F.);
#140=ORIENTED_EDGE('',*,*,#176,.T.);
#141=EDGE_CURVE('',#180,#180,#208,.T.);
#142=EDGE_CURVE('',#181,#182,#39,.T.);
#143=EDGE_CURVE('',#182,#183,#209,.T.);
#144=EDGE_CURVE('',#183,#184,#40,.T.);
#145=EDGE_CURVE('',#184,#181,#210,.T.);
#146=EDGE_CURVE('',#182,#185,#41,.T.);
#147=EDGE_CURVE('',#185,#186,#211,.T.);
#148=EDGE_CURVE('',#186,#183,#42,.T.);
#149=EDGE_CURVE('',#187,#188,#26,.T.);
#150=EDGE_CURVE('',#189,#188,#212,.T.);
#151=EDGE_CURVE('',#189,#190,#27,.T.);
#152=EDGE_CURVE('',#190,#187,#213,.T.);
#153=EDGE_CURVE('',#191,#187,#214,.T.);
#154=EDGE_CURVE('',#190,#192,#215,.T.);
#155=EDGE_CURVE('',#191,#192,#216,.T.);
#156=EDGE_CURVE('',#194,#194,#217,.T.);
#157=EDGE_CURVE('',#195,#195,#218,.T.);
#158=EDGE_CURVE('',#196,#191,#28,.T.);
#159=EDGE_CURVE('',#192,#197,#29,.T.);
#160=EDGE_CURVE('',#196,#197,#219,.T.);
#161=EDGE_CURVE('',#198,#199,#220,.T.);
#162=EDGE_CURVE('',#199,#198,#221,.T.);
#163=EDGE_CURVE('',#188,#196,#20,.T.);
#164=EDGE_CURVE('',#197,#189,#21,.T.);
#165=EDGE_CURVE('',#200,#181,#43,.T.);
#166=EDGE_CURVE('',#184,#201,#44,.T.);
#167=EDGE_CURVE('',#201,#200,#222,.T.);
#168=EDGE_CURVE('',#185,#199,#45,.T.);
#169=EDGE_CURVE('',#198,#186,#46,.T.);
#170=EDGE_CURVE('',#199,#200,#47,.T.);
#171=EDGE_CURVE('',#201,#198,#48,.T.);
#172=EDGE_CURVE('',#202,#202,#223,.T.);
#173=EDGE_CURVE('',#189,#197,#49,.T.);
#174=EDGE_CURVE('',#203,#203,#224,.T.);
#175=EDGE_CURVE('',#196,#188,#50,.T.);
#176=EDGE_CURVE('',#204,#204,#225,.T.);
#177=EDGE_CURVE('',#205,#205,#226,.T.);
#178=EDGE_CURVE('',#206,#206,#227,.T.);
#179=EDGE_CURVE('',#207,#207,#228,.T.);
#180=VERTEX_POINT('',#500);
#181=VERTEX_POINT('',#502);
#182=VERTEX_POINT('',#503);
#183=VERTEX_POINT('',#505);
#184=VERTEX_POINT('',#507);
#185=VERTEX_POINT('',#511);
#186=VERTEX_POINT('',#513);
#187=VERTEX_POINT('',#519);
#188=VERTEX_POINT('',#520);
#189=VERTEX_POINT('',#522);
#190=VERTEX_POINT('',#526);
#191=VERTEX_POINT('',#530);
#192=VERTEX_POINT('',#532);
#193=VERTEX_POINT('',#535);
#194=VERTEX_POINT('',#537);
#195=VERTEX_POINT('',#540);
#196=VERTEX_POINT('',#546);
#197=VERTEX_POINT('',#550);
#198=VERTEX_POINT('',#554);
#199=VERTEX_POINT('',#555);
#200=VERTEX_POINT('',#561);
#201=VERTEX_POINT('',#563);
#202=VERTEX_POINT('',#573);
#203=VERTEX_POINT('',#580);
#204=VERTEX_POINT('',#585);
#205=VERTEX_POINT('',#588);
#206=VERTEX_POINT('',#591);
#207=VERTEX_POINT('',#594);
#208=CIRCLE('',#346,8.5);
#209=CIRCLE('',#347,13.5);
#210=CIRCLE('',#348,13.5);
#211=CIRCLE('',#350,13.5);
#212=CIRCLE('',#352,11.);
#213=CIRCLE('',#353,17.797498835352);
#214=CIRCLE('',#355,19.615045245933);
#215=CIRCLE('',#356,19.615045245933);
#216=CIRCLE('',#357,17.797498835352);
#217=CIRCLE('',#359,7.25);
#218=CIRCLE('',#361,7.25);
#219=CIRCLE('',#364,11.);
#220=CIRCLE('',#366,11.);
#221=CIRCLE('',#367,11.);
#222=CIRCLE('',#371,13.5);
#223=CIRCLE('',#375,12.1753850041795);
#224=CIRCLE('',#380,12.1753850041795);
#225=CIRCLE('',#383,9.70772887960928);
#226=CIRCLE('',#385,9.70772887960928);
#227=CIRCLE('',#387,8.00000000000001);
#228=CIRCLE('',#389,8.00000000000001);
#229=EDGE_LOOP('',(#63));
#230=EDGE_LOOP('',(#64,#65,#66,#67));
#231=EDGE_LOOP('',(#68,#69,#70,#71));
#232=EDGE_LOOP('',(#72,#73,#74,#75));
#233=EDGE_LOOP('',(#76,#77,#78,#79));
#234=EDGE_LOOP('',(#80));
#235=EDGE_LOOP('',(#81));
#236=EDGE_LOOP('',(#82));
#237=EDGE_LOOP('',(#83));
#238=EDGE_LOOP('',(#84));
#239=EDGE_LOOP('',(#85,#86,#87,#88));
#240=EDGE_LOOP('',(#89,#90));
#241=EDGE_LOOP('',(#91,#92,#93,#94));
#242=EDGE_LOOP('',(#95,#96,#97,#98));
#243=EDGE_LOOP('',(#99,#100,#101,#102));
#244=EDGE_LOOP('',(#103,#104,#105,#106));
#245=EDGE_LOOP('',(#107));
#246=EDGE_LOOP('',(#108,#109,#110,#111));
#247=EDGE_LOOP('',(#112,#113));
#248=EDGE_LOOP('',(#114,#115,#116,#117,#118));
#249=EDGE_LOOP('',(#119,#120,#121,#122,#123));
#250=EDGE_LOOP('',(#124));
#251=EDGE_LOOP('',(#125,#126,#127,#128));
#252=EDGE_LOOP('',(#129,#130));
#253=EDGE_LOOP('',(#131));
#254=EDGE_LOOP('',(#132));
#255=EDGE_LOOP('',(#133));
#256=EDGE_LOOP('',(#134));
#257=EDGE_LOOP('',(#135));
#258=EDGE_LOOP('',(#136));
#259=EDGE_LOOP('',(#137));
#260=EDGE_LOOP('',(#138));
#261=EDGE_LOOP('',(#139));
#262=EDGE_LOOP('',(#140));
#263=FACE_BOUND('',#229,.T.);
#264=FACE_BOUND('',#230,.T.);
#265=FACE_BOUND('',#231,.T.);
#266=FACE_BOUND('',#232,.T.);
#267=FACE_BOUND('',#233,.T.);
#268=FACE_BOUND('',#22,.T.);
#269=FACE_BOUND('',#234,.T.);
#270=FACE_BOUND('',#235,.T.);
#271=FACE_BOUND('',#236,.T.);
#272=FACE_BOUND('',#237,.T.);
#273=FACE_BOUND('',#238,.T.);
#274=FACE_BOUND('',#239,.T.);
#275=FACE_BOUND('',#240,.T.);
#276=FACE_BOUND('',#241,.T.);
#277=FACE_BOUND('',#242,.T.);
#278=FACE_BOUND('',#243,.T.);
#279=FACE_BOUND('',#244,.T.);
#280=FACE_BOUND('',#245,.T.);
#281=FACE_BOUND('',#246,.T.);
#282=FACE_BOUND('',#247,.T.);
#283=FACE_BOUND('',#248,.T.);
#284=FACE_BOUND('',#249,.T.);
#285=FACE_BOUND('',#250,.T.);
#286=FACE_BOUND('',#251,.T.);
#287=FACE_BOUND('',#252,.T.);
#288=FACE_BOUND('',#253,.T.);
#289=FACE_BOUND('',#254,.T.);
#290=FACE_BOUND('',#255,.T.);
#291=FACE_BOUND('',#256,.T.);
#292=FACE_BOUND('',#257,.T.);
#293=FACE_BOUND('',#258,.T.);
#294=FACE_BOUND('',#259,.T.);
#295=FACE_BOUND('',#260,.T.);
#296=FACE_BOUND('',#261,.T.);
#297=FACE_BOUND('',#262,.T.);
#298=PLANE('',#345);
#299=PLANE('',#372);
#300=PLANE('',#373);
#301=PLANE('',#374);
#302=PLANE('',#376);
#303=PLANE('',#377);
#304=PLANE('',#378);
#305=PLANE('',#379);
#306=PLANE('',#381);
#307=PLANE('',#386);
#308=PLANE('',#390);
#309=ADVANCED_FACE('',(#263,#264),#298,.T.);
#310=ADVANCED_FACE('',(#265),#34,.T.);
#311=ADVANCED_FACE('',(#266),#30,.T.);
#312=ADVANCED_FACE('',(#267),#23,.T.);
#313=ADVANCED_FACE('',(#268,#269),#31,.F.);
#314=ADVANCED_FACE('',(#270,#271),#35,.F.);
#315=ADVANCED_FACE('',(#272,#273),#32,.F.);
#316=ADVANCED_FACE('',(#274),#33,.T.);
#317=ADVANCED_FACE('',(#275,#276),#36,.T.);
#318=ADVANCED_FACE('',(#277),#37,.T.);
#319=ADVANCED_FACE('',(#278),#299,.T.);
#320=ADVANCED_FACE('',(#279),#300,.T.);
#321=ADVANCED_FACE('',(#280,#281),#301,.F.);
#322=ADVANCED_FACE('',(#282),#302,.F.);
#323=ADVANCED_FACE('',(#283),#303,.F.);
#324=ADVANCED_FACE('',(#284),#304,.F.);
#325=ADVANCED_FACE('',(#285,#286),#305,.F.);
#326=ADVANCED_FACE('',(#287),#306,.F.);
#327=ADVANCED_FACE('',(#288,#289),#24,.T.);
#328=ADVANCED_FACE('',(#290,#291),#25,.T.);
#329=ADVANCED_FACE('',(#292,#293),#307,.T.);
#330=ADVANCED_FACE('',(#294,#295),#38,.F.);
#331=ADVANCED_FACE('',(#296,#297),#308,.T.);
#332=CLOSED_SHELL('',(#309,#310,#311,#312,#313,#314,#315,#316,#317,#318,
#319,#320,#321,#322,#323,#324,#325,#326,#327,#328,#329,#330,#331));
#333=STYLED_ITEM('',(#334),#341);
#334=PRESENTATION_STYLE_ASSIGNMENT((#335));
#335=SURFACE_STYLE_USAGE(.BOTH.,#336);
#336=SURFACE_SIDE_STYLE('',(#337));
#337=SURFACE_STYLE_FILL_AREA(#338);
#338=FILL_AREA_STYLE('',(#339));
#339=FILL_AREA_STYLE_COLOUR('',#340);
#340=COLOUR_RGB('',0.941176474094391,0.941176474094391,0.941176474094391);
#341=MANIFOLD_SOLID_BREP('',#332);
#342=SHAPE_DEFINITION_REPRESENTATION(#602,#343);
#343=SHAPE_REPRESENTATION('1320.50.32F',(#344),#597);
#344=AXIS2_PLACEMENT_3D('',#497,#391,#392);
#345=AXIS2_PLACEMENT_3D('',#498,#393,#394);
#346=AXIS2_PLACEMENT_3D('',#499,#395,#396);
#347=AXIS2_PLACEMENT_3D('',#504,#398,#399);
#348=AXIS2_PLACEMENT_3D('',#508,#401,#402);
#349=AXIS2_PLACEMENT_3D('',#509,#403,#404);
#350=AXIS2_PLACEMENT_3D('',#512,#406,#407);
#351=AXIS2_PLACEMENT_3D('',#515,#409,#410);
#352=AXIS2_PLACEMENT_3D('',#521,#411,#412);
#353=AXIS2_PLACEMENT_3D('',#527,#413,#414);
#354=AXIS2_PLACEMENT_3D('',#528,#415,#416);
#355=AXIS2_PLACEMENT_3D('',#529,#417,#418);
#356=AXIS2_PLACEMENT_3D('',#531,#419,#420);
#357=AXIS2_PLACEMENT_3D('',#533,#421,#422);
#358=AXIS2_PLACEMENT_3D('',#534,#423,#424);
#359=AXIS2_PLACEMENT_3D('',#536,#425,#426);
#360=AXIS2_PLACEMENT_3D('',#538,#427,#428);
#361=AXIS2_PLACEMENT_3D('',#539,#429,#430);
#362=AXIS2_PLACEMENT_3D('',#541,#431,#432);
#363=AXIS2_PLACEMENT_3D('',#542,#433,#434);
#364=AXIS2_PLACEMENT_3D('',#551,#435,#436);
#365=AXIS2_PLACEMENT_3D('',#552,#437,#438);
#366=AXIS2_PLACEMENT_3D('',#553,#439,#440);
#367=AXIS2_PLACEMENT_3D('',#556,#441,#442);
#368=AXIS2_PLACEMENT_3D('',#557,#443,#444);
#369=AXIS2_PLACEMENT_3D('',#558,#445,#446);
#370=AXIS2_PLACEMENT_3D('',#559,#447,#448);
#371=AXIS2_PLACEMENT_3D('',#564,#451,#452);
#372=AXIS2_PLACEMENT_3D('',#565,#453,#454);
#373=AXIS2_PLACEMENT_3D('',#568,#457,#458);
#374=AXIS2_PLACEMENT_3D('',#571,#461,#462);
#375=AXIS2_PLACEMENT_3D('',#572,#463,#464);
#376=AXIS2_PLACEMENT_3D('',#575,#466,#467);
#377=AXIS2_PLACEMENT_3D('',#576,#468,#469);
#378=AXIS2_PLACEMENT_3D('',#577,#470,#471);
#379=AXIS2_PLACEMENT_3D('',#578,#472,#473);
#380=AXIS2_PLACEMENT_3D('',#579,#474,#475);
#381=AXIS2_PLACEMENT_3D('',#582,#477,#478);
#382=AXIS2_PLACEMENT_3D('',#583,#479,#480);
#383=AXIS2_PLACEMENT_3D('',#584,#481,#482);
#384=AXIS2_PLACEMENT_3D('',#586,#483,#484);
#385=AXIS2_PLACEMENT_3D('',#587,#485,#486);
#386=AXIS2_PLACEMENT_3D('',#589,#487,#488);
#387=AXIS2_PLACEMENT_3D('',#590,#489,#490);
#388=AXIS2_PLACEMENT_3D('',#592,#491,#492);
#389=AXIS2_PLACEMENT_3D('',#593,#493,#494);
#390=AXIS2_PLACEMENT_3D('',#595,#495,#496);
#391=DIRECTION('',(0.,0.,1.));
#392=DIRECTION('',(1.,0.,0.));
#393=DIRECTION('',(0.,-1.,0.));
#394=DIRECTION('',(0.,0.,-1.));
#395=DIRECTION('',(0.,-1.,0.));
#396=DIRECTION('',(1.,0.,0.));
#397=DIRECTION('',(-1.,0.,0.));
#398=DIRECTION('',(0.,-1.,0.));
#399=DIRECTION('',(1.,0.,0.));
#400=DIRECTION('',(1.,0.,0.));
#401=DIRECTION('',(0.,-1.,0.));
#402=DIRECTION('',(1.,0.,0.));
#403=DIRECTION('',(0.,-1.,0.));
#404=DIRECTION('',(1.,0.,0.));
#405=DIRECTION('',(0.,1.,0.));
#406=DIRECTION('',(0.,-1.,0.));
#407=DIRECTION('',(1.,0.,0.));
#408=DIRECTION('',(0.,-1.,0.));
#409=DIRECTION('',(0.,1.,0.));
#410=DIRECTION('',(1.,0.,0.));
#411=DIRECTION('',(0.,-1.,0.));
#412=DIRECTION('',(1.,0.,0.));
#413=DIRECTION('',(0.,-1.,0.));
#414=DIRECTION('',(1.,0.,0.));
#415=DIRECTION('',(0.,0.,1.));
#416=DIRECTION('',(1.,0.,0.));
#417=DIRECTION('',(0.,0.,1.));
#418=DIRECTION('',(0.,1.,0.));
#419=DIRECTION('',(0.,0.,-1.));
#420=DIRECTION('',(0.,-1.,0.));
#421=DIRECTION('',(0.,-1.,0.));
#422=DIRECTION('',(1.,0.,0.));
#423=DIRECTION('',(0.,-1.,0.));
#424=DIRECTION('',(1.,0.,0.));
#425=DIRECTION('',(0.,-1.,0.));
#426=DIRECTION('',(1.,0.,0.));
#427=DIRECTION('',(0.,-1.,0.));
#428=DIRECTION('',(1.,0.,0.));
#429=DIRECTION('',(0.,-1.,0.));
#430=DIRECTION('',(1.,0.,0.));
#431=DIRECTION('',(0.,-1.,0.));
#432=DIRECTION('',(1.,0.,0.));
#433=DIRECTION('',(0.,1.,0.));
#434=DIRECTION('',(1.,0.,0.));
#435=DIRECTION('',(0.,-1.,0.));
#436=DIRECTION('',(1.,0.,0.));
#437=DIRECTION('',(0.,-1.,0.));
#438=DIRECTION('',(1.,0.,0.));
#439=DIRECTION('',(0.,-1.,0.));
#440=DIRECTION('',(1.,0.,0.));
#441=DIRECTION('',(0.,-1.,0.));
#442=DIRECTION('',(1.,0.,0.));
#443=DIRECTION('',(0.,-0.707106781186548,0.707106781186547));
#444=DIRECTION('',(0.,0.707106781186547,0.707106781186548));
#445=DIRECTION('',(0.,-0.707106781186548,-0.707106781186548));
#446=DIRECTION('',(0.,-0.707106781186548,0.707106781186548));
#447=DIRECTION('',(0.,-1.,0.));
#448=DIRECTION('',(1.,0.,0.));
#449=DIRECTION('',(0.,-1.,0.));
#450=DIRECTION('',(0.,1.,0.));
#451=DIRECTION('',(0.,-1.,0.));
#452=DIRECTION('',(1.,0.,0.));
#453=DIRECTION('',(0.,1.,0.));
#454=DIRECTION('',(0.,0.,1.));
#455=DIRECTION('',(1.,0.,0.));
#456=DIRECTION('',(-1.,0.,0.));
#457=DIRECTION('',(0.,1.,0.));
#458=DIRECTION('',(0.,0.,1.));
#459=DIRECTION('',(1.,0.,0.));
#460=DIRECTION('',(-1.,0.,0.));
#461=DIRECTION('',(0.,0.,-1.));
#462=DIRECTION('',(-1.,0.,0.));
#463=DIRECTION('',(0.,0.,1.));
#464=DIRECTION('',(0.,-1.,0.));
#465=DIRECTION('',(1.,0.,0.));
#466=DIRECTION('',(0.,-0.707106781186548,-0.707106781186548));
#467=DIRECTION('',(-1.,0.,0.));
#468=DIRECTION('',(0.,0.,1.));
#469=DIRECTION('',(1.,0.,0.));
#470=DIRECTION('',(0.,0.,-1.));
#471=DIRECTION('',(-1.,0.,0.));
#472=DIRECTION('',(0.,0.,1.));
#473=DIRECTION('',(1.,0.,0.));
#474=DIRECTION('',(0.,0.,-1.));
#475=DIRECTION('',(0.,1.,0.));
#476=DIRECTION('',(-1.,0.,0.));
#477=DIRECTION('',(0.,-0.707106781186548,0.707106781186547));
#478=DIRECTION('',(1.,0.,0.));
#479=DIRECTION('',(-0.958116855006716,-0.286377534300509,-1.471965E-16));
#480=DIRECTION('',(-0.286377534300509,0.958116855006716,-4.39964900000001E-17));
#481=DIRECTION('',(-1.53631053972073E-16,7.90246974507126E-24,1.));
#482=DIRECTION('',(-0.286377534300509,0.958116855006716,-4.39964900000001E-17));
#483=DIRECTION('',(-0.958116855006716,-0.286377534300509,-1.471965E-16));
#484=DIRECTION('',(-0.286377534300509,0.958116855006716,-4.39964900000001E-17));
#485=DIRECTION('',(-1.53631053972073E-16,7.90246974507126E-24,1.));
#486=DIRECTION('',(-0.286377534300509,0.958116855006716,-4.39964900000001E-17));
#487=DIRECTION('',(1.53631053972073E-16,-7.90246974507126E-24,-1.));
#488=DIRECTION('',(-0.958116855006716,-0.286377534300509,-1.471965E-16));
#489=DIRECTION('',(-1.53631053972073E-16,7.90246974507126E-24,1.));
#490=DIRECTION('',(-0.286377534300509,0.958116855006716,-4.39964900000001E-17));
#491=DIRECTION('',(-1.53631053972073E-16,7.90246974507126E-24,1.));
#492=DIRECTION('',(-0.286377534300509,0.958116855006716,-4.39964900000001E-17));
#493=DIRECTION('',(-1.53631053972073E-16,7.90246974507126E-24,1.));
#494=DIRECTION('',(-0.286377534300509,0.958116855006716,-4.39964900000001E-17));
#495=DIRECTION('',(-1.53631053972073E-16,7.90246974507126E-24,1.));
#496=DIRECTION('',(0.958116855006716,0.286377534300509,1.471965E-16));
#497=CARTESIAN_POINT('',(0.,0.,0.));
#498=CARTESIAN_POINT('',(11.,4.163336E-16,0.));
#499=CARTESIAN_POINT('',(0.,0.,0.));
#500=CARTESIAN_POINT('',(8.5,0.,0.));
#501=CARTESIAN_POINT('',(7.82623792124926,-5.551115E-16,11.));
#502=CARTESIAN_POINT('',(7.82623792124926,-5.551115E-16,11.));
#503=CARTESIAN_POINT('',(-7.82623792124926,-5.551115E-16,11.));
#504=CARTESIAN_POINT('',(0.,8.326673E-16,0.));
#505=CARTESIAN_POINT('',(-7.82623792124926,-5.551115E-16,-11.));
#506=CARTESIAN_POINT('',(-7.82623792124926,-5.551115E-16,-11.));
#507=CARTESIAN_POINT('',(7.82623792124926,-5.551115E-16,-11.));
#508=CARTESIAN_POINT('',(0.,8.326673E-16,0.));
#509=CARTESIAN_POINT('',(0.,4.,0.));
#510=CARTESIAN_POINT('',(-7.82623792124926,-5.551115E-16,11.));
#511=CARTESIAN_POINT('',(-7.82623792124926,8.,11.));
#512=CARTESIAN_POINT('',(0.,8.,0.));
#513=CARTESIAN_POINT('',(-7.82623792124926,8.,-11.));
#514=CARTESIAN_POINT('',(-7.82623792124926,8.,-11.));
#515=CARTESIAN_POINT('',(0.,47.4266474361107,0.));
#516=CARTESIAN_POINT('',(-16.1400422798193,52.8532948722214,-7.5));
#517=CARTESIAN_POINT('',(-11.1381993781835,45.6107998942005,-7.5));
#518=CARTESIAN_POINT('',(-8.04673846971552,42.,-7.5));
#519=CARTESIAN_POINT('',(-16.1400422798193,52.8532948722214,-7.5));
#520=CARTESIAN_POINT('',(-8.04673846971552,42.,-7.5));
#521=CARTESIAN_POINT('',(0.,42.,0.));
#522=CARTESIAN_POINT('',(-8.04673846971552,42.,7.5));
#523=CARTESIAN_POINT('',(-8.04673846971552,42.,7.5));
#524=CARTESIAN_POINT('',(-11.1381993781835,45.6107998942005,7.5));
#525=CARTESIAN_POINT('',(-16.1400422798193,52.8532948722214,7.5));
#526=CARTESIAN_POINT('',(-16.1400422798193,52.8532948722214,7.5));
#527=CARTESIAN_POINT('',(0.,52.8532948722214,0.));
#528=CARTESIAN_POINT('',(0.,64.,0.));
#529=CARTESIAN_POINT('',(0.,64.,-7.5));
#530=CARTESIAN_POINT('',(16.1400422798193,52.8532948722214,-7.5));
#531=CARTESIAN_POINT('',(0.,64.,7.5));
#532=CARTESIAN_POINT('',(16.1400422798193,52.8532948722214,7.5));
#533=CARTESIAN_POINT('',(0.,52.8532948722214,0.));
#534=CARTESIAN_POINT('',(0.,33.0928947258124,0.));
#535=CARTESIAN_POINT('',(0.,35.1857894516248,0.));
#536=CARTESIAN_POINT('',(0.,31.,0.));
#537=CARTESIAN_POINT('',(7.25,31.,0.));
#538=CARTESIAN_POINT('',(0.,16.125,0.));
#539=CARTESIAN_POINT('',(0.,1.25,0.));
#540=CARTESIAN_POINT('',(7.25,1.25,0.));
#541=CARTESIAN_POINT('',(0.,0.625,0.));
#542=CARTESIAN_POINT('',(0.,47.4266474361107,0.));
#543=CARTESIAN_POINT('',(8.04673846971552,42.,-7.5));
#544=CARTESIAN_POINT('',(11.1381993781835,45.6107998942005,-7.5));
#545=CARTESIAN_POINT('',(16.1400422798193,52.8532948722214,-7.5));
#546=CARTESIAN_POINT('',(8.04673846971552,42.,-7.5));
#547=CARTESIAN_POINT('',(16.1400422798193,52.8532948722214,7.5));
#548=CARTESIAN_POINT('',(11.1381993781835,45.6107998942005,7.5));
#549=CARTESIAN_POINT('',(8.04673846971552,42.,7.5));
#550=CARTESIAN_POINT('',(8.04673846971552,42.,7.5));
#551=CARTESIAN_POINT('',(0.,42.,0.));
#552=CARTESIAN_POINT('',(0.,25.,0.));
#553=CARTESIAN_POINT('',(0.,8.,0.));
#554=CARTESIAN_POINT('',(0.,8.,-11.));
#555=CARTESIAN_POINT('',(0.,8.,11.));
#556=CARTESIAN_POINT('',(0.,8.,0.));
#557=CARTESIAN_POINT('',(0.,49.5,0.));
#558=CARTESIAN_POINT('',(0.,49.5,0.));
#559=CARTESIAN_POINT('',(0.,4.,0.));
#560=CARTESIAN_POINT('',(7.82623792124926,8.,11.));
#561=CARTESIAN_POINT('',(7.82623792124926,8.,11.));
#562=CARTESIAN_POINT('',(7.82623792124926,-5.551115E-16,-11.));
#563=CARTESIAN_POINT('',(7.82623792124926,8.,-11.));
#564=CARTESIAN_POINT('',(0.,8.,0.));
#565=CARTESIAN_POINT('',(12.25,8.,0.));
#566=CARTESIAN_POINT('',(-7.82623792124926,8.,11.));
#567=CARTESIAN_POINT('',(0.,8.,-11.));
#568=CARTESIAN_POINT('',(12.25,8.,0.));
#569=CARTESIAN_POINT('',(0.,8.,11.));
#570=CARTESIAN_POINT('',(7.82623792124926,8.,-11.));
#571=CARTESIAN_POINT('',(0.,85.,7.5));
#572=CARTESIAN_POINT('',(0.,64.,7.5));
#573=CARTESIAN_POINT('',(0.,51.8246149958205,7.5));
#574=CARTESIAN_POINT('',(-8.04673846971552,42.,7.5));
#575=CARTESIAN_POINT('',(0.,42.,7.5));
#576=CARTESIAN_POINT('',(0.,-6.987993E-16,-11.));
#577=CARTESIAN_POINT('',(0.,8.,11.));
#578=CARTESIAN_POINT('',(0.,42.,-7.5));
#579=CARTESIAN_POINT('',(0.,64.,-7.5));
#580=CARTESIAN_POINT('',(0.,76.1753850041795,-7.5));
#581=CARTESIAN_POINT('',(8.04673846971552,42.,-7.5));
#582=CARTESIAN_POINT('',(0.,38.5,-11.));
#583=CARTESIAN_POINT('',(-9.34198E-15,64.,-1.972152E-30));
#584=CARTESIAN_POINT('',(-1.09551060667068E-14,64.,10.5));
#585=CARTESIAN_POINT('',(-2.78007546020036,73.3011386633891,10.5));
#586=CARTESIAN_POINT('',(-9.34198E-15,64.,-1.972152E-30));
#587=CARTESIAN_POINT('',(-7.72885393329323E-15,64.,-10.5));
#588=CARTESIAN_POINT('',(-2.78007546020036,73.3011386633891,-10.5));
#589=CARTESIAN_POINT('',(-2.53554786730222,72.4830367517214,-10.5));
#590=CARTESIAN_POINT('',(-7.72885393329323E-15,64.,-10.5));
#591=CARTESIAN_POINT('',(-2.29102027440408,71.6649348400538,-10.5));
#592=CARTESIAN_POINT('',(-9.34198E-15,64.,-1.972152E-30));
#593=CARTESIAN_POINT('',(-1.09551060667068E-14,64.,10.5));
#594=CARTESIAN_POINT('',(-2.29102027440408,71.6649348400538,10.5));
#595=CARTESIAN_POINT('',(-2.53554786730222,72.4830367517214,10.5));
#596=MECHANICAL_DESIGN_GEOMETRIC_PRESENTATION_REPRESENTATION('',(#333),
#597);
#597=(
GEOMETRIC_REPRESENTATION_CONTEXT(3)
GLOBAL_UNCERTAINTY_ASSIGNED_CONTEXT((#598))
GLOBAL_UNIT_ASSIGNED_CONTEXT((#601,#600,#599))
REPRESENTATION_CONTEXT('1320.50.32F','TOP_LEVEL_ASSEMBLY_PART')
);
#598=UNCERTAINTY_MEASURE_WITH_UNIT(LENGTH_MEASURE(0.005),#601,
'DISTANCE_ACCURACY_VALUE','Maximum Tolerance applied to model');
#599=(
NAMED_UNIT(*)
SI_UNIT($,.STERADIAN.)
SOLID_ANGLE_UNIT()
);
#600=(
NAMED_UNIT(*)
PLANE_ANGLE_UNIT()
SI_UNIT($,.RADIAN.)
);
#601=(
LENGTH_UNIT()
NAMED_UNIT(*)
SI_UNIT(.MILLI.,.METRE.)
);
#602=PRODUCT_DEFINITION_SHAPE('','',#603);
#603=PRODUCT_DEFINITION('','',#605,#604);
#604=PRODUCT_DEFINITION_CONTEXT('',#611,'design');
#605=PRODUCT_DEFINITION_FORMATION_WITH_SPECIFIED_SOURCE('','',#607,
 .NOT_KNOWN.);
#606=PRODUCT_RELATED_PRODUCT_CATEGORY('','',(#607));
#607=PRODUCT('1320.50.32F','1320.50.32F','1320.50.32F',(#609));
#608=PRODUCT_CATEGORY('','');
#609=PRODUCT_CONTEXT('',#611,'mechanical');
#610=APPLICATION_PROTOCOL_DEFINITION('international standard',
'automotive_design',2010,#611);
#611=APPLICATION_CONTEXT(
'core data for automotive mechanical design processes');
ENDSEC;
END-ISO-10303-21;
