ISO-10303-21;
HEADER;
/* Generated by software containing ST-Developer
 * from STEP Tools, Inc. (www.steptools.com) 
 */

FILE_DESCRIPTION(
/* description */ (''),
/* implementation_level */ '2;1');

FILE_NAME(
/* name */ 
'I:\\Area Tecnica\\Disegni\\VARIE-3D\\Componenti\\1325-1326\\1325_###_
03F\\1325_040_03F.stp',
/* time_stamp */ '2016-10-07T11:53:38+02:00',
/* author */ ('Maniean1'),
/* organization */ ('Pneumax S.p.A.'),
/* preprocessor_version */ 'ST-DEVELOPER v15.2',
/* originating_system */ 'Autodesk Inventor 2014',
/* authorisation */ '');

FILE_SCHEMA (('AUTOMOTIVE_DESIGN { 1 0 10303 214 3 1 1 }'));
ENDSEC;

DATA;
#10=MECHANICAL_DESIGN_GEOMETRIC_PRESENTATION_REPRESENTATION('',(#13),#637);
#11=SHAPE_REPRESENTATION_RELATIONSHIP('SRR','None',#646,#12);
#12=ADVANCED_BREP_SHAPE_REPRESENTATION($,(#375),#636);
#13=STYLED_ITEM('',(#655),#375);
#14=LINE('',#611,#26);
#15=LINE('',#613,#27);
#16=LINE('',#615,#28);
#17=LINE('',#616,#29);
#18=LINE('',#619,#30);
#19=LINE('',#621,#31);
#20=LINE('',#622,#32);
#21=LINE('',#625,#33);
#22=LINE('',#627,#34);
#23=LINE('',#628,#35);
#24=LINE('',#630,#36);
#25=LINE('',#631,#37);
#26=VECTOR('',#516,90.);
#27=VECTOR('',#517,10.);
#28=VECTOR('',#518,90.);
#29=VECTOR('',#519,10.);
#30=VECTOR('',#522,52.);
#31=VECTOR('',#523,52.);
#32=VECTOR('',#524,10.);
#33=VECTOR('',#527,90.);
#34=VECTOR('',#528,90.);
#35=VECTOR('',#529,10.);
#36=VECTOR('',#532,52.);
#37=VECTOR('',#533,52.);
#38=CYLINDRICAL_SURFACE('',#380,5.5);
#39=CYLINDRICAL_SURFACE('',#382,3.25);
#40=CYLINDRICAL_SURFACE('',#387,5.5);
#41=CYLINDRICAL_SURFACE('',#389,3.25);
#42=CYLINDRICAL_SURFACE('',#394,5.5);
#43=CYLINDRICAL_SURFACE('',#396,3.25);
#44=CYLINDRICAL_SURFACE('',#401,5.5);
#45=CYLINDRICAL_SURFACE('',#403,3.25);
#46=CYLINDRICAL_SURFACE('',#405,17.5);
#47=CYLINDRICAL_SURFACE('',#408,4.5);
#48=CYLINDRICAL_SURFACE('',#411,4.5);
#49=CYLINDRICAL_SURFACE('',#414,4.5);
#50=CYLINDRICAL_SURFACE('',#417,4.5);
#51=FACE_BOUND('',#110,.T.);
#52=FACE_BOUND('',#112,.T.);
#53=FACE_BOUND('',#114,.T.);
#54=FACE_BOUND('',#116,.T.);
#55=FACE_BOUND('',#118,.T.);
#56=FACE_BOUND('',#120,.T.);
#57=FACE_BOUND('',#122,.T.);
#58=FACE_BOUND('',#124,.T.);
#59=FACE_BOUND('',#126,.T.);
#60=FACE_BOUND('',#128,.T.);
#61=FACE_BOUND('',#130,.T.);
#62=FACE_BOUND('',#132,.T.);
#63=FACE_BOUND('',#134,.T.);
#64=FACE_BOUND('',#136,.T.);
#65=FACE_BOUND('',#138,.T.);
#66=FACE_BOUND('',#140,.T.);
#67=FACE_BOUND('',#142,.T.);
#68=FACE_BOUND('',#147,.T.);
#69=FACE_BOUND('',#148,.T.);
#70=FACE_BOUND('',#149,.T.);
#71=FACE_BOUND('',#150,.T.);
#72=FACE_BOUND('',#151,.T.);
#73=FACE_BOUND('',#152,.T.);
#74=FACE_BOUND('',#153,.T.);
#75=FACE_BOUND('',#154,.T.);
#76=FACE_BOUND('',#155,.T.);
#77=FACE_BOUND('',#156,.T.);
#78=FACE_BOUND('',#157,.T.);
#79=FACE_BOUND('',#158,.T.);
#80=FACE_BOUND('',#159,.T.);
#81=FACE_BOUND('',#160,.T.);
#82=FACE_BOUND('',#161,.T.);
#83=FACE_BOUND('',#162,.T.);
#84=FACE_BOUND('',#163,.T.);
#85=FACE_BOUND('',#164,.T.);
#86=FACE_BOUND('',#165,.T.);
#87=FACE_BOUND('',#166,.T.);
#88=FACE_OUTER_BOUND('',#109,.T.);
#89=FACE_OUTER_BOUND('',#111,.T.);
#90=FACE_OUTER_BOUND('',#113,.T.);
#91=FACE_OUTER_BOUND('',#115,.T.);
#92=FACE_OUTER_BOUND('',#117,.T.);
#93=FACE_OUTER_BOUND('',#119,.T.);
#94=FACE_OUTER_BOUND('',#121,.T.);
#95=FACE_OUTER_BOUND('',#123,.T.);
#96=FACE_OUTER_BOUND('',#125,.T.);
#97=FACE_OUTER_BOUND('',#127,.T.);
#98=FACE_OUTER_BOUND('',#129,.T.);
#99=FACE_OUTER_BOUND('',#131,.T.);
#100=FACE_OUTER_BOUND('',#133,.T.);
#101=FACE_OUTER_BOUND('',#135,.T.);
#102=FACE_OUTER_BOUND('',#137,.T.);
#103=FACE_OUTER_BOUND('',#139,.T.);
#104=FACE_OUTER_BOUND('',#141,.T.);
#105=FACE_OUTER_BOUND('',#143,.T.);
#106=FACE_OUTER_BOUND('',#144,.T.);
#107=FACE_OUTER_BOUND('',#145,.T.);
#108=FACE_OUTER_BOUND('',#146,.T.);
#109=EDGE_LOOP('',(#265));
#110=EDGE_LOOP('',(#266));
#111=EDGE_LOOP('',(#267));
#112=EDGE_LOOP('',(#268));
#113=EDGE_LOOP('',(#269));
#114=EDGE_LOOP('',(#270));
#115=EDGE_LOOP('',(#271));
#116=EDGE_LOOP('',(#272));
#117=EDGE_LOOP('',(#273));
#118=EDGE_LOOP('',(#274));
#119=EDGE_LOOP('',(#275));
#120=EDGE_LOOP('',(#276));
#121=EDGE_LOOP('',(#277));
#122=EDGE_LOOP('',(#278));
#123=EDGE_LOOP('',(#279));
#124=EDGE_LOOP('',(#280));
#125=EDGE_LOOP('',(#281));
#126=EDGE_LOOP('',(#282));
#127=EDGE_LOOP('',(#283));
#128=EDGE_LOOP('',(#284));
#129=EDGE_LOOP('',(#285));
#130=EDGE_LOOP('',(#286));
#131=EDGE_LOOP('',(#287));
#132=EDGE_LOOP('',(#288));
#133=EDGE_LOOP('',(#289));
#134=EDGE_LOOP('',(#290));
#135=EDGE_LOOP('',(#291));
#136=EDGE_LOOP('',(#292));
#137=EDGE_LOOP('',(#293));
#138=EDGE_LOOP('',(#294));
#139=EDGE_LOOP('',(#295));
#140=EDGE_LOOP('',(#296));
#141=EDGE_LOOP('',(#297));
#142=EDGE_LOOP('',(#298));
#143=EDGE_LOOP('',(#299,#300,#301,#302));
#144=EDGE_LOOP('',(#303,#304,#305,#306));
#145=EDGE_LOOP('',(#307,#308,#309,#310));
#146=EDGE_LOOP('',(#311,#312,#313,#314));
#147=EDGE_LOOP('',(#315));
#148=EDGE_LOOP('',(#316));
#149=EDGE_LOOP('',(#317));
#150=EDGE_LOOP('',(#318));
#151=EDGE_LOOP('',(#319));
#152=EDGE_LOOP('',(#320));
#153=EDGE_LOOP('',(#321));
#154=EDGE_LOOP('',(#322));
#155=EDGE_LOOP('',(#323));
#156=EDGE_LOOP('',(#324,#325,#326,#327));
#157=EDGE_LOOP('',(#328));
#158=EDGE_LOOP('',(#329));
#159=EDGE_LOOP('',(#330));
#160=EDGE_LOOP('',(#331));
#161=EDGE_LOOP('',(#332));
#162=EDGE_LOOP('',(#333));
#163=EDGE_LOOP('',(#334));
#164=EDGE_LOOP('',(#335));
#165=EDGE_LOOP('',(#336));
#166=EDGE_LOOP('',(#337,#338,#339,#340));
#167=CIRCLE('',#378,5.5);
#168=CIRCLE('',#379,3.25);
#169=CIRCLE('',#381,5.5);
#170=CIRCLE('',#383,3.25);
#171=CIRCLE('',#385,5.5);
#172=CIRCLE('',#386,3.25);
#173=CIRCLE('',#388,5.5);
#174=CIRCLE('',#390,3.25);
#175=CIRCLE('',#392,5.5);
#176=CIRCLE('',#393,3.25);
#177=CIRCLE('',#395,5.5);
#178=CIRCLE('',#397,3.25);
#179=CIRCLE('',#399,5.5);
#180=CIRCLE('',#400,3.25);
#181=CIRCLE('',#402,5.5);
#182=CIRCLE('',#404,3.25);
#183=CIRCLE('',#406,17.5);
#184=CIRCLE('',#407,17.5);
#185=CIRCLE('',#409,4.5);
#186=CIRCLE('',#410,4.5);
#187=CIRCLE('',#412,4.5);
#188=CIRCLE('',#413,4.5);
#189=CIRCLE('',#415,4.5);
#190=CIRCLE('',#416,4.5);
#191=CIRCLE('',#418,4.5);
#192=CIRCLE('',#419,4.5);
#193=VERTEX_POINT('',#540);
#194=VERTEX_POINT('',#542);
#195=VERTEX_POINT('',#545);
#196=VERTEX_POINT('',#548);
#197=VERTEX_POINT('',#551);
#198=VERTEX_POINT('',#553);
#199=VERTEX_POINT('',#556);
#200=VERTEX_POINT('',#559);
#201=VERTEX_POINT('',#562);
#202=VERTEX_POINT('',#564);
#203=VERTEX_POINT('',#567);
#204=VERTEX_POINT('',#570);
#205=VERTEX_POINT('',#573);
#206=VERTEX_POINT('',#575);
#207=VERTEX_POINT('',#578);
#208=VERTEX_POINT('',#581);
#209=VERTEX_POINT('',#584);
#210=VERTEX_POINT('',#586);
#211=VERTEX_POINT('',#589);
#212=VERTEX_POINT('',#591);
#213=VERTEX_POINT('',#594);
#214=VERTEX_POINT('',#596);
#215=VERTEX_POINT('',#599);
#216=VERTEX_POINT('',#601);
#217=VERTEX_POINT('',#604);
#218=VERTEX_POINT('',#606);
#219=VERTEX_POINT('',#609);
#220=VERTEX_POINT('',#610);
#221=VERTEX_POINT('',#612);
#222=VERTEX_POINT('',#614);
#223=VERTEX_POINT('',#618);
#224=VERTEX_POINT('',#620);
#225=VERTEX_POINT('',#624);
#226=VERTEX_POINT('',#626);
#227=EDGE_CURVE('',#193,#193,#167,.T.);
#228=EDGE_CURVE('',#194,#194,#168,.T.);
#229=EDGE_CURVE('',#195,#195,#169,.T.);
#230=EDGE_CURVE('',#196,#196,#170,.T.);
#231=EDGE_CURVE('',#197,#197,#171,.T.);
#232=EDGE_CURVE('',#198,#198,#172,.T.);
#233=EDGE_CURVE('',#199,#199,#173,.T.);
#234=EDGE_CURVE('',#200,#200,#174,.T.);
#235=EDGE_CURVE('',#201,#201,#175,.T.);
#236=EDGE_CURVE('',#202,#202,#176,.T.);
#237=EDGE_CURVE('',#203,#203,#177,.T.);
#238=EDGE_CURVE('',#204,#204,#178,.T.);
#239=EDGE_CURVE('',#205,#205,#179,.T.);
#240=EDGE_CURVE('',#206,#206,#180,.T.);
#241=EDGE_CURVE('',#207,#207,#181,.T.);
#242=EDGE_CURVE('',#208,#208,#182,.T.);
#243=EDGE_CURVE('',#209,#209,#183,.T.);
#244=EDGE_CURVE('',#210,#210,#184,.T.);
#245=EDGE_CURVE('',#211,#211,#185,.T.);
#246=EDGE_CURVE('',#212,#212,#186,.T.);
#247=EDGE_CURVE('',#213,#213,#187,.T.);
#248=EDGE_CURVE('',#214,#214,#188,.T.);
#249=EDGE_CURVE('',#215,#215,#189,.T.);
#250=EDGE_CURVE('',#216,#216,#190,.T.);
#251=EDGE_CURVE('',#217,#217,#191,.T.);
#252=EDGE_CURVE('',#218,#218,#192,.T.);
#253=EDGE_CURVE('',#219,#220,#14,.T.);
#254=EDGE_CURVE('',#219,#221,#15,.T.);
#255=EDGE_CURVE('',#222,#221,#16,.T.);
#256=EDGE_CURVE('',#220,#222,#17,.T.);
#257=EDGE_CURVE('',#220,#223,#18,.T.);
#258=EDGE_CURVE('',#224,#222,#19,.T.);
#259=EDGE_CURVE('',#223,#224,#20,.T.);
#260=EDGE_CURVE('',#223,#225,#21,.T.);
#261=EDGE_CURVE('',#226,#224,#22,.T.);
#262=EDGE_CURVE('',#225,#226,#23,.T.);
#263=EDGE_CURVE('',#225,#219,#24,.T.);
#264=EDGE_CURVE('',#221,#226,#25,.T.);
#265=ORIENTED_EDGE('',*,*,#227,.T.);
#266=ORIENTED_EDGE('',*,*,#228,.F.);
#267=ORIENTED_EDGE('',*,*,#229,.F.);
#268=ORIENTED_EDGE('',*,*,#227,.F.);
#269=ORIENTED_EDGE('',*,*,#230,.F.);
#270=ORIENTED_EDGE('',*,*,#228,.T.);
#271=ORIENTED_EDGE('',*,*,#231,.T.);
#272=ORIENTED_EDGE('',*,*,#232,.F.);
#273=ORIENTED_EDGE('',*,*,#233,.F.);
#274=ORIENTED_EDGE('',*,*,#231,.F.);
#275=ORIENTED_EDGE('',*,*,#234,.F.);
#276=ORIENTED_EDGE('',*,*,#232,.T.);
#277=ORIENTED_EDGE('',*,*,#235,.T.);
#278=ORIENTED_EDGE('',*,*,#236,.F.);
#279=ORIENTED_EDGE('',*,*,#237,.F.);
#280=ORIENTED_EDGE('',*,*,#235,.F.);
#281=ORIENTED_EDGE('',*,*,#238,.F.);
#282=ORIENTED_EDGE('',*,*,#236,.T.);
#283=ORIENTED_EDGE('',*,*,#239,.T.);
#284=ORIENTED_EDGE('',*,*,#240,.F.);
#285=ORIENTED_EDGE('',*,*,#241,.F.);
#286=ORIENTED_EDGE('',*,*,#239,.F.);
#287=ORIENTED_EDGE('',*,*,#242,.F.);
#288=ORIENTED_EDGE('',*,*,#240,.T.);
#289=ORIENTED_EDGE('',*,*,#243,.F.);
#290=ORIENTED_EDGE('',*,*,#244,.F.);
#291=ORIENTED_EDGE('',*,*,#245,.F.);
#292=ORIENTED_EDGE('',*,*,#246,.F.);
#293=ORIENTED_EDGE('',*,*,#247,.F.);
#294=ORIENTED_EDGE('',*,*,#248,.F.);
#295=ORIENTED_EDGE('',*,*,#249,.F.);
#296=ORIENTED_EDGE('',*,*,#250,.F.);
#297=ORIENTED_EDGE('',*,*,#251,.F.);
#298=ORIENTED_EDGE('',*,*,#252,.F.);
#299=ORIENTED_EDGE('',*,*,#253,.F.);
#300=ORIENTED_EDGE('',*,*,#254,.T.);
#301=ORIENTED_EDGE('',*,*,#255,.F.);
#302=ORIENTED_EDGE('',*,*,#256,.F.);
#303=ORIENTED_EDGE('',*,*,#257,.F.);
#304=ORIENTED_EDGE('',*,*,#256,.T.);
#305=ORIENTED_EDGE('',*,*,#258,.F.);
#306=ORIENTED_EDGE('',*,*,#259,.F.);
#307=ORIENTED_EDGE('',*,*,#260,.F.);
#308=ORIENTED_EDGE('',*,*,#259,.T.);
#309=ORIENTED_EDGE('',*,*,#261,.F.);
#310=ORIENTED_EDGE('',*,*,#262,.F.);
#311=ORIENTED_EDGE('',*,*,#263,.F.);
#312=ORIENTED_EDGE('',*,*,#262,.T.);
#313=ORIENTED_EDGE('',*,*,#264,.F.);
#314=ORIENTED_EDGE('',*,*,#254,.F.);
#315=ORIENTED_EDGE('',*,*,#229,.T.);
#316=ORIENTED_EDGE('',*,*,#233,.T.);
#317=ORIENTED_EDGE('',*,*,#237,.T.);
#318=ORIENTED_EDGE('',*,*,#241,.T.);
#319=ORIENTED_EDGE('',*,*,#244,.T.);
#320=ORIENTED_EDGE('',*,*,#246,.T.);
#321=ORIENTED_EDGE('',*,*,#248,.T.);
#322=ORIENTED_EDGE('',*,*,#250,.T.);
#323=ORIENTED_EDGE('',*,*,#252,.T.);
#324=ORIENTED_EDGE('',*,*,#263,.T.);
#325=ORIENTED_EDGE('',*,*,#253,.T.);
#326=ORIENTED_EDGE('',*,*,#257,.T.);
#327=ORIENTED_EDGE('',*,*,#260,.T.);
#328=ORIENTED_EDGE('',*,*,#230,.T.);
#329=ORIENTED_EDGE('',*,*,#234,.T.);
#330=ORIENTED_EDGE('',*,*,#238,.T.);
#331=ORIENTED_EDGE('',*,*,#242,.T.);
#332=ORIENTED_EDGE('',*,*,#243,.T.);
#333=ORIENTED_EDGE('',*,*,#245,.T.);
#334=ORIENTED_EDGE('',*,*,#247,.T.);
#335=ORIENTED_EDGE('',*,*,#249,.T.);
#336=ORIENTED_EDGE('',*,*,#251,.T.);
#337=ORIENTED_EDGE('',*,*,#264,.T.);
#338=ORIENTED_EDGE('',*,*,#261,.T.);
#339=ORIENTED_EDGE('',*,*,#258,.T.);
#340=ORIENTED_EDGE('',*,*,#255,.T.);
#341=PLANE('',#377);
#342=PLANE('',#384);
#343=PLANE('',#391);
#344=PLANE('',#398);
#345=PLANE('',#420);
#346=PLANE('',#421);
#347=PLANE('',#422);
#348=PLANE('',#423);
#349=PLANE('',#424);
#350=PLANE('',#425);
#351=ADVANCED_FACE('',(#88,#51),#341,.T.);
#352=ADVANCED_FACE('',(#89,#52),#38,.F.);
#353=ADVANCED_FACE('',(#90,#53),#39,.F.);
#354=ADVANCED_FACE('',(#91,#54),#342,.T.);
#355=ADVANCED_FACE('',(#92,#55),#40,.F.);
#356=ADVANCED_FACE('',(#93,#56),#41,.F.);
#357=ADVANCED_FACE('',(#94,#57),#343,.T.);
#358=ADVANCED_FACE('',(#95,#58),#42,.F.);
#359=ADVANCED_FACE('',(#96,#59),#43,.F.);
#360=ADVANCED_FACE('',(#97,#60),#344,.T.);
#361=ADVANCED_FACE('',(#98,#61),#44,.F.);
#362=ADVANCED_FACE('',(#99,#62),#45,.F.);
#363=ADVANCED_FACE('',(#100,#63),#46,.F.);
#364=ADVANCED_FACE('',(#101,#64),#47,.F.);
#365=ADVANCED_FACE('',(#102,#65),#48,.F.);
#366=ADVANCED_FACE('',(#103,#66),#49,.F.);
#367=ADVANCED_FACE('',(#104,#67),#50,.F.);
#368=ADVANCED_FACE('',(#105),#345,.T.);
#369=ADVANCED_FACE('',(#106),#346,.T.);
#370=ADVANCED_FACE('',(#107),#347,.T.);
#371=ADVANCED_FACE('',(#108),#348,.T.);
#372=ADVANCED_FACE('',(#68,#69,#70,#71,#72,#73,#74,#75,#76,#77),#349,.T.);
#373=ADVANCED_FACE('',(#78,#79,#80,#81,#82,#83,#84,#85,#86,#87),#350,.T.);
#374=CLOSED_SHELL('',(#351,#352,#353,#354,#355,#356,#357,#358,#359,#360,
#361,#362,#363,#364,#365,#366,#367,#368,#369,#370,#371,#372,#373));
#375=MANIFOLD_SOLID_BREP('Solido1',#374);
#376=AXIS2_PLACEMENT_3D('placement',#538,#426,#427);
#377=AXIS2_PLACEMENT_3D('',#539,#428,#429);
#378=AXIS2_PLACEMENT_3D('',#541,#430,#431);
#379=AXIS2_PLACEMENT_3D('',#543,#432,#433);
#380=AXIS2_PLACEMENT_3D('',#544,#434,#435);
#381=AXIS2_PLACEMENT_3D('',#546,#436,#437);
#382=AXIS2_PLACEMENT_3D('',#547,#438,#439);
#383=AXIS2_PLACEMENT_3D('',#549,#440,#441);
#384=AXIS2_PLACEMENT_3D('',#550,#442,#443);
#385=AXIS2_PLACEMENT_3D('',#552,#444,#445);
#386=AXIS2_PLACEMENT_3D('',#554,#446,#447);
#387=AXIS2_PLACEMENT_3D('',#555,#448,#449);
#388=AXIS2_PLACEMENT_3D('',#557,#450,#451);
#389=AXIS2_PLACEMENT_3D('',#558,#452,#453);
#390=AXIS2_PLACEMENT_3D('',#560,#454,#455);
#391=AXIS2_PLACEMENT_3D('',#561,#456,#457);
#392=AXIS2_PLACEMENT_3D('',#563,#458,#459);
#393=AXIS2_PLACEMENT_3D('',#565,#460,#461);
#394=AXIS2_PLACEMENT_3D('',#566,#462,#463);
#395=AXIS2_PLACEMENT_3D('',#568,#464,#465);
#396=AXIS2_PLACEMENT_3D('',#569,#466,#467);
#397=AXIS2_PLACEMENT_3D('',#571,#468,#469);
#398=AXIS2_PLACEMENT_3D('',#572,#470,#471);
#399=AXIS2_PLACEMENT_3D('',#574,#472,#473);
#400=AXIS2_PLACEMENT_3D('',#576,#474,#475);
#401=AXIS2_PLACEMENT_3D('',#577,#476,#477);
#402=AXIS2_PLACEMENT_3D('',#579,#478,#479);
#403=AXIS2_PLACEMENT_3D('',#580,#480,#481);
#404=AXIS2_PLACEMENT_3D('',#582,#482,#483);
#405=AXIS2_PLACEMENT_3D('',#583,#484,#485);
#406=AXIS2_PLACEMENT_3D('',#585,#486,#487);
#407=AXIS2_PLACEMENT_3D('',#587,#488,#489);
#408=AXIS2_PLACEMENT_3D('',#588,#490,#491);
#409=AXIS2_PLACEMENT_3D('',#590,#492,#493);
#410=AXIS2_PLACEMENT_3D('',#592,#494,#495);
#411=AXIS2_PLACEMENT_3D('',#593,#496,#497);
#412=AXIS2_PLACEMENT_3D('',#595,#498,#499);
#413=AXIS2_PLACEMENT_3D('',#597,#500,#501);
#414=AXIS2_PLACEMENT_3D('',#598,#502,#503);
#415=AXIS2_PLACEMENT_3D('',#600,#504,#505);
#416=AXIS2_PLACEMENT_3D('',#602,#506,#507);
#417=AXIS2_PLACEMENT_3D('',#603,#508,#509);
#418=AXIS2_PLACEMENT_3D('',#605,#510,#511);
#419=AXIS2_PLACEMENT_3D('',#607,#512,#513);
#420=AXIS2_PLACEMENT_3D('',#608,#514,#515);
#421=AXIS2_PLACEMENT_3D('',#617,#520,#521);
#422=AXIS2_PLACEMENT_3D('',#623,#525,#526);
#423=AXIS2_PLACEMENT_3D('',#629,#530,#531);
#424=AXIS2_PLACEMENT_3D('',#632,#534,#535);
#425=AXIS2_PLACEMENT_3D('',#633,#536,#537);
#426=DIRECTION('axis',(0.,0.,1.));
#427=DIRECTION('refdir',(1.,0.,0.));
#428=DIRECTION('center_axis',(0.,0.,1.));
#429=DIRECTION('ref_axis',(1.,0.,0.));
#430=DIRECTION('center_axis',(0.,0.,1.));
#431=DIRECTION('ref_axis',(1.,0.,0.));
#432=DIRECTION('center_axis',(0.,0.,1.));
#433=DIRECTION('ref_axis',(1.,0.,0.));
#434=DIRECTION('center_axis',(0.,0.,1.));
#435=DIRECTION('ref_axis',(1.,0.,0.));
#436=DIRECTION('center_axis',(0.,0.,-1.));
#437=DIRECTION('ref_axis',(1.,0.,0.));
#438=DIRECTION('center_axis',(0.,0.,1.));
#439=DIRECTION('ref_axis',(1.,0.,0.));
#440=DIRECTION('center_axis',(0.,0.,1.));
#441=DIRECTION('ref_axis',(1.,0.,0.));
#442=DIRECTION('center_axis',(0.,0.,1.));
#443=DIRECTION('ref_axis',(1.,0.,0.));
#444=DIRECTION('center_axis',(0.,0.,1.));
#445=DIRECTION('ref_axis',(1.,0.,0.));
#446=DIRECTION('center_axis',(0.,0.,1.));
#447=DIRECTION('ref_axis',(1.,0.,0.));
#448=DIRECTION('center_axis',(0.,0.,1.));
#449=DIRECTION('ref_axis',(1.,0.,0.));
#450=DIRECTION('center_axis',(0.,0.,-1.));
#451=DIRECTION('ref_axis',(1.,0.,0.));
#452=DIRECTION('center_axis',(0.,0.,1.));
#453=DIRECTION('ref_axis',(1.,0.,0.));
#454=DIRECTION('center_axis',(0.,0.,1.));
#455=DIRECTION('ref_axis',(1.,0.,0.));
#456=DIRECTION('center_axis',(0.,0.,1.));
#457=DIRECTION('ref_axis',(1.,0.,0.));
#458=DIRECTION('center_axis',(0.,0.,1.));
#459=DIRECTION('ref_axis',(1.,0.,0.));
#460=DIRECTION('center_axis',(0.,0.,1.));
#461=DIRECTION('ref_axis',(1.,0.,0.));
#462=DIRECTION('center_axis',(0.,0.,1.));
#463=DIRECTION('ref_axis',(1.,0.,0.));
#464=DIRECTION('center_axis',(0.,0.,-1.));
#465=DIRECTION('ref_axis',(1.,0.,0.));
#466=DIRECTION('center_axis',(0.,0.,1.));
#467=DIRECTION('ref_axis',(1.,0.,0.));
#468=DIRECTION('center_axis',(0.,0.,1.));
#469=DIRECTION('ref_axis',(1.,0.,0.));
#470=DIRECTION('center_axis',(0.,0.,1.));
#471=DIRECTION('ref_axis',(1.,0.,0.));
#472=DIRECTION('center_axis',(0.,0.,1.));
#473=DIRECTION('ref_axis',(1.,0.,0.));
#474=DIRECTION('center_axis',(0.,0.,1.));
#475=DIRECTION('ref_axis',(1.,0.,0.));
#476=DIRECTION('center_axis',(0.,0.,1.));
#477=DIRECTION('ref_axis',(1.,0.,0.));
#478=DIRECTION('center_axis',(0.,0.,-1.));
#479=DIRECTION('ref_axis',(1.,0.,0.));
#480=DIRECTION('center_axis',(0.,0.,1.));
#481=DIRECTION('ref_axis',(1.,0.,0.));
#482=DIRECTION('center_axis',(0.,0.,1.));
#483=DIRECTION('ref_axis',(1.,0.,0.));
#484=DIRECTION('center_axis',(0.,0.,-1.));
#485=DIRECTION('ref_axis',(-1.,0.,0.));
#486=DIRECTION('center_axis',(0.,0.,1.));
#487=DIRECTION('ref_axis',(-1.,0.,0.));
#488=DIRECTION('center_axis',(0.,0.,-1.));
#489=DIRECTION('ref_axis',(-1.,0.,0.));
#490=DIRECTION('center_axis',(0.,0.,-1.));
#491=DIRECTION('ref_axis',(-1.,0.,0.));
#492=DIRECTION('center_axis',(0.,0.,1.));
#493=DIRECTION('ref_axis',(-1.,0.,0.));
#494=DIRECTION('center_axis',(0.,0.,-1.));
#495=DIRECTION('ref_axis',(-1.,0.,0.));
#496=DIRECTION('center_axis',(0.,0.,-1.));
#497=DIRECTION('ref_axis',(-1.,0.,0.));
#498=DIRECTION('center_axis',(0.,0.,1.));
#499=DIRECTION('ref_axis',(-1.,0.,0.));
#500=DIRECTION('center_axis',(0.,0.,-1.));
#501=DIRECTION('ref_axis',(-1.,0.,0.));
#502=DIRECTION('center_axis',(0.,0.,-1.));
#503=DIRECTION('ref_axis',(-1.,0.,0.));
#504=DIRECTION('center_axis',(0.,0.,1.));
#505=DIRECTION('ref_axis',(-1.,0.,0.));
#506=DIRECTION('center_axis',(0.,0.,-1.));
#507=DIRECTION('ref_axis',(-1.,0.,0.));
#508=DIRECTION('center_axis',(0.,0.,-1.));
#509=DIRECTION('ref_axis',(-1.,0.,0.));
#510=DIRECTION('center_axis',(0.,0.,1.));
#511=DIRECTION('ref_axis',(-1.,0.,0.));
#512=DIRECTION('center_axis',(0.,0.,-1.));
#513=DIRECTION('ref_axis',(-1.,0.,0.));
#514=DIRECTION('center_axis',(-1.,-9.86864910777917E-017,0.));
#515=DIRECTION('ref_axis',(0.,1.,0.));
#516=DIRECTION('',(9.86864910777917E-017,-1.,0.));
#517=DIRECTION('',(0.,0.,-1.));
#518=DIRECTION('',(-9.86864910777917E-017,1.,0.));
#519=DIRECTION('',(0.,0.,-1.));
#520=DIRECTION('center_axis',(3.41607084500048E-016,-1.,0.));
#521=DIRECTION('ref_axis',(-1.,0.,0.));
#522=DIRECTION('',(1.,3.41607084500048E-016,0.));
#523=DIRECTION('',(-1.,-3.41607084500048E-016,0.));
#524=DIRECTION('',(0.,0.,-1.));
#525=DIRECTION('center_axis',(1.,1.97372982155583E-016,0.));
#526=DIRECTION('ref_axis',(3.5527136788005E-016,-1.,0.));
#527=DIRECTION('',(-1.97372982155583E-016,1.,0.));
#528=DIRECTION('',(1.97372982155583E-016,-1.,0.));
#529=DIRECTION('',(0.,0.,-1.));
#530=DIRECTION('center_axis',(-1.70803542250024E-016,1.,0.));
#531=DIRECTION('ref_axis',(1.,0.,0.));
#532=DIRECTION('',(-1.,-1.70803542250024E-016,0.));
#533=DIRECTION('',(1.,1.70803542250024E-016,0.));
#534=DIRECTION('center_axis',(0.,0.,1.));
#535=DIRECTION('ref_axis',(1.,0.,0.));
#536=DIRECTION('center_axis',(0.,0.,-1.));
#537=DIRECTION('ref_axis',(-1.,0.,0.));
#538=CARTESIAN_POINT('',(0.,0.,0.));
#539=CARTESIAN_POINT('Origin',(19.,19.,-5.));
#540=CARTESIAN_POINT('',(24.5,19.,-5.));
#541=CARTESIAN_POINT('Origin',(19.,19.,-5.));
#542=CARTESIAN_POINT('',(15.75,19.,-5.));
#543=CARTESIAN_POINT('Origin',(19.,19.,-5.));
#544=CARTESIAN_POINT('Origin',(19.,19.,-2.5));
#545=CARTESIAN_POINT('',(24.5,19.,0.));
#546=CARTESIAN_POINT('Origin',(19.,19.,0.));
#547=CARTESIAN_POINT('Origin',(19.,19.,-104.422219857653));
#548=CARTESIAN_POINT('',(15.75,19.,-10.));
#549=CARTESIAN_POINT('Origin',(19.,19.,-10.));
#550=CARTESIAN_POINT('Origin',(-19.,-19.,-5.));
#551=CARTESIAN_POINT('',(-13.5,-19.,-5.));
#552=CARTESIAN_POINT('Origin',(-19.,-19.,-5.));
#553=CARTESIAN_POINT('',(-22.25,-19.,-5.));
#554=CARTESIAN_POINT('Origin',(-19.,-19.,-5.));
#555=CARTESIAN_POINT('Origin',(-19.,-19.,-2.5));
#556=CARTESIAN_POINT('',(-13.5,-19.,0.));
#557=CARTESIAN_POINT('Origin',(-19.,-19.,0.));
#558=CARTESIAN_POINT('Origin',(-19.,-19.,-104.422219857653));
#559=CARTESIAN_POINT('',(-22.25,-19.,-10.));
#560=CARTESIAN_POINT('Origin',(-19.,-19.,-10.));
#561=CARTESIAN_POINT('Origin',(-19.,19.,-5.));
#562=CARTESIAN_POINT('',(-13.5,19.,-5.));
#563=CARTESIAN_POINT('Origin',(-19.,19.,-5.));
#564=CARTESIAN_POINT('',(-22.25,19.,-5.));
#565=CARTESIAN_POINT('Origin',(-19.,19.,-5.));
#566=CARTESIAN_POINT('Origin',(-19.,19.,-2.5));
#567=CARTESIAN_POINT('',(-13.5,19.,0.));
#568=CARTESIAN_POINT('Origin',(-19.,19.,0.));
#569=CARTESIAN_POINT('Origin',(-19.,19.,-104.422219857653));
#570=CARTESIAN_POINT('',(-22.25,19.,-10.));
#571=CARTESIAN_POINT('Origin',(-19.,19.,-10.));
#572=CARTESIAN_POINT('Origin',(19.,-19.,-5.));
#573=CARTESIAN_POINT('',(24.5,-19.,-5.));
#574=CARTESIAN_POINT('Origin',(19.,-19.,-5.));
#575=CARTESIAN_POINT('',(15.75,-19.,-5.));
#576=CARTESIAN_POINT('Origin',(19.,-19.,-5.));
#577=CARTESIAN_POINT('Origin',(19.,-19.,-2.5));
#578=CARTESIAN_POINT('',(24.5,-19.,0.));
#579=CARTESIAN_POINT('Origin',(19.,-19.,0.));
#580=CARTESIAN_POINT('Origin',(19.,-19.,-104.422219857653));
#581=CARTESIAN_POINT('',(15.75,-19.,-10.));
#582=CARTESIAN_POINT('Origin',(19.,-19.,-10.));
#583=CARTESIAN_POINT('Origin',(0.,0.,0.));
#584=CARTESIAN_POINT('',(17.5,2.14313189850787E-015,-10.));
#585=CARTESIAN_POINT('Origin',(0.,0.,-10.));
#586=CARTESIAN_POINT('',(17.5,2.14313189850787E-015,0.));
#587=CARTESIAN_POINT('Origin',(0.,0.,0.));
#588=CARTESIAN_POINT('Origin',(18.,-36.,0.));
#589=CARTESIAN_POINT('',(22.5,-36.,-10.));
#590=CARTESIAN_POINT('Origin',(18.,-36.,-10.));
#591=CARTESIAN_POINT('',(22.5,-36.,0.));
#592=CARTESIAN_POINT('Origin',(18.,-36.,0.));
#593=CARTESIAN_POINT('Origin',(18.,36.,0.));
#594=CARTESIAN_POINT('',(22.5,36.,-10.));
#595=CARTESIAN_POINT('Origin',(18.,36.,-10.));
#596=CARTESIAN_POINT('',(22.5,36.,0.));
#597=CARTESIAN_POINT('Origin',(18.,36.,0.));
#598=CARTESIAN_POINT('Origin',(-18.,36.,0.));
#599=CARTESIAN_POINT('',(-13.5,36.,-10.));
#600=CARTESIAN_POINT('Origin',(-18.,36.,-10.));
#601=CARTESIAN_POINT('',(-13.5,36.,0.));
#602=CARTESIAN_POINT('Origin',(-18.,36.,0.));
#603=CARTESIAN_POINT('Origin',(-18.,-36.,0.));
#604=CARTESIAN_POINT('',(-13.5,-36.,-10.));
#605=CARTESIAN_POINT('Origin',(-18.,-36.,-10.));
#606=CARTESIAN_POINT('',(-13.5,-36.,0.));
#607=CARTESIAN_POINT('Origin',(-18.,-36.,0.));
#608=CARTESIAN_POINT('Origin',(-26.,-45.,0.));
#609=CARTESIAN_POINT('',(-26.,45.,0.));
#610=CARTESIAN_POINT('',(-26.,-45.,0.));
#611=CARTESIAN_POINT('',(-26.,45.,0.));
#612=CARTESIAN_POINT('',(-26.,45.,-10.));
#613=CARTESIAN_POINT('',(-26.,45.,0.));
#614=CARTESIAN_POINT('',(-26.,-45.,-10.));
#615=CARTESIAN_POINT('',(-26.,45.,-10.));
#616=CARTESIAN_POINT('',(-26.,-45.,0.));
#617=CARTESIAN_POINT('Origin',(26.,-45.,0.));
#618=CARTESIAN_POINT('',(26.,-45.,0.));
#619=CARTESIAN_POINT('',(-26.,-45.,0.));
#620=CARTESIAN_POINT('',(26.,-45.,-10.));
#621=CARTESIAN_POINT('',(-26.,-45.,-10.));
#622=CARTESIAN_POINT('',(26.,-45.,0.));
#623=CARTESIAN_POINT('Origin',(26.,45.,0.));
#624=CARTESIAN_POINT('',(26.,45.,0.));
#625=CARTESIAN_POINT('',(26.,-45.,0.));
#626=CARTESIAN_POINT('',(26.,45.,-10.));
#627=CARTESIAN_POINT('',(26.,-45.,-10.));
#628=CARTESIAN_POINT('',(26.,45.,0.));
#629=CARTESIAN_POINT('Origin',(-26.,45.,0.));
#630=CARTESIAN_POINT('',(26.,45.,0.));
#631=CARTESIAN_POINT('',(26.,45.,-10.));
#632=CARTESIAN_POINT('Origin',(-1.8764332810566E-015,-9.38216640528301E-016,
0.));
#633=CARTESIAN_POINT('Origin',(0.,0.,-10.));
#634=UNCERTAINTY_MEASURE_WITH_UNIT(LENGTH_MEASURE(0.01),#638,
'DISTANCE_ACCURACY_VALUE',
'Maximum model space distance between geometric entities at asserted c
onnectivities');
#635=UNCERTAINTY_MEASURE_WITH_UNIT(LENGTH_MEASURE(1.E-006),#638,
'DISTANCE_ACCURACY_VALUE',
'Maximum model space distance between geometric entities at asserted c
onnectivities');
#636=(
GEOMETRIC_REPRESENTATION_CONTEXT(3)
GLOBAL_UNCERTAINTY_ASSIGNED_CONTEXT((#634))
GLOBAL_UNIT_ASSIGNED_CONTEXT((#638,#641,#639))
REPRESENTATION_CONTEXT('','3D')
);
#637=(
GEOMETRIC_REPRESENTATION_CONTEXT(3)
GLOBAL_UNCERTAINTY_ASSIGNED_CONTEXT((#635))
GLOBAL_UNIT_ASSIGNED_CONTEXT((#638,#641,#639))
REPRESENTATION_CONTEXT('','3D')
);
#638=(
LENGTH_UNIT()
NAMED_UNIT(*)
SI_UNIT(.MILLI.,.METRE.)
);
#639=(
NAMED_UNIT(*)
SI_UNIT($,.STERADIAN.)
SOLID_ANGLE_UNIT()
);
#640=DIMENSIONAL_EXPONENTS(0.,0.,0.,0.,0.,0.,0.);
#641=(
CONVERSION_BASED_UNIT('degree',#643)
NAMED_UNIT(#640)
PLANE_ANGLE_UNIT()
);
#642=(
NAMED_UNIT(*)
PLANE_ANGLE_UNIT()
SI_UNIT($,.RADIAN.)
);
#643=PLANE_ANGLE_MEASURE_WITH_UNIT(PLANE_ANGLE_MEASURE(0.01745329252),#642);
#644=SHAPE_DEFINITION_REPRESENTATION(#645,#646);
#645=PRODUCT_DEFINITION_SHAPE('',$,#648);
#646=SHAPE_REPRESENTATION('',(#376),#636);
#647=PRODUCT_DEFINITION_CONTEXT('part definition',#652,'design');
#648=PRODUCT_DEFINITION('1325_040_03F','1325_040_03F',#649,#647);
#649=PRODUCT_DEFINITION_FORMATION('',$,#654);
#650=PRODUCT_RELATED_PRODUCT_CATEGORY('1325_040_03F','1325_040_03F',(#654));
#651=APPLICATION_PROTOCOL_DEFINITION('international standard',
'automotive_design',2009,#652);
#652=APPLICATION_CONTEXT(
'Core Data for Automotive Mechanical Design Process');
#653=PRODUCT_CONTEXT('part definition',#652,'mechanical');
#654=PRODUCT('1325_040_03F','1325_040_03F',$,(#653));
#655=PRESENTATION_STYLE_ASSIGNMENT((#656));
#656=SURFACE_STYLE_USAGE(.BOTH.,#657);
#657=SURFACE_SIDE_STYLE($,(#658));
#658=SURFACE_STYLE_FILL_AREA(#659);
#659=FILL_AREA_STYLE($,(#660));
#660=FILL_AREA_STYLE_COLOUR($,#661);
#661=COLOUR_RGB('',0.749019607843137,0.749019607843137,0.749019607843137);
ENDSEC;
END-ISO-10303-21;
