ISO-10303-21;
HEADER;
/* Generated by software containing ST-Developer
 * from STEP Tools, Inc. (www.steptools.com) 
 */

FILE_DESCRIPTION(
/* description */ (''),
/* implementation_level */ '2;1');

FILE_NAME(
/* name */ 
'I:\\Area Tecnica\\Disegni\\VARIE-3D\\Componenti\\1325-1326\\1325_###_
17F\\1325_040_17F.stp',
/* time_stamp */ '2016-10-07T09:39:39+02:00',
/* author */ ('Maniean1'),
/* organization */ ('Pneumax S.p.A.'),
/* preprocessor_version */ 'ST-DEVELOPER v15.2',
/* originating_system */ 'Autodesk Inventor 2014',
/* authorisation */ '');

FILE_SCHEMA (('AUTOMOTIVE_DESIGN { 1 0 10303 214 3 1 1 }'));
ENDSEC;

DATA;
#10=MECHANICAL_DESIGN_GEOMETRIC_PRESENTATION_REPRESENTATION('',(#13),#285);
#11=SHAPE_REPRESENTATION_RELATIONSHIP('SRR','None',#294,#12);
#12=ADVANCED_BREP_SHAPE_REPRESENTATION($,(#164),#284);
#13=STYLED_ITEM('',(#303),#164);
#14=PLANE('',#174);
#15=PLANE('',#175);
#16=PLANE('',#176);
#17=PLANE('',#177);
#18=PLANE('',#178);
#19=PLANE('',#179);
#20=PLANE('',#181);
#21=PLANE('',#185);
#22=LINE('',#247,#32);
#23=LINE('',#251,#33);
#24=LINE('',#255,#34);
#25=LINE('',#259,#35);
#26=LINE('',#264,#36);
#27=LINE('',#265,#37);
#28=LINE('',#266,#38);
#29=LINE('',#270,#39);
#30=LINE('',#271,#40);
#31=LINE('',#272,#41);
#32=VECTOR('',#196,5.);
#33=VECTOR('',#199,5.);
#34=VECTOR('',#202,5.);
#35=VECTOR('',#205,5.);
#36=VECTOR('',#212,3.3166247903554);
#37=VECTOR('',#213,3.3166247903554);
#38=VECTOR('',#214,6.63324958071081);
#39=VECTOR('',#219,3.3166247903554);
#40=VECTOR('',#220,3.3166247903554);
#41=VECTOR('',#221,6.63324958071081);
#42=CYLINDRICAL_SURFACE('',#169,6.);
#43=CYLINDRICAL_SURFACE('',#183,5.);
#44=FACE_BOUND('',#59,.T.);
#45=FACE_BOUND('',#61,.T.);
#46=FACE_BOUND('',#70,.T.);
#47=FACE_OUTER_BOUND('',#58,.T.);
#48=FACE_OUTER_BOUND('',#60,.T.);
#49=FACE_OUTER_BOUND('',#62,.T.);
#50=FACE_OUTER_BOUND('',#63,.T.);
#51=FACE_OUTER_BOUND('',#64,.T.);
#52=FACE_OUTER_BOUND('',#65,.T.);
#53=FACE_OUTER_BOUND('',#66,.T.);
#54=FACE_OUTER_BOUND('',#67,.T.);
#55=FACE_OUTER_BOUND('',#68,.T.);
#56=FACE_OUTER_BOUND('',#69,.T.);
#57=FACE_OUTER_BOUND('',#71,.T.);
#58=EDGE_LOOP('',(#113));
#59=EDGE_LOOP('',(#114));
#60=EDGE_LOOP('',(#115,#116,#117,#118,#119,#120,#121,#122));
#61=EDGE_LOOP('',(#123));
#62=EDGE_LOOP('',(#124));
#63=EDGE_LOOP('',(#125,#126,#127,#128,#129));
#64=EDGE_LOOP('',(#130,#131));
#65=EDGE_LOOP('',(#132,#133,#134,#135,#136));
#66=EDGE_LOOP('',(#137,#138));
#67=EDGE_LOOP('',(#139,#140,#141,#142));
#68=EDGE_LOOP('',(#143));
#69=EDGE_LOOP('',(#144));
#70=EDGE_LOOP('',(#145,#146));
#71=EDGE_LOOP('',(#147,#148,#149,#150));
#72=CIRCLE('',#167,6.);
#73=CIRCLE('',#168,4.5);
#74=CIRCLE('',#170,6.);
#75=CIRCLE('',#171,6.);
#76=CIRCLE('',#172,6.);
#77=CIRCLE('',#173,6.);
#78=CIRCLE('',#180,5.);
#79=CIRCLE('',#182,5.);
#80=CIRCLE('',#184,5.);
#81=VERTEX_POINT('',#240);
#82=VERTEX_POINT('',#242);
#83=VERTEX_POINT('',#245);
#84=VERTEX_POINT('',#246);
#85=VERTEX_POINT('',#248);
#86=VERTEX_POINT('',#250);
#87=VERTEX_POINT('',#252);
#88=VERTEX_POINT('',#254);
#89=VERTEX_POINT('',#256);
#90=VERTEX_POINT('',#258);
#91=VERTEX_POINT('',#263);
#92=VERTEX_POINT('',#269);
#93=VERTEX_POINT('',#277);
#94=EDGE_CURVE('',#81,#81,#72,.T.);
#95=EDGE_CURVE('',#82,#82,#73,.T.);
#96=EDGE_CURVE('',#83,#84,#22,.T.);
#97=EDGE_CURVE('',#84,#85,#74,.T.);
#98=EDGE_CURVE('',#85,#86,#23,.T.);
#99=EDGE_CURVE('',#86,#87,#75,.T.);
#100=EDGE_CURVE('',#87,#88,#24,.T.);
#101=EDGE_CURVE('',#88,#89,#76,.T.);
#102=EDGE_CURVE('',#89,#90,#25,.T.);
#103=EDGE_CURVE('',#90,#83,#77,.T.);
#104=EDGE_CURVE('',#91,#89,#26,.T.);
#105=EDGE_CURVE('',#84,#91,#27,.T.);
#106=EDGE_CURVE('',#83,#90,#28,.T.);
#107=EDGE_CURVE('',#92,#85,#29,.T.);
#108=EDGE_CURVE('',#88,#92,#30,.T.);
#109=EDGE_CURVE('',#87,#86,#31,.T.);
#110=EDGE_CURVE('',#92,#91,#78,.T.);
#111=EDGE_CURVE('',#93,#93,#79,.T.);
#112=EDGE_CURVE('',#91,#92,#80,.T.);
#113=ORIENTED_EDGE('',*,*,#94,.T.);
#114=ORIENTED_EDGE('',*,*,#95,.T.);
#115=ORIENTED_EDGE('',*,*,#96,.T.);
#116=ORIENTED_EDGE('',*,*,#97,.T.);
#117=ORIENTED_EDGE('',*,*,#98,.T.);
#118=ORIENTED_EDGE('',*,*,#99,.T.);
#119=ORIENTED_EDGE('',*,*,#100,.T.);
#120=ORIENTED_EDGE('',*,*,#101,.T.);
#121=ORIENTED_EDGE('',*,*,#102,.T.);
#122=ORIENTED_EDGE('',*,*,#103,.T.);
#123=ORIENTED_EDGE('',*,*,#94,.F.);
#124=ORIENTED_EDGE('',*,*,#95,.F.);
#125=ORIENTED_EDGE('',*,*,#104,.F.);
#126=ORIENTED_EDGE('',*,*,#105,.F.);
#127=ORIENTED_EDGE('',*,*,#96,.F.);
#128=ORIENTED_EDGE('',*,*,#106,.T.);
#129=ORIENTED_EDGE('',*,*,#102,.F.);
#130=ORIENTED_EDGE('',*,*,#106,.F.);
#131=ORIENTED_EDGE('',*,*,#103,.F.);
#132=ORIENTED_EDGE('',*,*,#107,.F.);
#133=ORIENTED_EDGE('',*,*,#108,.F.);
#134=ORIENTED_EDGE('',*,*,#100,.F.);
#135=ORIENTED_EDGE('',*,*,#109,.T.);
#136=ORIENTED_EDGE('',*,*,#98,.F.);
#137=ORIENTED_EDGE('',*,*,#99,.F.);
#138=ORIENTED_EDGE('',*,*,#109,.F.);
#139=ORIENTED_EDGE('',*,*,#104,.T.);
#140=ORIENTED_EDGE('',*,*,#101,.F.);
#141=ORIENTED_EDGE('',*,*,#108,.T.);
#142=ORIENTED_EDGE('',*,*,#110,.T.);
#143=ORIENTED_EDGE('',*,*,#111,.F.);
#144=ORIENTED_EDGE('',*,*,#111,.T.);
#145=ORIENTED_EDGE('',*,*,#110,.F.);
#146=ORIENTED_EDGE('',*,*,#112,.F.);
#147=ORIENTED_EDGE('',*,*,#105,.T.);
#148=ORIENTED_EDGE('',*,*,#112,.T.);
#149=ORIENTED_EDGE('',*,*,#107,.T.);
#150=ORIENTED_EDGE('',*,*,#97,.F.);
#151=CONICAL_SURFACE('',#166,5.25,45.);
#152=ADVANCED_FACE('',(#47,#44),#151,.T.);
#153=ADVANCED_FACE('',(#48,#45),#42,.T.);
#154=ADVANCED_FACE('',(#49),#14,.T.);
#155=ADVANCED_FACE('',(#50),#15,.F.);
#156=ADVANCED_FACE('',(#51),#16,.T.);
#157=ADVANCED_FACE('',(#52),#17,.F.);
#158=ADVANCED_FACE('',(#53),#18,.F.);
#159=ADVANCED_FACE('',(#54),#19,.T.);
#160=ADVANCED_FACE('',(#55),#20,.T.);
#161=ADVANCED_FACE('',(#56,#46),#43,.T.);
#162=ADVANCED_FACE('',(#57),#21,.T.);
#163=CLOSED_SHELL('',(#152,#153,#154,#155,#156,#157,#158,#159,#160,#161,
#162));
#164=MANIFOLD_SOLID_BREP('Solido1',#163);
#165=AXIS2_PLACEMENT_3D('placement',#238,#186,#187);
#166=AXIS2_PLACEMENT_3D('',#239,#188,#189);
#167=AXIS2_PLACEMENT_3D('',#241,#190,#191);
#168=AXIS2_PLACEMENT_3D('',#243,#192,#193);
#169=AXIS2_PLACEMENT_3D('',#244,#194,#195);
#170=AXIS2_PLACEMENT_3D('',#249,#197,#198);
#171=AXIS2_PLACEMENT_3D('',#253,#200,#201);
#172=AXIS2_PLACEMENT_3D('',#257,#203,#204);
#173=AXIS2_PLACEMENT_3D('',#260,#206,#207);
#174=AXIS2_PLACEMENT_3D('',#261,#208,#209);
#175=AXIS2_PLACEMENT_3D('',#262,#210,#211);
#176=AXIS2_PLACEMENT_3D('',#267,#215,#216);
#177=AXIS2_PLACEMENT_3D('',#268,#217,#218);
#178=AXIS2_PLACEMENT_3D('',#273,#222,#223);
#179=AXIS2_PLACEMENT_3D('',#274,#224,#225);
#180=AXIS2_PLACEMENT_3D('',#275,#226,#227);
#181=AXIS2_PLACEMENT_3D('',#276,#228,#229);
#182=AXIS2_PLACEMENT_3D('',#278,#230,#231);
#183=AXIS2_PLACEMENT_3D('',#279,#232,#233);
#184=AXIS2_PLACEMENT_3D('',#280,#234,#235);
#185=AXIS2_PLACEMENT_3D('',#281,#236,#237);
#186=DIRECTION('axis',(0.,0.,1.));
#187=DIRECTION('refdir',(1.,0.,0.));
#188=DIRECTION('center_axis',(0.,-1.,0.));
#189=DIRECTION('ref_axis',(0.,0.,-1.));
#190=DIRECTION('center_axis',(0.,1.,0.));
#191=DIRECTION('ref_axis',(0.,0.,-1.));
#192=DIRECTION('center_axis',(0.,-1.,0.));
#193=DIRECTION('ref_axis',(0.,0.,-1.));
#194=DIRECTION('center_axis',(0.,1.,0.));
#195=DIRECTION('ref_axis',(0.,0.,1.));
#196=DIRECTION('',(0.,-1.,0.));
#197=DIRECTION('center_axis',(0.,1.,0.));
#198=DIRECTION('ref_axis',(1.,0.,0.));
#199=DIRECTION('',(0.,1.,0.));
#200=DIRECTION('center_axis',(0.,1.,0.));
#201=DIRECTION('ref_axis',(0.,0.,1.));
#202=DIRECTION('',(0.,-1.,0.));
#203=DIRECTION('center_axis',(0.,1.,0.));
#204=DIRECTION('ref_axis',(1.,0.,0.));
#205=DIRECTION('',(0.,1.,0.));
#206=DIRECTION('center_axis',(0.,1.,0.));
#207=DIRECTION('ref_axis',(0.,0.,1.));
#208=DIRECTION('center_axis',(0.,1.,0.));
#209=DIRECTION('ref_axis',(0.,0.,1.));
#210=DIRECTION('center_axis',(-1.,0.,1.38777878078145E-016));
#211=DIRECTION('ref_axis',(1.77635683940025E-016,0.,1.));
#212=DIRECTION('',(1.38777878078145E-016,0.,1.));
#213=DIRECTION('',(1.38777878078145E-016,0.,1.));
#214=DIRECTION('',(1.38777878078145E-016,0.,1.));
#215=DIRECTION('center_axis',(0.,-1.,0.));
#216=DIRECTION('ref_axis',(0.,0.,-1.));
#217=DIRECTION('center_axis',(1.,0.,1.38777878078145E-016));
#218=DIRECTION('ref_axis',(1.77635683940025E-016,0.,-1.));
#219=DIRECTION('',(1.38777878078145E-016,0.,-1.));
#220=DIRECTION('',(1.38777878078145E-016,0.,-1.));
#221=DIRECTION('',(1.38777878078145E-016,0.,-1.));
#222=DIRECTION('center_axis',(0.,1.,0.));
#223=DIRECTION('ref_axis',(0.,0.,1.));
#224=DIRECTION('center_axis',(0.,-1.,0.));
#225=DIRECTION('ref_axis',(0.,0.,-1.));
#226=DIRECTION('center_axis',(0.,1.,0.));
#227=DIRECTION('ref_axis',(1.,0.,0.));
#228=DIRECTION('center_axis',(0.,-1.,0.));
#229=DIRECTION('ref_axis',(0.,0.,-1.));
#230=DIRECTION('center_axis',(0.,1.,0.));
#231=DIRECTION('ref_axis',(1.,0.,0.));
#232=DIRECTION('center_axis',(0.,1.,0.));
#233=DIRECTION('ref_axis',(0.,0.,1.));
#234=DIRECTION('center_axis',(0.,1.,0.));
#235=DIRECTION('ref_axis',(1.,0.,0.));
#236=DIRECTION('center_axis',(0.,-1.,0.));
#237=DIRECTION('ref_axis',(0.,0.,-1.));
#238=CARTESIAN_POINT('',(0.,0.,0.));
#239=CARTESIAN_POINT('Origin',(0.,23.25,0.));
#240=CARTESIAN_POINT('',(7.34788079488412E-016,22.5,6.));
#241=CARTESIAN_POINT('Origin',(0.,22.5,0.));
#242=CARTESIAN_POINT('',(-5.51091059616309E-016,24.,4.5));
#243=CARTESIAN_POINT('Origin',(0.,24.,0.));
#244=CARTESIAN_POINT('Origin',(0.,12.,0.));
#245=CARTESIAN_POINT('',(5.,5.,-3.3166247903554));
#246=CARTESIAN_POINT('',(5.,0.,-3.3166247903554));
#247=CARTESIAN_POINT('',(5.,12.,-3.3166247903554));
#248=CARTESIAN_POINT('',(-5.,0.,-3.3166247903554));
#249=CARTESIAN_POINT('Origin',(0.,0.,0.));
#250=CARTESIAN_POINT('',(-5.,5.,-3.3166247903554));
#251=CARTESIAN_POINT('',(-5.,12.,-3.3166247903554));
#252=CARTESIAN_POINT('',(-5.,5.,3.3166247903554));
#253=CARTESIAN_POINT('Origin',(0.,5.,0.));
#254=CARTESIAN_POINT('',(-5.,0.,3.3166247903554));
#255=CARTESIAN_POINT('',(-5.,12.,3.3166247903554));
#256=CARTESIAN_POINT('',(5.,0.,3.3166247903554));
#257=CARTESIAN_POINT('Origin',(0.,0.,0.));
#258=CARTESIAN_POINT('',(5.,5.,3.3166247903554));
#259=CARTESIAN_POINT('',(5.,12.,3.3166247903554));
#260=CARTESIAN_POINT('Origin',(0.,5.,0.));
#261=CARTESIAN_POINT('Origin',(0.,24.,0.));
#262=CARTESIAN_POINT('Origin',(5.,0.,-3.3166247903554));
#263=CARTESIAN_POINT('',(5.,0.,-5.55111512312578E-016));
#264=CARTESIAN_POINT('',(5.,0.,1.3416876048223));
#265=CARTESIAN_POINT('',(5.,0.,1.3416876048223));
#266=CARTESIAN_POINT('',(5.,5.,6.));
#267=CARTESIAN_POINT('Origin',(5.29348582959939,5.,5.03050048656178E-016));
#268=CARTESIAN_POINT('Origin',(-5.,0.,3.3166247903554));
#269=CARTESIAN_POINT('',(-5.,0.,-5.55111512312578E-016));
#270=CARTESIAN_POINT('',(-5.,0.,4.6583123951777));
#271=CARTESIAN_POINT('',(-5.,0.,4.6583123951777));
#272=CARTESIAN_POINT('',(-5.,5.,-6.));
#273=CARTESIAN_POINT('Origin',(-5.29348582959939,5.,-7.43727634739863E-016));
#274=CARTESIAN_POINT('Origin',(0.,0.,6.));
#275=CARTESIAN_POINT('Origin',(0.,0.,0.));
#276=CARTESIAN_POINT('Origin',(0.,-16.,5.));
#277=CARTESIAN_POINT('',(0.,-16.,5.));
#278=CARTESIAN_POINT('Origin',(0.,-16.,0.));
#279=CARTESIAN_POINT('Origin',(0.,-8.,0.));
#280=CARTESIAN_POINT('Origin',(0.,0.,0.));
#281=CARTESIAN_POINT('Origin',(0.,0.,6.));
#282=UNCERTAINTY_MEASURE_WITH_UNIT(LENGTH_MEASURE(0.01),#286,
'DISTANCE_ACCURACY_VALUE',
'Maximum model space distance between geometric entities at asserted c
onnectivities');
#283=UNCERTAINTY_MEASURE_WITH_UNIT(LENGTH_MEASURE(1.E-006),#286,
'DISTANCE_ACCURACY_VALUE',
'Maximum model space distance between geometric entities at asserted c
onnectivities');
#284=(
GEOMETRIC_REPRESENTATION_CONTEXT(3)
GLOBAL_UNCERTAINTY_ASSIGNED_CONTEXT((#282))
GLOBAL_UNIT_ASSIGNED_CONTEXT((#286,#289,#287))
REPRESENTATION_CONTEXT('','3D')
);
#285=(
GEOMETRIC_REPRESENTATION_CONTEXT(3)
GLOBAL_UNCERTAINTY_ASSIGNED_CONTEXT((#283))
GLOBAL_UNIT_ASSIGNED_CONTEXT((#286,#289,#287))
REPRESENTATION_CONTEXT('','3D')
);
#286=(
LENGTH_UNIT()
NAMED_UNIT(*)
SI_UNIT(.MILLI.,.METRE.)
);
#287=(
NAMED_UNIT(*)
SI_UNIT($,.STERADIAN.)
SOLID_ANGLE_UNIT()
);
#288=DIMENSIONAL_EXPONENTS(0.,0.,0.,0.,0.,0.,0.);
#289=(
CONVERSION_BASED_UNIT('degree',#291)
NAMED_UNIT(#288)
PLANE_ANGLE_UNIT()
);
#290=(
NAMED_UNIT(*)
PLANE_ANGLE_UNIT()
SI_UNIT($,.RADIAN.)
);
#291=PLANE_ANGLE_MEASURE_WITH_UNIT(PLANE_ANGLE_MEASURE(0.01745329252),#290);
#292=SHAPE_DEFINITION_REPRESENTATION(#293,#294);
#293=PRODUCT_DEFINITION_SHAPE('',$,#296);
#294=SHAPE_REPRESENTATION('',(#165),#284);
#295=PRODUCT_DEFINITION_CONTEXT('part definition',#300,'design');
#296=PRODUCT_DEFINITION('1325_040_17F','1325_040_17F',#297,#295);
#297=PRODUCT_DEFINITION_FORMATION('',$,#302);
#298=PRODUCT_RELATED_PRODUCT_CATEGORY('1325_040_17F','1325_040_17F',(#302));
#299=APPLICATION_PROTOCOL_DEFINITION('international standard',
'automotive_design',2009,#300);
#300=APPLICATION_CONTEXT(
'Core Data for Automotive Mechanical Design Process');
#301=PRODUCT_CONTEXT('part definition',#300,'mechanical');
#302=PRODUCT('1325_040_17F','1325_040_17F',$,(#301));
#303=PRESENTATION_STYLE_ASSIGNMENT((#304));
#304=SURFACE_STYLE_USAGE(.BOTH.,#305);
#305=SURFACE_SIDE_STYLE($,(#306));
#306=SURFACE_STYLE_FILL_AREA(#307);
#307=FILL_AREA_STYLE($,(#308));
#308=FILL_AREA_STYLE_COLOUR($,#309);
#309=COLOUR_RGB('',0.749019607843137,0.749019607843137,0.749019607843137);
ENDSEC;
END-ISO-10303-21;
