ISO-10303-21;
HEADER;
/* Generated by software containing ST-Developer
 * from STEP Tools, Inc. (www.steptools.com) 
 */

FILE_DESCRIPTION(
/* description */ ('Piedino basso in lamiera (MS1) d.50'),
/* implementation_level */ '2;1');

FILE_NAME(
/* name */ 
'I:\\Area Tecnica\\Disegni\\VARIE-3D\\Componenti\\1325-1326\\1325_###_
05-1F\\1325_050_05-1F.stp',
/* time_stamp */ '2016-10-14T14:01:41+02:00',
/* author */ ('Maniean1'),
/* organization */ ('Pneumax S.p.A.'),
/* preprocessor_version */ 'ST-DEVELOPER v15.2',
/* originating_system */ 'Autodesk Inventor 2014',
/* authorisation */ '');

FILE_SCHEMA (('AUTOMOTIVE_DESIGN { 1 0 10303 214 3 1 1 }'));
ENDSEC;

DATA;
#10=MECHANICAL_DESIGN_GEOMETRIC_PRESENTATION_REPRESENTATION('',(#373,#367,
#366,#378,#361,#370,#374,#364,#379,#365,#376,#369,#368,#362,#363,#375,#377,
#371,#372,#380,#381),#671);
#11=SHAPE_REPRESENTATION_RELATIONSHIP('SRR','None',#680,#12);
#12=ADVANCED_BREP_SHAPE_REPRESENTATION($,(#403),#670);
#13=FACE_BOUND('',#56,.T.);
#14=FACE_BOUND('',#57,.T.);
#15=FACE_BOUND('',#59,.T.);
#16=FACE_BOUND('',#60,.T.);
#17=FACE_BOUND('',#61,.T.);
#18=FACE_BOUND('',#65,.T.);
#19=FACE_BOUND('',#66,.T.);
#20=FACE_BOUND('',#72,.T.);
#21=FACE_BOUND('',#74,.T.);
#22=FACE_BOUND('',#76,.T.);
#23=FACE_BOUND('',#78,.T.);
#24=FACE_BOUND('',#84,.T.);
#25=FACE_BOUND('',#85,.T.);
#26=PLANE('',#408);
#27=PLANE('',#417);
#28=PLANE('',#423);
#29=PLANE('',#427);
#30=PLANE('',#431);
#31=PLANE('',#443);
#32=PLANE('',#444);
#33=PLANE('',#445);
#34=PLANE('',#446);
#35=FACE_OUTER_BOUND('',#54,.T.);
#36=FACE_OUTER_BOUND('',#55,.T.);
#37=FACE_OUTER_BOUND('',#58,.T.);
#38=FACE_OUTER_BOUND('',#62,.T.);
#39=FACE_OUTER_BOUND('',#63,.T.);
#40=FACE_OUTER_BOUND('',#64,.T.);
#41=FACE_OUTER_BOUND('',#67,.T.);
#42=FACE_OUTER_BOUND('',#68,.T.);
#43=FACE_OUTER_BOUND('',#69,.T.);
#44=FACE_OUTER_BOUND('',#70,.T.);
#45=FACE_OUTER_BOUND('',#71,.T.);
#46=FACE_OUTER_BOUND('',#73,.T.);
#47=FACE_OUTER_BOUND('',#75,.T.);
#48=FACE_OUTER_BOUND('',#77,.T.);
#49=FACE_OUTER_BOUND('',#79,.T.);
#50=FACE_OUTER_BOUND('',#80,.T.);
#51=FACE_OUTER_BOUND('',#81,.T.);
#52=FACE_OUTER_BOUND('',#82,.T.);
#53=FACE_OUTER_BOUND('',#83,.T.);
#54=EDGE_LOOP('',(#250,#251,#252,#253));
#55=EDGE_LOOP('',(#254,#255,#256,#257,#258,#259,#260,#261));
#56=EDGE_LOOP('',(#262));
#57=EDGE_LOOP('',(#263));
#58=EDGE_LOOP('',(#264,#265,#266,#267));
#59=EDGE_LOOP('',(#268));
#60=EDGE_LOOP('',(#269));
#61=EDGE_LOOP('',(#270,#271,#272,#273,#274,#275,#276,#277));
#62=EDGE_LOOP('',(#278,#279,#280,#281,#282,#283,#284,#285));
#63=EDGE_LOOP('',(#286,#287,#288,#289));
#64=EDGE_LOOP('',(#290,#291,#292,#293,#294,#295));
#65=EDGE_LOOP('',(#296));
#66=EDGE_LOOP('',(#297));
#67=EDGE_LOOP('',(#298,#299,#300,#301,#302,#303,#304,#305));
#68=EDGE_LOOP('',(#306,#307,#308,#309));
#69=EDGE_LOOP('',(#310,#311,#312,#313));
#70=EDGE_LOOP('',(#314,#315,#316,#317));
#71=EDGE_LOOP('',(#318));
#72=EDGE_LOOP('',(#319));
#73=EDGE_LOOP('',(#320));
#74=EDGE_LOOP('',(#321));
#75=EDGE_LOOP('',(#322));
#76=EDGE_LOOP('',(#323));
#77=EDGE_LOOP('',(#324));
#78=EDGE_LOOP('',(#325));
#79=EDGE_LOOP('',(#326,#327,#328,#329));
#80=EDGE_LOOP('',(#330,#331,#332,#333));
#81=EDGE_LOOP('',(#334,#335,#336,#337));
#82=EDGE_LOOP('',(#338,#339,#340,#341));
#83=EDGE_LOOP('',(#342,#343,#344,#345,#346,#347));
#84=EDGE_LOOP('',(#348));
#85=EDGE_LOOP('',(#349));
#86=LINE('',#567,#114);
#87=LINE('',#570,#115);
#88=LINE('',#573,#116);
#89=LINE('',#577,#117);
#90=LINE('',#581,#118);
#91=LINE('',#584,#119);
#92=LINE('',#594,#120);
#93=LINE('',#597,#121);
#94=LINE('',#604,#122);
#95=LINE('',#608,#123);
#96=LINE('',#612,#124);
#97=LINE('',#615,#125);
#98=LINE('',#618,#126);
#99=LINE('',#620,#127);
#100=LINE('',#621,#128);
#101=LINE('',#622,#129);
#102=LINE('',#628,#130);
#103=LINE('',#631,#131);
#104=LINE('',#635,#132);
#105=LINE('',#636,#133);
#106=LINE('',#642,#134);
#107=LINE('',#643,#135);
#108=LINE('',#645,#136);
#109=LINE('',#647,#137);
#110=LINE('',#651,#138);
#111=LINE('',#661,#139);
#112=LINE('',#662,#140);
#113=LINE('',#666,#141);
#114=VECTOR('',#453,65.);
#115=VECTOR('',#456,65.);
#116=VECTOR('',#459,28.);
#117=VECTOR('',#462,12.1394289005083);
#118=VECTOR('',#465,12.1394289005083);
#119=VECTOR('',#468,28.);
#120=VECTOR('',#477,65.);
#121=VECTOR('',#480,65.);
#122=VECTOR('',#487,28.);
#123=VECTOR('',#490,12.1394289005083);
#124=VECTOR('',#493,12.1394289005083);
#125=VECTOR('',#496,28.);
#126=VECTOR('',#499,37.);
#127=VECTOR('',#500,3.5);
#128=VECTOR('',#501,37.);
#129=VECTOR('',#502,3.5);
#130=VECTOR('',#507,3.5);
#131=VECTOR('',#510,3.5);
#132=VECTOR('',#515,60.);
#133=VECTOR('',#516,37.);
#134=VECTOR('',#523,3.5);
#135=VECTOR('',#524,37.);
#136=VECTOR('',#527,3.5);
#137=VECTOR('',#530,3.5);
#138=VECTOR('',#535,3.5);
#139=VECTOR('',#550,3.5);
#140=VECTOR('',#551,3.5);
#141=VECTOR('',#558,60.);
#142=CIRCLE('',#406,2.);
#143=CIRCLE('',#407,2.);
#144=CIRCLE('',#409,2.5);
#145=CIRCLE('',#410,20.);
#146=CIRCLE('',#411,2.5);
#147=CIRCLE('',#412,4.5);
#148=CIRCLE('',#413,4.5);
#149=CIRCLE('',#415,5.5);
#150=CIRCLE('',#416,5.5);
#151=CIRCLE('',#418,4.5);
#152=CIRCLE('',#419,4.5);
#153=CIRCLE('',#420,2.5);
#154=CIRCLE('',#421,20.);
#155=CIRCLE('',#422,2.5);
#156=CIRCLE('',#425,2.5);
#157=CIRCLE('',#426,2.5);
#158=CIRCLE('',#428,2.5);
#159=CIRCLE('',#429,4.5);
#160=CIRCLE('',#430,4.5);
#161=CIRCLE('',#435,2.5);
#162=CIRCLE('',#437,4.5);
#163=CIRCLE('',#439,4.5);
#164=VERTEX_POINT('',#563);
#165=VERTEX_POINT('',#564);
#166=VERTEX_POINT('',#566);
#167=VERTEX_POINT('',#568);
#168=VERTEX_POINT('',#572);
#169=VERTEX_POINT('',#574);
#170=VERTEX_POINT('',#576);
#171=VERTEX_POINT('',#578);
#172=VERTEX_POINT('',#580);
#173=VERTEX_POINT('',#582);
#174=VERTEX_POINT('',#585);
#175=VERTEX_POINT('',#587);
#176=VERTEX_POINT('',#590);
#177=VERTEX_POINT('',#591);
#178=VERTEX_POINT('',#593);
#179=VERTEX_POINT('',#595);
#180=VERTEX_POINT('',#599);
#181=VERTEX_POINT('',#601);
#182=VERTEX_POINT('',#603);
#183=VERTEX_POINT('',#605);
#184=VERTEX_POINT('',#607);
#185=VERTEX_POINT('',#609);
#186=VERTEX_POINT('',#611);
#187=VERTEX_POINT('',#613);
#188=VERTEX_POINT('',#617);
#189=VERTEX_POINT('',#619);
#190=VERTEX_POINT('',#624);
#191=VERTEX_POINT('',#625);
#192=VERTEX_POINT('',#627);
#193=VERTEX_POINT('',#629);
#194=VERTEX_POINT('',#633);
#195=VERTEX_POINT('',#637);
#196=VERTEX_POINT('',#639);
#197=VERTEX_POINT('',#649);
#198=VERTEX_POINT('',#653);
#199=VERTEX_POINT('',#656);
#200=EDGE_CURVE('',#164,#165,#142,.T.);
#201=EDGE_CURVE('',#165,#166,#86,.T.);
#202=EDGE_CURVE('',#166,#167,#143,.T.);
#203=EDGE_CURVE('',#167,#164,#87,.T.);
#204=EDGE_CURVE('',#165,#168,#88,.T.);
#205=EDGE_CURVE('',#169,#168,#144,.T.);
#206=EDGE_CURVE('',#169,#170,#89,.T.);
#207=EDGE_CURVE('',#170,#171,#145,.T.);
#208=EDGE_CURVE('',#171,#172,#90,.T.);
#209=EDGE_CURVE('',#173,#172,#146,.T.);
#210=EDGE_CURVE('',#173,#166,#91,.T.);
#211=EDGE_CURVE('',#174,#174,#147,.T.);
#212=EDGE_CURVE('',#175,#175,#148,.T.);
#213=EDGE_CURVE('',#176,#177,#149,.T.);
#214=EDGE_CURVE('',#177,#178,#92,.T.);
#215=EDGE_CURVE('',#178,#179,#150,.T.);
#216=EDGE_CURVE('',#179,#176,#93,.T.);
#217=EDGE_CURVE('',#180,#180,#151,.T.);
#218=EDGE_CURVE('',#181,#181,#152,.T.);
#219=EDGE_CURVE('',#177,#182,#94,.T.);
#220=EDGE_CURVE('',#183,#182,#153,.T.);
#221=EDGE_CURVE('',#183,#184,#95,.T.);
#222=EDGE_CURVE('',#184,#185,#154,.T.);
#223=EDGE_CURVE('',#185,#186,#96,.T.);
#224=EDGE_CURVE('',#187,#186,#155,.T.);
#225=EDGE_CURVE('',#187,#178,#97,.T.);
#226=EDGE_CURVE('',#188,#176,#98,.T.);
#227=EDGE_CURVE('',#189,#188,#99,.T.);
#228=EDGE_CURVE('',#167,#189,#100,.T.);
#229=EDGE_CURVE('',#182,#173,#101,.T.);
#230=EDGE_CURVE('',#190,#191,#156,.T.);
#231=EDGE_CURVE('',#191,#192,#102,.T.);
#232=EDGE_CURVE('',#192,#193,#157,.T.);
#233=EDGE_CURVE('',#193,#190,#103,.T.);
#234=EDGE_CURVE('',#194,#189,#158,.T.);
#235=EDGE_CURVE('',#191,#194,#104,.T.);
#236=EDGE_CURVE('',#190,#164,#105,.T.);
#237=EDGE_CURVE('',#195,#195,#159,.T.);
#238=EDGE_CURVE('',#196,#196,#160,.T.);
#239=EDGE_CURVE('',#168,#187,#106,.T.);
#240=EDGE_CURVE('',#179,#193,#107,.T.);
#241=EDGE_CURVE('',#186,#169,#108,.T.);
#242=EDGE_CURVE('',#172,#183,#109,.T.);
#243=EDGE_CURVE('',#188,#197,#161,.T.);
#244=EDGE_CURVE('',#197,#194,#110,.T.);
#245=EDGE_CURVE('',#198,#198,#162,.T.);
#246=EDGE_CURVE('',#199,#199,#163,.T.);
#247=EDGE_CURVE('',#185,#170,#111,.T.);
#248=EDGE_CURVE('',#171,#184,#112,.T.);
#249=EDGE_CURVE('',#192,#197,#113,.T.);
#250=ORIENTED_EDGE('',*,*,#200,.T.);
#251=ORIENTED_EDGE('',*,*,#201,.T.);
#252=ORIENTED_EDGE('',*,*,#202,.T.);
#253=ORIENTED_EDGE('',*,*,#203,.T.);
#254=ORIENTED_EDGE('',*,*,#201,.F.);
#255=ORIENTED_EDGE('',*,*,#204,.T.);
#256=ORIENTED_EDGE('',*,*,#205,.F.);
#257=ORIENTED_EDGE('',*,*,#206,.T.);
#258=ORIENTED_EDGE('',*,*,#207,.T.);
#259=ORIENTED_EDGE('',*,*,#208,.T.);
#260=ORIENTED_EDGE('',*,*,#209,.F.);
#261=ORIENTED_EDGE('',*,*,#210,.T.);
#262=ORIENTED_EDGE('',*,*,#211,.T.);
#263=ORIENTED_EDGE('',*,*,#212,.T.);
#264=ORIENTED_EDGE('',*,*,#213,.T.);
#265=ORIENTED_EDGE('',*,*,#214,.T.);
#266=ORIENTED_EDGE('',*,*,#215,.T.);
#267=ORIENTED_EDGE('',*,*,#216,.T.);
#268=ORIENTED_EDGE('',*,*,#217,.T.);
#269=ORIENTED_EDGE('',*,*,#218,.T.);
#270=ORIENTED_EDGE('',*,*,#214,.F.);
#271=ORIENTED_EDGE('',*,*,#219,.T.);
#272=ORIENTED_EDGE('',*,*,#220,.F.);
#273=ORIENTED_EDGE('',*,*,#221,.T.);
#274=ORIENTED_EDGE('',*,*,#222,.T.);
#275=ORIENTED_EDGE('',*,*,#223,.T.);
#276=ORIENTED_EDGE('',*,*,#224,.F.);
#277=ORIENTED_EDGE('',*,*,#225,.T.);
#278=ORIENTED_EDGE('',*,*,#213,.F.);
#279=ORIENTED_EDGE('',*,*,#226,.F.);
#280=ORIENTED_EDGE('',*,*,#227,.F.);
#281=ORIENTED_EDGE('',*,*,#228,.F.);
#282=ORIENTED_EDGE('',*,*,#202,.F.);
#283=ORIENTED_EDGE('',*,*,#210,.F.);
#284=ORIENTED_EDGE('',*,*,#229,.F.);
#285=ORIENTED_EDGE('',*,*,#219,.F.);
#286=ORIENTED_EDGE('',*,*,#230,.T.);
#287=ORIENTED_EDGE('',*,*,#231,.T.);
#288=ORIENTED_EDGE('',*,*,#232,.T.);
#289=ORIENTED_EDGE('',*,*,#233,.T.);
#290=ORIENTED_EDGE('',*,*,#203,.F.);
#291=ORIENTED_EDGE('',*,*,#228,.T.);
#292=ORIENTED_EDGE('',*,*,#234,.F.);
#293=ORIENTED_EDGE('',*,*,#235,.F.);
#294=ORIENTED_EDGE('',*,*,#230,.F.);
#295=ORIENTED_EDGE('',*,*,#236,.T.);
#296=ORIENTED_EDGE('',*,*,#237,.T.);
#297=ORIENTED_EDGE('',*,*,#238,.T.);
#298=ORIENTED_EDGE('',*,*,#215,.F.);
#299=ORIENTED_EDGE('',*,*,#225,.F.);
#300=ORIENTED_EDGE('',*,*,#239,.F.);
#301=ORIENTED_EDGE('',*,*,#204,.F.);
#302=ORIENTED_EDGE('',*,*,#200,.F.);
#303=ORIENTED_EDGE('',*,*,#236,.F.);
#304=ORIENTED_EDGE('',*,*,#233,.F.);
#305=ORIENTED_EDGE('',*,*,#240,.F.);
#306=ORIENTED_EDGE('',*,*,#224,.T.);
#307=ORIENTED_EDGE('',*,*,#241,.T.);
#308=ORIENTED_EDGE('',*,*,#205,.T.);
#309=ORIENTED_EDGE('',*,*,#239,.T.);
#310=ORIENTED_EDGE('',*,*,#209,.T.);
#311=ORIENTED_EDGE('',*,*,#242,.T.);
#312=ORIENTED_EDGE('',*,*,#220,.T.);
#313=ORIENTED_EDGE('',*,*,#229,.T.);
#314=ORIENTED_EDGE('',*,*,#243,.T.);
#315=ORIENTED_EDGE('',*,*,#244,.T.);
#316=ORIENTED_EDGE('',*,*,#234,.T.);
#317=ORIENTED_EDGE('',*,*,#227,.T.);
#318=ORIENTED_EDGE('',*,*,#245,.F.);
#319=ORIENTED_EDGE('',*,*,#237,.F.);
#320=ORIENTED_EDGE('',*,*,#246,.F.);
#321=ORIENTED_EDGE('',*,*,#238,.F.);
#322=ORIENTED_EDGE('',*,*,#218,.F.);
#323=ORIENTED_EDGE('',*,*,#212,.F.);
#324=ORIENTED_EDGE('',*,*,#217,.F.);
#325=ORIENTED_EDGE('',*,*,#211,.F.);
#326=ORIENTED_EDGE('',*,*,#247,.F.);
#327=ORIENTED_EDGE('',*,*,#222,.F.);
#328=ORIENTED_EDGE('',*,*,#248,.F.);
#329=ORIENTED_EDGE('',*,*,#207,.F.);
#330=ORIENTED_EDGE('',*,*,#242,.F.);
#331=ORIENTED_EDGE('',*,*,#208,.F.);
#332=ORIENTED_EDGE('',*,*,#248,.T.);
#333=ORIENTED_EDGE('',*,*,#221,.F.);
#334=ORIENTED_EDGE('',*,*,#241,.F.);
#335=ORIENTED_EDGE('',*,*,#223,.F.);
#336=ORIENTED_EDGE('',*,*,#247,.T.);
#337=ORIENTED_EDGE('',*,*,#206,.F.);
#338=ORIENTED_EDGE('',*,*,#231,.F.);
#339=ORIENTED_EDGE('',*,*,#235,.T.);
#340=ORIENTED_EDGE('',*,*,#244,.F.);
#341=ORIENTED_EDGE('',*,*,#249,.F.);
#342=ORIENTED_EDGE('',*,*,#216,.F.);
#343=ORIENTED_EDGE('',*,*,#240,.T.);
#344=ORIENTED_EDGE('',*,*,#232,.F.);
#345=ORIENTED_EDGE('',*,*,#249,.T.);
#346=ORIENTED_EDGE('',*,*,#243,.F.);
#347=ORIENTED_EDGE('',*,*,#226,.T.);
#348=ORIENTED_EDGE('',*,*,#245,.T.);
#349=ORIENTED_EDGE('',*,*,#246,.T.);
#350=CYLINDRICAL_SURFACE('',#405,2.);
#351=CYLINDRICAL_SURFACE('',#414,5.5);
#352=CYLINDRICAL_SURFACE('',#424,2.5);
#353=CYLINDRICAL_SURFACE('',#432,2.5);
#354=CYLINDRICAL_SURFACE('',#433,2.5);
#355=CYLINDRICAL_SURFACE('',#434,2.5);
#356=CYLINDRICAL_SURFACE('',#436,4.5);
#357=CYLINDRICAL_SURFACE('',#438,4.5);
#358=CYLINDRICAL_SURFACE('',#440,4.5);
#359=CYLINDRICAL_SURFACE('',#441,4.5);
#360=CYLINDRICAL_SURFACE('',#442,20.);
#361=STYLED_ITEM('',(#689),#382);
#362=STYLED_ITEM('',(#689),#383);
#363=STYLED_ITEM('',(#689),#384);
#364=STYLED_ITEM('',(#689),#385);
#365=STYLED_ITEM('',(#689),#386);
#366=STYLED_ITEM('',(#689),#387);
#367=STYLED_ITEM('',(#689),#388);
#368=STYLED_ITEM('',(#689),#389);
#369=STYLED_ITEM('',(#689),#390);
#370=STYLED_ITEM('',(#689),#391);
#371=STYLED_ITEM('',(#689),#392);
#372=STYLED_ITEM('',(#689),#393);
#373=STYLED_ITEM('',(#689),#394);
#374=STYLED_ITEM('',(#689),#395);
#375=STYLED_ITEM('',(#689),#396);
#376=STYLED_ITEM('',(#689),#397);
#377=STYLED_ITEM('',(#689),#398);
#378=STYLED_ITEM('',(#689),#399);
#379=STYLED_ITEM('',(#689),#400);
#380=STYLED_ITEM('',(#689),#401);
#381=STYLED_ITEM('',(#689),#403);
#382=ADVANCED_FACE('',(#35),#350,.F.);
#383=ADVANCED_FACE('',(#36,#13,#14),#26,.T.);
#384=ADVANCED_FACE('',(#37),#351,.T.);
#385=ADVANCED_FACE('',(#15,#16,#17),#27,.T.);
#386=ADVANCED_FACE('',(#38),#28,.T.);
#387=ADVANCED_FACE('',(#39),#352,.T.);
#388=ADVANCED_FACE('',(#40,#18,#19),#29,.T.);
#389=ADVANCED_FACE('',(#41),#30,.F.);
#390=ADVANCED_FACE('',(#42),#353,.T.);
#391=ADVANCED_FACE('',(#43),#354,.T.);
#392=ADVANCED_FACE('',(#44),#355,.T.);
#393=ADVANCED_FACE('',(#45,#20),#356,.F.);
#394=ADVANCED_FACE('',(#46,#21),#357,.F.);
#395=ADVANCED_FACE('',(#47,#22),#358,.F.);
#396=ADVANCED_FACE('',(#48,#23),#359,.F.);
#397=ADVANCED_FACE('',(#49),#360,.F.);
#398=ADVANCED_FACE('',(#50),#31,.T.);
#399=ADVANCED_FACE('',(#51),#32,.T.);
#400=ADVANCED_FACE('',(#52),#33,.T.);
#401=ADVANCED_FACE('',(#53,#24,#25),#34,.T.);
#402=CLOSED_SHELL('',(#382,#383,#384,#385,#386,#387,#388,#389,#390,#391,
#392,#393,#394,#395,#396,#397,#398,#399,#400,#401));
#403=MANIFOLD_SOLID_BREP('Solido1',#402);
#404=AXIS2_PLACEMENT_3D('placement',#561,#447,#448);
#405=AXIS2_PLACEMENT_3D('',#562,#449,#450);
#406=AXIS2_PLACEMENT_3D('',#565,#451,#452);
#407=AXIS2_PLACEMENT_3D('',#569,#454,#455);
#408=AXIS2_PLACEMENT_3D('',#571,#457,#458);
#409=AXIS2_PLACEMENT_3D('',#575,#460,#461);
#410=AXIS2_PLACEMENT_3D('',#579,#463,#464);
#411=AXIS2_PLACEMENT_3D('',#583,#466,#467);
#412=AXIS2_PLACEMENT_3D('',#586,#469,#470);
#413=AXIS2_PLACEMENT_3D('',#588,#471,#472);
#414=AXIS2_PLACEMENT_3D('',#589,#473,#474);
#415=AXIS2_PLACEMENT_3D('',#592,#475,#476);
#416=AXIS2_PLACEMENT_3D('',#596,#478,#479);
#417=AXIS2_PLACEMENT_3D('',#598,#481,#482);
#418=AXIS2_PLACEMENT_3D('',#600,#483,#484);
#419=AXIS2_PLACEMENT_3D('',#602,#485,#486);
#420=AXIS2_PLACEMENT_3D('',#606,#488,#489);
#421=AXIS2_PLACEMENT_3D('',#610,#491,#492);
#422=AXIS2_PLACEMENT_3D('',#614,#494,#495);
#423=AXIS2_PLACEMENT_3D('',#616,#497,#498);
#424=AXIS2_PLACEMENT_3D('',#623,#503,#504);
#425=AXIS2_PLACEMENT_3D('',#626,#505,#506);
#426=AXIS2_PLACEMENT_3D('',#630,#508,#509);
#427=AXIS2_PLACEMENT_3D('',#632,#511,#512);
#428=AXIS2_PLACEMENT_3D('',#634,#513,#514);
#429=AXIS2_PLACEMENT_3D('',#638,#517,#518);
#430=AXIS2_PLACEMENT_3D('',#640,#519,#520);
#431=AXIS2_PLACEMENT_3D('',#641,#521,#522);
#432=AXIS2_PLACEMENT_3D('',#644,#525,#526);
#433=AXIS2_PLACEMENT_3D('',#646,#528,#529);
#434=AXIS2_PLACEMENT_3D('',#648,#531,#532);
#435=AXIS2_PLACEMENT_3D('',#650,#533,#534);
#436=AXIS2_PLACEMENT_3D('',#652,#536,#537);
#437=AXIS2_PLACEMENT_3D('',#654,#538,#539);
#438=AXIS2_PLACEMENT_3D('',#655,#540,#541);
#439=AXIS2_PLACEMENT_3D('',#657,#542,#543);
#440=AXIS2_PLACEMENT_3D('',#658,#544,#545);
#441=AXIS2_PLACEMENT_3D('',#659,#546,#547);
#442=AXIS2_PLACEMENT_3D('',#660,#548,#549);
#443=AXIS2_PLACEMENT_3D('',#663,#552,#553);
#444=AXIS2_PLACEMENT_3D('',#664,#554,#555);
#445=AXIS2_PLACEMENT_3D('',#665,#556,#557);
#446=AXIS2_PLACEMENT_3D('',#667,#559,#560);
#447=DIRECTION('axis',(0.,0.,1.));
#448=DIRECTION('refdir',(1.,0.,0.));
#449=DIRECTION('center_axis',(0.,0.,1.));
#450=DIRECTION('ref_axis',(-0.707106781186548,-0.707106781186547,0.));
#451=DIRECTION('center_axis',(0.,0.,-1.));
#452=DIRECTION('ref_axis',(-0.707106781186548,-0.707106781186547,0.));
#453=DIRECTION('',(0.,0.,1.));
#454=DIRECTION('center_axis',(0.,0.,1.));
#455=DIRECTION('ref_axis',(-0.707106781186548,-0.707106781186547,0.));
#456=DIRECTION('',(0.,0.,-1.));
#457=DIRECTION('center_axis',(1.,3.41607084500048E-017,0.));
#458=DIRECTION('ref_axis',(0.,0.,-1.));
#459=DIRECTION('',(-3.41607084500048E-017,1.,0.));
#460=DIRECTION('center_axis',(-1.,-3.41607084500048E-017,0.));
#461=DIRECTION('ref_axis',(6.2803698347351E-016,0.707106781186547,-0.707106781186547));
#462=DIRECTION('',(0.,0.,1.));
#463=DIRECTION('center_axis',(-1.,-3.41607084500048E-017,0.));
#464=DIRECTION('ref_axis',(0.,0.,-1.));
#465=DIRECTION('',(0.,0.,1.));
#466=DIRECTION('center_axis',(-1.,-3.41607084500048E-017,0.));
#467=DIRECTION('ref_axis',(6.2803698347351E-016,0.707106781186547,0.707106781186547));
#468=DIRECTION('',(3.41607084500048E-017,-1.,0.));
#469=DIRECTION('center_axis',(-1.,-3.41607084500048E-017,0.));
#470=DIRECTION('ref_axis',(0.,0.,-1.));
#471=DIRECTION('center_axis',(-1.,-3.41607084500048E-017,0.));
#472=DIRECTION('ref_axis',(0.,0.,-1.));
#473=DIRECTION('center_axis',(0.,0.,1.));
#474=DIRECTION('ref_axis',(-0.707106781186547,-0.707106781186548,0.));
#475=DIRECTION('center_axis',(0.,0.,-1.));
#476=DIRECTION('ref_axis',(-0.707106781186547,-0.707106781186548,0.));
#477=DIRECTION('',(0.,0.,-1.));
#478=DIRECTION('center_axis',(0.,0.,1.));
#479=DIRECTION('ref_axis',(-0.707106781186547,-0.707106781186548,0.));
#480=DIRECTION('',(0.,0.,1.));
#481=DIRECTION('center_axis',(-1.,-1.2335811384724E-016,0.));
#482=DIRECTION('ref_axis',(0.,0.,1.));
#483=DIRECTION('center_axis',(1.,1.2335811384724E-016,0.));
#484=DIRECTION('ref_axis',(0.,0.,-1.));
#485=DIRECTION('center_axis',(1.,1.2335811384724E-016,0.));
#486=DIRECTION('ref_axis',(0.,0.,-1.));
#487=DIRECTION('',(-1.2335811384724E-016,1.,0.));
#488=DIRECTION('center_axis',(1.,1.2335811384724E-016,0.));
#489=DIRECTION('ref_axis',(6.2803698347351E-016,0.707106781186547,0.707106781186547));
#490=DIRECTION('',(0.,0.,-1.));
#491=DIRECTION('center_axis',(1.,1.2335811384724E-016,0.));
#492=DIRECTION('ref_axis',(0.,0.,-1.));
#493=DIRECTION('',(0.,0.,-1.));
#494=DIRECTION('center_axis',(1.,1.2335811384724E-016,0.));
#495=DIRECTION('ref_axis',(6.2803698347351E-016,0.707106781186547,-0.707106781186547));
#496=DIRECTION('',(1.2335811384724E-016,-1.,0.));
#497=DIRECTION('center_axis',(0.,0.,1.));
#498=DIRECTION('ref_axis',(1.,0.,0.));
#499=DIRECTION('',(-1.,0.,0.));
#500=DIRECTION('',(0.,-1.,0.));
#501=DIRECTION('',(1.,1.07009448156642E-016,0.));
#502=DIRECTION('',(1.,-1.26882631385732E-015,0.));
#503=DIRECTION('center_axis',(0.,1.,0.));
#504=DIRECTION('ref_axis',(0.707106781186547,0.,-0.707106781186547));
#505=DIRECTION('center_axis',(1.07009448156642E-016,-1.,0.));
#506=DIRECTION('ref_axis',(0.707106781186547,0.,-0.707106781186547));
#507=DIRECTION('',(0.,-1.,0.));
#508=DIRECTION('center_axis',(0.,1.,0.));
#509=DIRECTION('ref_axis',(0.707106781186547,0.,-0.707106781186547));
#510=DIRECTION('',(0.,1.,0.));
#511=DIRECTION('center_axis',(-1.07009448156642E-016,1.,0.));
#512=DIRECTION('ref_axis',(0.,0.,1.));
#513=DIRECTION('center_axis',(1.07009448156642E-016,-1.,0.));
#514=DIRECTION('ref_axis',(0.707106781186547,0.,0.707106781186547));
#515=DIRECTION('',(0.,0.,1.));
#516=DIRECTION('',(-1.,-1.07009448156642E-016,0.));
#517=DIRECTION('center_axis',(1.07009448156642E-016,-1.,0.));
#518=DIRECTION('ref_axis',(1.,1.07009448156642E-016,0.));
#519=DIRECTION('center_axis',(1.07009448156642E-016,-1.,0.));
#520=DIRECTION('ref_axis',(1.,1.07009448156642E-016,0.));
#521=DIRECTION('center_axis',(0.,0.,1.));
#522=DIRECTION('ref_axis',(1.,0.,0.));
#523=DIRECTION('',(-1.,1.26882631385732E-015,0.));
#524=DIRECTION('',(1.,0.,0.));
#525=DIRECTION('center_axis',(-1.,1.26882631385732E-015,0.));
#526=DIRECTION('ref_axis',(6.2803698347351E-016,0.707106781186547,-0.707106781186547));
#527=DIRECTION('',(1.,-1.26882631385732E-015,0.));
#528=DIRECTION('center_axis',(1.,-1.26882631385732E-015,0.));
#529=DIRECTION('ref_axis',(6.2803698347351E-016,0.707106781186547,0.707106781186547));
#530=DIRECTION('',(-1.,1.26882631385732E-015,0.));
#531=DIRECTION('center_axis',(0.,-1.,0.));
#532=DIRECTION('ref_axis',(0.707106781186547,0.,0.707106781186547));
#533=DIRECTION('center_axis',(0.,1.,0.));
#534=DIRECTION('ref_axis',(0.707106781186547,0.,0.707106781186547));
#535=DIRECTION('',(0.,1.,0.));
#536=DIRECTION('center_axis',(-1.07009448156642E-016,1.,0.));
#537=DIRECTION('ref_axis',(1.,1.07009448156642E-016,0.));
#538=DIRECTION('center_axis',(0.,1.,0.));
#539=DIRECTION('ref_axis',(1.,1.07009448156642E-016,0.));
#540=DIRECTION('center_axis',(-1.07009448156642E-016,1.,0.));
#541=DIRECTION('ref_axis',(1.,1.07009448156642E-016,0.));
#542=DIRECTION('center_axis',(0.,1.,0.));
#543=DIRECTION('ref_axis',(1.,1.07009448156642E-016,0.));
#544=DIRECTION('center_axis',(1.,3.41607084500048E-017,0.));
#545=DIRECTION('ref_axis',(0.,0.,-1.));
#546=DIRECTION('center_axis',(1.,3.41607084500048E-017,0.));
#547=DIRECTION('ref_axis',(0.,0.,-1.));
#548=DIRECTION('center_axis',(1.,3.41607084500048E-017,0.));
#549=DIRECTION('ref_axis',(0.,0.,-1.));
#550=DIRECTION('',(1.,3.41607084500048E-017,0.));
#551=DIRECTION('',(-1.,-3.41607084500048E-017,0.));
#552=DIRECTION('center_axis',(1.26882631385732E-015,1.,0.));
#553=DIRECTION('ref_axis',(0.,0.,1.));
#554=DIRECTION('center_axis',(1.26882631385732E-015,1.,0.));
#555=DIRECTION('ref_axis',(0.,0.,1.));
#556=DIRECTION('center_axis',(1.,0.,0.));
#557=DIRECTION('ref_axis',(0.,0.,-1.));
#558=DIRECTION('',(0.,0.,1.));
#559=DIRECTION('center_axis',(0.,-1.,0.));
#560=DIRECTION('ref_axis',(0.,0.,-1.));
#561=CARTESIAN_POINT('',(0.,0.,0.));
#562=CARTESIAN_POINT('Origin',(5.5,5.5,0.));
#563=CARTESIAN_POINT('',(5.5,3.5,-32.5));
#564=CARTESIAN_POINT('',(3.5,5.5,-32.5));
#565=CARTESIAN_POINT('Origin',(5.5,5.5,-32.5));
#566=CARTESIAN_POINT('',(3.5,5.5,32.5));
#567=CARTESIAN_POINT('',(3.5,5.5,0.));
#568=CARTESIAN_POINT('',(5.5,3.5,32.5));
#569=CARTESIAN_POINT('Origin',(5.5,5.5,32.5));
#570=CARTESIAN_POINT('',(5.5,3.5,0.));
#571=CARTESIAN_POINT('Origin',(3.5,36.,0.));
#572=CARTESIAN_POINT('',(3.5,33.5,-32.5));
#573=CARTESIAN_POINT('',(3.5,3.5,-32.5));
#574=CARTESIAN_POINT('',(3.5,36.,-30.));
#575=CARTESIAN_POINT('Origin',(3.5,33.5,-30.));
#576=CARTESIAN_POINT('',(3.5,36.,-17.8605710994918));
#577=CARTESIAN_POINT('',(3.5,36.,0.));
#578=CARTESIAN_POINT('',(3.5,36.,17.8605710994918));
#579=CARTESIAN_POINT('Origin',(3.5,45.,0.));
#580=CARTESIAN_POINT('',(3.5,36.,30.));
#581=CARTESIAN_POINT('',(3.5,36.,0.));
#582=CARTESIAN_POINT('',(3.5,33.5,32.5));
#583=CARTESIAN_POINT('Origin',(3.5,33.5,30.));
#584=CARTESIAN_POINT('',(3.5,3.5,32.5));
#585=CARTESIAN_POINT('',(3.5,21.75,-27.75));
#586=CARTESIAN_POINT('Origin',(3.5,21.75,-23.25));
#587=CARTESIAN_POINT('',(3.5,21.75,18.75));
#588=CARTESIAN_POINT('Origin',(3.5,21.75,23.25));
#589=CARTESIAN_POINT('Origin',(5.5,5.5,0.));
#590=CARTESIAN_POINT('',(5.5,0.,32.5));
#591=CARTESIAN_POINT('',(4.31753398465339E-016,5.5,32.5));
#592=CARTESIAN_POINT('Origin',(5.5,5.5,32.5));
#593=CARTESIAN_POINT('',(4.31753398465339E-016,5.5,-32.5));
#594=CARTESIAN_POINT('',(0.,5.5,0.));
#595=CARTESIAN_POINT('',(5.5,0.,-32.5));
#596=CARTESIAN_POINT('Origin',(5.5,5.5,-32.5));
#597=CARTESIAN_POINT('',(5.5,0.,0.));
#598=CARTESIAN_POINT('Origin',(1.11022302462516E-015,0.,0.));
#599=CARTESIAN_POINT('',(6.79815536723446E-032,21.75,-18.75));
#600=CARTESIAN_POINT('Origin',(0.,21.75,-23.25));
#601=CARTESIAN_POINT('',(6.79815536723446E-032,21.75,27.75));
#602=CARTESIAN_POINT('Origin',(0.,21.75,23.25));
#603=CARTESIAN_POINT('',(-3.02227378925737E-015,33.5,32.5));
#604=CARTESIAN_POINT('',(-3.33066907387547E-015,36.,32.5));
#605=CARTESIAN_POINT('',(-3.33066907387547E-015,36.,30.));
#606=CARTESIAN_POINT('Origin',(4.32986979603811E-014,33.5,30.));
#607=CARTESIAN_POINT('',(0.,36.,17.8605710994918));
#608=CARTESIAN_POINT('',(-3.33066907387547E-015,36.,0.));
#609=CARTESIAN_POINT('',(0.,36.,-17.8605710994918));
#610=CARTESIAN_POINT('Origin',(0.,45.,0.));
#611=CARTESIAN_POINT('',(-3.33066907387547E-015,36.,-30.));
#612=CARTESIAN_POINT('',(-3.33066907387547E-015,36.,0.));
#613=CARTESIAN_POINT('',(-3.02227378925737E-015,33.5,-32.5));
#614=CARTESIAN_POINT('Origin',(4.32986979603811E-014,33.5,-30.));
#615=CARTESIAN_POINT('',(-3.33066907387547E-015,36.,-32.5));
#616=CARTESIAN_POINT('Origin',(14.1743827160494,9.67438271604938,32.5));
#617=CARTESIAN_POINT('',(42.5,0.,32.5));
#618=CARTESIAN_POINT('',(1.11022302462516E-015,0.,32.5));
#619=CARTESIAN_POINT('',(42.5,3.5,32.5));
#620=CARTESIAN_POINT('',(42.5,6.58719135802469,32.5));
#621=CARTESIAN_POINT('',(45.,3.5,32.5));
#622=CARTESIAN_POINT('',(7.0871913580247,33.5,32.5));
#623=CARTESIAN_POINT('Origin',(42.5,6.58719135802469,-30.));
#624=CARTESIAN_POINT('',(42.5,3.5,-32.5));
#625=CARTESIAN_POINT('',(45.,3.5,-30.));
#626=CARTESIAN_POINT('Origin',(42.5,3.5,-30.));
#627=CARTESIAN_POINT('',(45.,0.,-30.));
#628=CARTESIAN_POINT('',(45.,6.58719135802469,-30.));
#629=CARTESIAN_POINT('',(42.5,0.,-32.5));
#630=CARTESIAN_POINT('Origin',(42.5,0.,-30.));
#631=CARTESIAN_POINT('',(42.5,6.58719135802469,-32.5));
#632=CARTESIAN_POINT('Origin',(3.5,3.5,0.));
#633=CARTESIAN_POINT('',(45.,3.5,30.));
#634=CARTESIAN_POINT('Origin',(42.5,3.5,30.));
#635=CARTESIAN_POINT('',(45.,3.5,0.));
#636=CARTESIAN_POINT('',(45.,3.5,-32.5));
#637=CARTESIAN_POINT('',(36.5,3.5,22.5));
#638=CARTESIAN_POINT('Origin',(32.,3.5,22.5));
#639=CARTESIAN_POINT('',(36.5,3.5,-22.5));
#640=CARTESIAN_POINT('Origin',(32.,3.5,-22.5));
#641=CARTESIAN_POINT('Origin',(14.1743827160494,9.67438271604938,-32.5));
#642=CARTESIAN_POINT('',(7.0871913580247,33.5,-32.5));
#643=CARTESIAN_POINT('',(1.11022302462516E-015,0.,-32.5));
#644=CARTESIAN_POINT('Origin',(7.0871913580247,33.5,-30.));
#645=CARTESIAN_POINT('',(7.08719135802471,36.,-30.));
#646=CARTESIAN_POINT('Origin',(7.0871913580247,33.5,30.));
#647=CARTESIAN_POINT('',(7.08719135802471,36.,30.));
#648=CARTESIAN_POINT('Origin',(42.5,6.58719135802469,30.));
#649=CARTESIAN_POINT('',(45.,0.,30.));
#650=CARTESIAN_POINT('Origin',(42.5,0.,30.));
#651=CARTESIAN_POINT('',(45.,6.58719135802469,30.));
#652=CARTESIAN_POINT('Origin',(32.,-83.367715521936,22.5));
#653=CARTESIAN_POINT('',(27.5,-4.81542516704887E-016,22.5));
#654=CARTESIAN_POINT('Origin',(32.,0.,22.5));
#655=CARTESIAN_POINT('Origin',(32.,-83.367715521936,-22.5));
#656=CARTESIAN_POINT('',(27.5,-4.81542516704887E-016,-22.5));
#657=CARTESIAN_POINT('Origin',(32.,0.,-22.5));
#658=CARTESIAN_POINT('Origin',(-83.367715521936,21.75,23.25));
#659=CARTESIAN_POINT('Origin',(-83.367715521936,21.75,-23.25));
#660=CARTESIAN_POINT('Origin',(-87.4670269933013,45.,0.));
#661=CARTESIAN_POINT('',(-87.4670269933013,36.0000000000001,-17.8605710994918));
#662=CARTESIAN_POINT('',(-87.4670269933013,36.0000000000001,17.8605710994918));
#663=CARTESIAN_POINT('Origin',(-3.33066907387547E-015,36.,0.));
#664=CARTESIAN_POINT('Origin',(-3.33066907387547E-015,36.,0.));
#665=CARTESIAN_POINT('Origin',(45.,3.5,0.));
#666=CARTESIAN_POINT('',(45.,0.,0.));
#667=CARTESIAN_POINT('Origin',(45.,0.,0.));
#668=UNCERTAINTY_MEASURE_WITH_UNIT(LENGTH_MEASURE(0.01),#672,
'DISTANCE_ACCURACY_VALUE',
'Maximum model space distance between geometric entities at asserted c
onnectivities');
#669=UNCERTAINTY_MEASURE_WITH_UNIT(LENGTH_MEASURE(1.E-006),#672,
'DISTANCE_ACCURACY_VALUE',
'Maximum model space distance between geometric entities at asserted c
onnectivities');
#670=(
GEOMETRIC_REPRESENTATION_CONTEXT(3)
GLOBAL_UNCERTAINTY_ASSIGNED_CONTEXT((#668))
GLOBAL_UNIT_ASSIGNED_CONTEXT((#672,#675,#673))
REPRESENTATION_CONTEXT('','3D')
);
#671=(
GEOMETRIC_REPRESENTATION_CONTEXT(3)
GLOBAL_UNCERTAINTY_ASSIGNED_CONTEXT((#669))
GLOBAL_UNIT_ASSIGNED_CONTEXT((#672,#675,#673))
REPRESENTATION_CONTEXT('','3D')
);
#672=(
LENGTH_UNIT()
NAMED_UNIT(*)
SI_UNIT(.MILLI.,.METRE.)
);
#673=(
NAMED_UNIT(*)
SI_UNIT($,.STERADIAN.)
SOLID_ANGLE_UNIT()
);
#674=DIMENSIONAL_EXPONENTS(0.,0.,0.,0.,0.,0.,0.);
#675=(
CONVERSION_BASED_UNIT('degree',#677)
NAMED_UNIT(#674)
PLANE_ANGLE_UNIT()
);
#676=(
NAMED_UNIT(*)
PLANE_ANGLE_UNIT()
SI_UNIT($,.RADIAN.)
);
#677=PLANE_ANGLE_MEASURE_WITH_UNIT(PLANE_ANGLE_MEASURE(0.01745329252),#676);
#678=SHAPE_DEFINITION_REPRESENTATION(#679,#680);
#679=PRODUCT_DEFINITION_SHAPE('',$,#682);
#680=SHAPE_REPRESENTATION('',(#404),#670);
#681=PRODUCT_DEFINITION_CONTEXT('part definition',#686,'design');
#682=PRODUCT_DEFINITION('1325_050_05-1F','1325_050_05-1F',#683,#681);
#683=PRODUCT_DEFINITION_FORMATION('',$,#688);
#684=PRODUCT_RELATED_PRODUCT_CATEGORY('1325_050_05-1F','1325_050_05-1F',
(#688));
#685=APPLICATION_PROTOCOL_DEFINITION('international standard',
'automotive_design',2009,#686);
#686=APPLICATION_CONTEXT(
'Core Data for Automotive Mechanical Design Process');
#687=PRODUCT_CONTEXT('part definition',#686,'mechanical');
#688=PRODUCT('1325_050_05-1F','1325_050_05-1F',$,(#687));
#689=PRESENTATION_STYLE_ASSIGNMENT((#690));
#690=SURFACE_STYLE_USAGE(.BOTH.,#691);
#691=SURFACE_SIDE_STYLE($,(#692));
#692=SURFACE_STYLE_FILL_AREA(#693);
#693=FILL_AREA_STYLE($,(#694));
#694=FILL_AREA_STYLE_COLOUR($,#695);
#695=COLOUR_RGB('',0.705882352941177,0.705882352941177,0.705882352941177);
ENDSEC;
END-ISO-10303-21;
