ISO-10303-21;
HEADER;
/* Generated by software containing ST-Developer
 * from STEP Tools, Inc. (www.steptools.com) 
 */

FILE_DESCRIPTION(
/* description */ (''),
/* implementation_level */ '2;1');

FILE_NAME(
/* name */ 
'I:\\Area Tecnica\\Disegni\\VARIE-3D\\Componenti\\1325-1326\\1325_###_
17F\\1325_063_17F.stp',
/* time_stamp */ '2016-10-07T09:39:47+02:00',
/* author */ ('Maniean1'),
/* organization */ ('Pneumax S.p.A.'),
/* preprocessor_version */ 'ST-DEVELOPER v15.2',
/* originating_system */ 'Autodesk Inventor 2014',
/* authorisation */ '');

FILE_SCHEMA (('AUTOMOTIVE_DESIGN { 1 0 10303 214 3 1 1 }'));
ENDSEC;

DATA;
#10=MECHANICAL_DESIGN_GEOMETRIC_PRESENTATION_REPRESENTATION('',(#13),#255);
#11=SHAPE_REPRESENTATION_RELATIONSHIP('SRR','None',#264,#12);
#12=ADVANCED_BREP_SHAPE_REPRESENTATION($,(#147),#254);
#13=STYLED_ITEM('',(#273),#147);
#14=PLANE('',#157);
#15=PLANE('',#158);
#16=PLANE('',#159);
#17=PLANE('',#160);
#18=PLANE('',#161);
#19=PLANE('',#162);
#20=PLANE('',#164);
#21=LINE('',#222,#29);
#22=LINE('',#226,#30);
#23=LINE('',#230,#31);
#24=LINE('',#234,#32);
#25=LINE('',#238,#33);
#26=LINE('',#239,#34);
#27=LINE('',#242,#35);
#28=LINE('',#243,#36);
#29=VECTOR('',#177,5.);
#30=VECTOR('',#180,5.);
#31=VECTOR('',#183,5.);
#32=VECTOR('',#186,5.);
#33=VECTOR('',#193,9.32737905308882);
#34=VECTOR('',#194,9.32737905308882);
#35=VECTOR('',#199,9.32737905308882);
#36=VECTOR('',#200,9.32737905308882);
#37=CYLINDRICAL_SURFACE('',#152,8.);
#38=CYLINDRICAL_SURFACE('',#166,6.);
#39=FACE_BOUND('',#54,.T.);
#40=FACE_BOUND('',#56,.T.);
#41=FACE_BOUND('',#62,.T.);
#42=FACE_BOUND('',#63,.T.);
#43=FACE_BOUND('',#66,.T.);
#44=FACE_OUTER_BOUND('',#53,.T.);
#45=FACE_OUTER_BOUND('',#55,.T.);
#46=FACE_OUTER_BOUND('',#57,.T.);
#47=FACE_OUTER_BOUND('',#58,.T.);
#48=FACE_OUTER_BOUND('',#59,.T.);
#49=FACE_OUTER_BOUND('',#60,.T.);
#50=FACE_OUTER_BOUND('',#61,.T.);
#51=FACE_OUTER_BOUND('',#64,.T.);
#52=FACE_OUTER_BOUND('',#65,.T.);
#53=EDGE_LOOP('',(#103));
#54=EDGE_LOOP('',(#104));
#55=EDGE_LOOP('',(#105,#106,#107,#108,#109,#110,#111,#112));
#56=EDGE_LOOP('',(#113));
#57=EDGE_LOOP('',(#114));
#58=EDGE_LOOP('',(#115,#116,#117,#118));
#59=EDGE_LOOP('',(#119,#120));
#60=EDGE_LOOP('',(#121,#122,#123,#124));
#61=EDGE_LOOP('',(#125,#126));
#62=EDGE_LOOP('',(#127));
#63=EDGE_LOOP('',(#128,#129,#130,#131));
#64=EDGE_LOOP('',(#132));
#65=EDGE_LOOP('',(#133));
#66=EDGE_LOOP('',(#134));
#67=CIRCLE('',#150,8.);
#68=CIRCLE('',#151,6.5);
#69=CIRCLE('',#153,8.);
#70=CIRCLE('',#154,8.);
#71=CIRCLE('',#155,8.);
#72=CIRCLE('',#156,8.);
#73=CIRCLE('',#163,6.);
#74=CIRCLE('',#165,6.);
#75=VERTEX_POINT('',#215);
#76=VERTEX_POINT('',#217);
#77=VERTEX_POINT('',#220);
#78=VERTEX_POINT('',#221);
#79=VERTEX_POINT('',#223);
#80=VERTEX_POINT('',#225);
#81=VERTEX_POINT('',#227);
#82=VERTEX_POINT('',#229);
#83=VERTEX_POINT('',#231);
#84=VERTEX_POINT('',#233);
#85=VERTEX_POINT('',#246);
#86=VERTEX_POINT('',#249);
#87=EDGE_CURVE('',#75,#75,#67,.T.);
#88=EDGE_CURVE('',#76,#76,#68,.T.);
#89=EDGE_CURVE('',#77,#78,#21,.T.);
#90=EDGE_CURVE('',#78,#79,#69,.T.);
#91=EDGE_CURVE('',#79,#80,#22,.T.);
#92=EDGE_CURVE('',#80,#81,#70,.T.);
#93=EDGE_CURVE('',#81,#82,#23,.T.);
#94=EDGE_CURVE('',#82,#83,#71,.T.);
#95=EDGE_CURVE('',#83,#84,#24,.T.);
#96=EDGE_CURVE('',#84,#77,#72,.T.);
#97=EDGE_CURVE('',#78,#83,#25,.T.);
#98=EDGE_CURVE('',#77,#84,#26,.T.);
#99=EDGE_CURVE('',#82,#79,#27,.T.);
#100=EDGE_CURVE('',#81,#80,#28,.T.);
#101=EDGE_CURVE('',#85,#85,#73,.T.);
#102=EDGE_CURVE('',#86,#86,#74,.T.);
#103=ORIENTED_EDGE('',*,*,#87,.T.);
#104=ORIENTED_EDGE('',*,*,#88,.T.);
#105=ORIENTED_EDGE('',*,*,#89,.T.);
#106=ORIENTED_EDGE('',*,*,#90,.T.);
#107=ORIENTED_EDGE('',*,*,#91,.T.);
#108=ORIENTED_EDGE('',*,*,#92,.T.);
#109=ORIENTED_EDGE('',*,*,#93,.T.);
#110=ORIENTED_EDGE('',*,*,#94,.T.);
#111=ORIENTED_EDGE('',*,*,#95,.T.);
#112=ORIENTED_EDGE('',*,*,#96,.T.);
#113=ORIENTED_EDGE('',*,*,#87,.F.);
#114=ORIENTED_EDGE('',*,*,#88,.F.);
#115=ORIENTED_EDGE('',*,*,#97,.F.);
#116=ORIENTED_EDGE('',*,*,#89,.F.);
#117=ORIENTED_EDGE('',*,*,#98,.T.);
#118=ORIENTED_EDGE('',*,*,#95,.F.);
#119=ORIENTED_EDGE('',*,*,#98,.F.);
#120=ORIENTED_EDGE('',*,*,#96,.F.);
#121=ORIENTED_EDGE('',*,*,#99,.F.);
#122=ORIENTED_EDGE('',*,*,#93,.F.);
#123=ORIENTED_EDGE('',*,*,#100,.T.);
#124=ORIENTED_EDGE('',*,*,#91,.F.);
#125=ORIENTED_EDGE('',*,*,#92,.F.);
#126=ORIENTED_EDGE('',*,*,#100,.F.);
#127=ORIENTED_EDGE('',*,*,#101,.T.);
#128=ORIENTED_EDGE('',*,*,#97,.T.);
#129=ORIENTED_EDGE('',*,*,#94,.F.);
#130=ORIENTED_EDGE('',*,*,#99,.T.);
#131=ORIENTED_EDGE('',*,*,#90,.F.);
#132=ORIENTED_EDGE('',*,*,#102,.F.);
#133=ORIENTED_EDGE('',*,*,#102,.T.);
#134=ORIENTED_EDGE('',*,*,#101,.F.);
#135=CONICAL_SURFACE('',#149,7.25,45.);
#136=ADVANCED_FACE('',(#44,#39),#135,.T.);
#137=ADVANCED_FACE('',(#45,#40),#37,.T.);
#138=ADVANCED_FACE('',(#46),#14,.T.);
#139=ADVANCED_FACE('',(#47),#15,.F.);
#140=ADVANCED_FACE('',(#48),#16,.T.);
#141=ADVANCED_FACE('',(#49),#17,.F.);
#142=ADVANCED_FACE('',(#50),#18,.F.);
#143=ADVANCED_FACE('',(#41,#42),#19,.T.);
#144=ADVANCED_FACE('',(#51),#20,.T.);
#145=ADVANCED_FACE('',(#52,#43),#38,.T.);
#146=CLOSED_SHELL('',(#136,#137,#138,#139,#140,#141,#142,#143,#144,#145));
#147=MANIFOLD_SOLID_BREP('Solido1',#146);
#148=AXIS2_PLACEMENT_3D('placement',#213,#167,#168);
#149=AXIS2_PLACEMENT_3D('',#214,#169,#170);
#150=AXIS2_PLACEMENT_3D('',#216,#171,#172);
#151=AXIS2_PLACEMENT_3D('',#218,#173,#174);
#152=AXIS2_PLACEMENT_3D('',#219,#175,#176);
#153=AXIS2_PLACEMENT_3D('',#224,#178,#179);
#154=AXIS2_PLACEMENT_3D('',#228,#181,#182);
#155=AXIS2_PLACEMENT_3D('',#232,#184,#185);
#156=AXIS2_PLACEMENT_3D('',#235,#187,#188);
#157=AXIS2_PLACEMENT_3D('',#236,#189,#190);
#158=AXIS2_PLACEMENT_3D('',#237,#191,#192);
#159=AXIS2_PLACEMENT_3D('',#240,#195,#196);
#160=AXIS2_PLACEMENT_3D('',#241,#197,#198);
#161=AXIS2_PLACEMENT_3D('',#244,#201,#202);
#162=AXIS2_PLACEMENT_3D('',#245,#203,#204);
#163=AXIS2_PLACEMENT_3D('',#247,#205,#206);
#164=AXIS2_PLACEMENT_3D('',#248,#207,#208);
#165=AXIS2_PLACEMENT_3D('',#250,#209,#210);
#166=AXIS2_PLACEMENT_3D('',#251,#211,#212);
#167=DIRECTION('axis',(0.,0.,1.));
#168=DIRECTION('refdir',(1.,0.,0.));
#169=DIRECTION('center_axis',(0.,-1.,0.));
#170=DIRECTION('ref_axis',(0.,0.,-1.));
#171=DIRECTION('center_axis',(0.,1.,0.));
#172=DIRECTION('ref_axis',(0.,0.,-1.));
#173=DIRECTION('center_axis',(0.,-1.,0.));
#174=DIRECTION('ref_axis',(0.,0.,-1.));
#175=DIRECTION('center_axis',(0.,1.,0.));
#176=DIRECTION('ref_axis',(0.,0.,1.));
#177=DIRECTION('',(0.,-1.,0.));
#178=DIRECTION('center_axis',(0.,1.,0.));
#179=DIRECTION('ref_axis',(1.,0.,0.));
#180=DIRECTION('',(0.,1.,0.));
#181=DIRECTION('center_axis',(0.,1.,0.));
#182=DIRECTION('ref_axis',(0.,0.,1.));
#183=DIRECTION('',(0.,-1.,0.));
#184=DIRECTION('center_axis',(0.,1.,0.));
#185=DIRECTION('ref_axis',(1.,0.,0.));
#186=DIRECTION('',(0.,1.,0.));
#187=DIRECTION('center_axis',(0.,1.,0.));
#188=DIRECTION('ref_axis',(0.,0.,1.));
#189=DIRECTION('center_axis',(0.,1.,0.));
#190=DIRECTION('ref_axis',(0.,0.,1.));
#191=DIRECTION('center_axis',(-1.,0.,1.38777878078145E-016));
#192=DIRECTION('ref_axis',(1.77635683940025E-016,0.,1.));
#193=DIRECTION('',(1.38777878078145E-016,0.,1.));
#194=DIRECTION('',(1.38777878078145E-016,0.,1.));
#195=DIRECTION('center_axis',(0.,-1.,0.));
#196=DIRECTION('ref_axis',(0.,0.,-1.));
#197=DIRECTION('center_axis',(1.,0.,1.38777878078145E-016));
#198=DIRECTION('ref_axis',(1.77635683940025E-016,0.,-1.));
#199=DIRECTION('',(1.38777878078145E-016,0.,-1.));
#200=DIRECTION('',(1.38777878078145E-016,0.,-1.));
#201=DIRECTION('center_axis',(0.,1.,0.));
#202=DIRECTION('ref_axis',(0.,0.,1.));
#203=DIRECTION('center_axis',(0.,-1.,0.));
#204=DIRECTION('ref_axis',(0.,0.,-1.));
#205=DIRECTION('center_axis',(0.,1.,0.));
#206=DIRECTION('ref_axis',(1.,0.,0.));
#207=DIRECTION('center_axis',(0.,-1.,0.));
#208=DIRECTION('ref_axis',(0.,0.,-1.));
#209=DIRECTION('center_axis',(0.,1.,0.));
#210=DIRECTION('ref_axis',(1.,0.,0.));
#211=DIRECTION('center_axis',(0.,1.,0.));
#212=DIRECTION('ref_axis',(0.,0.,1.));
#213=CARTESIAN_POINT('',(0.,0.,0.));
#214=CARTESIAN_POINT('Origin',(0.,31.25,0.));
#215=CARTESIAN_POINT('',(9.79717439317883E-016,30.5,8.));
#216=CARTESIAN_POINT('Origin',(0.,30.5,0.));
#217=CARTESIAN_POINT('',(-7.9602041944578E-016,32.,6.5));
#218=CARTESIAN_POINT('Origin',(0.,32.,0.));
#219=CARTESIAN_POINT('Origin',(0.,16.,0.));
#220=CARTESIAN_POINT('',(6.5,5.,-4.66368952654441));
#221=CARTESIAN_POINT('',(6.5,0.,-4.66368952654441));
#222=CARTESIAN_POINT('',(6.5,16.,-4.66368952654441));
#223=CARTESIAN_POINT('',(-6.5,0.,-4.66368952654441));
#224=CARTESIAN_POINT('Origin',(0.,0.,0.));
#225=CARTESIAN_POINT('',(-6.5,5.,-4.66368952654441));
#226=CARTESIAN_POINT('',(-6.5,16.,-4.66368952654441));
#227=CARTESIAN_POINT('',(-6.5,5.,4.66368952654441));
#228=CARTESIAN_POINT('Origin',(0.,5.,0.));
#229=CARTESIAN_POINT('',(-6.5,0.,4.66368952654441));
#230=CARTESIAN_POINT('',(-6.5,16.,4.66368952654441));
#231=CARTESIAN_POINT('',(6.5,0.,4.66368952654441));
#232=CARTESIAN_POINT('Origin',(0.,0.,0.));
#233=CARTESIAN_POINT('',(6.5,5.,4.66368952654441));
#234=CARTESIAN_POINT('',(6.5,16.,4.66368952654441));
#235=CARTESIAN_POINT('Origin',(0.,5.,0.));
#236=CARTESIAN_POINT('Origin',(0.,32.,0.));
#237=CARTESIAN_POINT('Origin',(6.5,0.,-4.66368952654441));
#238=CARTESIAN_POINT('',(6.5,0.,1.66815523672779));
#239=CARTESIAN_POINT('',(6.5,5.,8.));
#240=CARTESIAN_POINT('Origin',(6.94174991387607,5.,5.30954346648866E-016));
#241=CARTESIAN_POINT('Origin',(-6.5,0.,4.66368952654441));
#242=CARTESIAN_POINT('',(-6.5,0.,6.3318447632722));
#243=CARTESIAN_POINT('',(-6.5,5.,-8.));
#244=CARTESIAN_POINT('Origin',(-6.94174991387607,5.,-5.64245391271779E-016));
#245=CARTESIAN_POINT('Origin',(0.,0.,8.));
#246=CARTESIAN_POINT('',(0.,0.,6.));
#247=CARTESIAN_POINT('Origin',(0.,0.,0.));
#248=CARTESIAN_POINT('Origin',(0.,-23.,6.));
#249=CARTESIAN_POINT('',(0.,-23.,6.));
#250=CARTESIAN_POINT('Origin',(0.,-23.,0.));
#251=CARTESIAN_POINT('Origin',(0.,-11.5,0.));
#252=UNCERTAINTY_MEASURE_WITH_UNIT(LENGTH_MEASURE(0.01),#256,
'DISTANCE_ACCURACY_VALUE',
'Maximum model space distance between geometric entities at asserted c
onnectivities');
#253=UNCERTAINTY_MEASURE_WITH_UNIT(LENGTH_MEASURE(1.E-006),#256,
'DISTANCE_ACCURACY_VALUE',
'Maximum model space distance between geometric entities at asserted c
onnectivities');
#254=(
GEOMETRIC_REPRESENTATION_CONTEXT(3)
GLOBAL_UNCERTAINTY_ASSIGNED_CONTEXT((#252))
GLOBAL_UNIT_ASSIGNED_CONTEXT((#256,#259,#257))
REPRESENTATION_CONTEXT('','3D')
);
#255=(
GEOMETRIC_REPRESENTATION_CONTEXT(3)
GLOBAL_UNCERTAINTY_ASSIGNED_CONTEXT((#253))
GLOBAL_UNIT_ASSIGNED_CONTEXT((#256,#259,#257))
REPRESENTATION_CONTEXT('','3D')
);
#256=(
LENGTH_UNIT()
NAMED_UNIT(*)
SI_UNIT(.MILLI.,.METRE.)
);
#257=(
NAMED_UNIT(*)
SI_UNIT($,.STERADIAN.)
SOLID_ANGLE_UNIT()
);
#258=DIMENSIONAL_EXPONENTS(0.,0.,0.,0.,0.,0.,0.);
#259=(
CONVERSION_BASED_UNIT('degree',#261)
NAMED_UNIT(#258)
PLANE_ANGLE_UNIT()
);
#260=(
NAMED_UNIT(*)
PLANE_ANGLE_UNIT()
SI_UNIT($,.RADIAN.)
);
#261=PLANE_ANGLE_MEASURE_WITH_UNIT(PLANE_ANGLE_MEASURE(0.01745329252),#260);
#262=SHAPE_DEFINITION_REPRESENTATION(#263,#264);
#263=PRODUCT_DEFINITION_SHAPE('',$,#266);
#264=SHAPE_REPRESENTATION('',(#148),#254);
#265=PRODUCT_DEFINITION_CONTEXT('part definition',#270,'design');
#266=PRODUCT_DEFINITION('1325_063_17F','1325_063_17F',#267,#265);
#267=PRODUCT_DEFINITION_FORMATION('',$,#272);
#268=PRODUCT_RELATED_PRODUCT_CATEGORY('1325_063_17F','1325_063_17F',(#272));
#269=APPLICATION_PROTOCOL_DEFINITION('international standard',
'automotive_design',2009,#270);
#270=APPLICATION_CONTEXT(
'Core Data for Automotive Mechanical Design Process');
#271=PRODUCT_CONTEXT('part definition',#270,'mechanical');
#272=PRODUCT('1325_063_17F','1325_063_17F',$,(#271));
#273=PRESENTATION_STYLE_ASSIGNMENT((#274));
#274=SURFACE_STYLE_USAGE(.BOTH.,#275);
#275=SURFACE_SIDE_STYLE($,(#276));
#276=SURFACE_STYLE_FILL_AREA(#277);
#277=FILL_AREA_STYLE($,(#278));
#278=FILL_AREA_STYLE_COLOUR($,#279);
#279=COLOUR_RGB('',0.749019607843137,0.749019607843137,0.749019607843137);
ENDSEC;
END-ISO-10303-21;
