ISO-10303-21;
HEADER;
/* Generated by software containing ST-Developer
 * from STEP Tools, Inc. (www.steptools.com) 
 */
/* OPTION: strings as raw bytes, not using required /X/ escapes */

FILE_DESCRIPTION(
/* description */ ('Unknown'),
/* implementation_level */ '2;1');

FILE_NAME(
/* name */ '1500.15f',
/* time_stamp */ '2018-09-18T13:58:11-04:00',
/* author */ ('Unknown'),
/* organization */ ('Unknown'),
/* preprocessor_version */ 'ST-DEVELOPER v16.7',
/* originating_system */ 'DEX',
/* authorisation */ $);

FILE_SCHEMA (('AUTOMOTIVE_DESIGN {1 0 10303 214 3 1 1}'));
ENDSEC;

DATA;
#10=PROPERTY_DEFINITION_REPRESENTATION(#14,#12);
#11=PROPERTY_DEFINITION_REPRESENTATION(#15,#13);
#12=REPRESENTATION('',(#16),#265);
#13=REPRESENTATION('',(#17),#265);
#14=PROPERTY_DEFINITION('pmi validation property','',#270);
#15=PROPERTY_DEFINITION('pmi validation property','',#270);
#16=VALUE_REPRESENTATION_ITEM('number of annotations',COUNT_MEASURE(0.));
#17=VALUE_REPRESENTATION_ITEM('number of views',COUNT_MEASURE(0.));
#18=SHAPE_REPRESENTATION_RELATIONSHIP('','',#167,#19);
#19=ADVANCED_BREP_SHAPE_REPRESENTATION('',(#165),#265);
#20=CYLINDRICAL_SURFACE('',#176,4.);
#21=CYLINDRICAL_SURFACE('',#180,3.);
#22=CIRCLE('',#175,4.);
#23=CIRCLE('',#177,4.);
#24=CIRCLE('',#179,3.);
#25=CIRCLE('',#181,3.);
#26=ORIENTED_EDGE('',*,*,#58,.F.);
#27=ORIENTED_EDGE('',*,*,#59,.F.);
#28=ORIENTED_EDGE('',*,*,#60,.T.);
#29=ORIENTED_EDGE('',*,*,#61,.T.);
#30=ORIENTED_EDGE('',*,*,#62,.F.);
#31=ORIENTED_EDGE('',*,*,#61,.F.);
#32=ORIENTED_EDGE('',*,*,#63,.T.);
#33=ORIENTED_EDGE('',*,*,#64,.T.);
#34=ORIENTED_EDGE('',*,*,#65,.F.);
#35=ORIENTED_EDGE('',*,*,#64,.F.);
#36=ORIENTED_EDGE('',*,*,#66,.T.);
#37=ORIENTED_EDGE('',*,*,#67,.T.);
#38=ORIENTED_EDGE('',*,*,#68,.F.);
#39=ORIENTED_EDGE('',*,*,#67,.F.);
#40=ORIENTED_EDGE('',*,*,#69,.T.);
#41=ORIENTED_EDGE('',*,*,#59,.T.);
#42=ORIENTED_EDGE('',*,*,#60,.F.);
#43=ORIENTED_EDGE('',*,*,#69,.F.);
#44=ORIENTED_EDGE('',*,*,#66,.F.);
#45=ORIENTED_EDGE('',*,*,#63,.F.);
#46=ORIENTED_EDGE('',*,*,#70,.T.);
#47=ORIENTED_EDGE('',*,*,#58,.T.);
#48=ORIENTED_EDGE('',*,*,#62,.T.);
#49=ORIENTED_EDGE('',*,*,#65,.T.);
#50=ORIENTED_EDGE('',*,*,#68,.T.);
#51=ORIENTED_EDGE('',*,*,#71,.T.);
#52=ORIENTED_EDGE('',*,*,#70,.F.);
#53=ORIENTED_EDGE('',*,*,#72,.T.);
#54=ORIENTED_EDGE('',*,*,#71,.F.);
#55=ORIENTED_EDGE('',*,*,#73,.T.);
#56=ORIENTED_EDGE('',*,*,#72,.F.);
#57=ORIENTED_EDGE('',*,*,#73,.F.);
#58=EDGE_CURVE('',#74,#75,#86,.T.);
#59=EDGE_CURVE('',#76,#74,#87,.T.);
#60=EDGE_CURVE('',#76,#77,#88,.T.);
#61=EDGE_CURVE('',#77,#75,#89,.T.);
#62=EDGE_CURVE('',#75,#78,#90,.T.);
#63=EDGE_CURVE('',#77,#79,#91,.T.);
#64=EDGE_CURVE('',#79,#78,#92,.T.);
#65=EDGE_CURVE('',#78,#80,#93,.T.);
#66=EDGE_CURVE('',#79,#81,#94,.T.);
#67=EDGE_CURVE('',#81,#80,#95,.T.);
#68=EDGE_CURVE('',#80,#74,#96,.T.);
#69=EDGE_CURVE('',#81,#76,#97,.T.);
#70=EDGE_CURVE('',#82,#82,#22,.T.);
#71=EDGE_CURVE('',#83,#83,#23,.T.);
#72=EDGE_CURVE('',#84,#84,#24,.T.);
#73=EDGE_CURVE('',#85,#85,#25,.T.);
#74=VERTEX_POINT('',#228);
#75=VERTEX_POINT('',#229);
#76=VERTEX_POINT('',#231);
#77=VERTEX_POINT('',#233);
#78=VERTEX_POINT('',#237);
#79=VERTEX_POINT('',#239);
#80=VERTEX_POINT('',#243);
#81=VERTEX_POINT('',#245);
#82=VERTEX_POINT('',#253);
#83=VERTEX_POINT('',#256);
#84=VERTEX_POINT('',#259);
#85=VERTEX_POINT('',#262);
#86=LINE('',#227,#98);
#87=LINE('',#230,#99);
#88=LINE('',#232,#100);
#89=LINE('',#234,#101);
#90=LINE('',#236,#102);
#91=LINE('',#238,#103);
#92=LINE('',#240,#104);
#93=LINE('',#242,#105);
#94=LINE('',#244,#106);
#95=LINE('',#246,#107);
#96=LINE('',#248,#108);
#97=LINE('',#249,#109);
#98=VECTOR('',#187,1000.);
#99=VECTOR('',#188,1000.);
#100=VECTOR('',#189,1000.);
#101=VECTOR('',#190,1000.);
#102=VECTOR('',#193,1000.);
#103=VECTOR('',#194,1000.);
#104=VECTOR('',#195,1000.);
#105=VECTOR('',#198,1000.);
#106=VECTOR('',#199,1000.);
#107=VECTOR('',#200,1000.);
#108=VECTOR('',#203,1000.);
#109=VECTOR('',#204,1000.);
#110=EDGE_LOOP('',(#26,#27,#28,#29));
#111=EDGE_LOOP('',(#30,#31,#32,#33));
#112=EDGE_LOOP('',(#34,#35,#36,#37));
#113=EDGE_LOOP('',(#38,#39,#40,#41));
#114=EDGE_LOOP('',(#42,#43,#44,#45));
#115=EDGE_LOOP('',(#46));
#116=EDGE_LOOP('',(#47,#48,#49,#50));
#117=EDGE_LOOP('',(#51));
#118=EDGE_LOOP('',(#52));
#119=EDGE_LOOP('',(#53));
#120=EDGE_LOOP('',(#54));
#121=EDGE_LOOP('',(#55));
#122=EDGE_LOOP('',(#56));
#123=EDGE_LOOP('',(#57));
#124=FACE_BOUND('',#110,.T.);
#125=FACE_BOUND('',#111,.T.);
#126=FACE_BOUND('',#112,.T.);
#127=FACE_BOUND('',#113,.T.);
#128=FACE_BOUND('',#114,.T.);
#129=FACE_BOUND('',#115,.T.);
#130=FACE_BOUND('',#116,.T.);
#131=FACE_BOUND('',#117,.T.);
#132=FACE_BOUND('',#118,.T.);
#133=FACE_BOUND('',#119,.T.);
#134=FACE_BOUND('',#120,.T.);
#135=FACE_BOUND('',#121,.T.);
#136=FACE_BOUND('',#122,.T.);
#137=FACE_BOUND('',#123,.T.);
#138=PLANE('',#169);
#139=PLANE('',#170);
#140=PLANE('',#171);
#141=PLANE('',#172);
#142=PLANE('',#173);
#143=PLANE('',#174);
#144=PLANE('',#178);
#145=PLANE('',#182);
#146=ADVANCED_FACE('',(#124),#138,.T.);
#147=ADVANCED_FACE('',(#125),#139,.T.);
#148=ADVANCED_FACE('',(#126),#140,.T.);
#149=ADVANCED_FACE('',(#127),#141,.T.);
#150=ADVANCED_FACE('',(#128),#142,.F.);
#151=ADVANCED_FACE('',(#129,#130),#143,.T.);
#152=ADVANCED_FACE('',(#131,#132),#20,.T.);
#153=ADVANCED_FACE('',(#133,#134),#144,.F.);
#154=ADVANCED_FACE('',(#135,#136),#21,.T.);
#155=ADVANCED_FACE('',(#137),#145,.F.);
#156=CLOSED_SHELL('',(#146,#147,#148,#149,#150,#151,#152,#153,#154,#155));
#157=STYLED_ITEM('',(#158),#165);
#158=PRESENTATION_STYLE_ASSIGNMENT((#159));
#159=SURFACE_STYLE_USAGE(.BOTH.,#160);
#160=SURFACE_SIDE_STYLE('',(#161));
#161=SURFACE_STYLE_FILL_AREA(#162);
#162=FILL_AREA_STYLE('',(#163));
#163=FILL_AREA_STYLE_COLOUR('',#164);
#164=COLOUR_RGB('',0.506983280181885,0.531564235687256,0.550000011920929);
#165=MANIFOLD_SOLID_BREP('',#156);
#166=SHAPE_DEFINITION_REPRESENTATION(#270,#167);
#167=SHAPE_REPRESENTATION('1500.15f',(#168),#265);
#168=AXIS2_PLACEMENT_3D('',#225,#183,#184);
#169=AXIS2_PLACEMENT_3D('',#226,#185,#186);
#170=AXIS2_PLACEMENT_3D('',#235,#191,#192);
#171=AXIS2_PLACEMENT_3D('',#241,#196,#197);
#172=AXIS2_PLACEMENT_3D('',#247,#201,#202);
#173=AXIS2_PLACEMENT_3D('',#250,#205,#206);
#174=AXIS2_PLACEMENT_3D('',#251,#207,#208);
#175=AXIS2_PLACEMENT_3D('',#252,#209,#210);
#176=AXIS2_PLACEMENT_3D('',#254,#211,#212);
#177=AXIS2_PLACEMENT_3D('',#255,#213,#214);
#178=AXIS2_PLACEMENT_3D('',#257,#215,#216);
#179=AXIS2_PLACEMENT_3D('',#258,#217,#218);
#180=AXIS2_PLACEMENT_3D('',#260,#219,#220);
#181=AXIS2_PLACEMENT_3D('',#261,#221,#222);
#182=AXIS2_PLACEMENT_3D('',#263,#223,#224);
#183=DIRECTION('',(0.,0.,1.));
#184=DIRECTION('',(1.,0.,0.));
#185=DIRECTION('',(-1.,0.,0.));
#186=DIRECTION('',(0.,0.,1.));
#187=DIRECTION('',(0.,0.,-1.));
#188=DIRECTION('',(0.,-1.,0.));
#189=DIRECTION('',(0.,0.,-1.));
#190=DIRECTION('',(0.,-1.,0.));
#191=DIRECTION('',(0.,0.,-1.));
#192=DIRECTION('',(-1.,0.,0.));
#193=DIRECTION('',(1.,0.,0.));
#194=DIRECTION('',(1.,0.,0.));
#195=DIRECTION('',(0.,-1.,0.));
#196=DIRECTION('',(1.,0.,0.));
#197=DIRECTION('',(0.,0.,-1.));
#198=DIRECTION('',(0.,0.,1.));
#199=DIRECTION('',(0.,0.,1.));
#200=DIRECTION('',(0.,-1.,0.));
#201=DIRECTION('',(0.,0.,1.));
#202=DIRECTION('',(1.,0.,0.));
#203=DIRECTION('',(-1.,0.,0.));
#204=DIRECTION('',(-1.,0.,0.));
#205=DIRECTION('',(0.,-1.,0.));
#206=DIRECTION('',(0.,0.,-1.));
#207=DIRECTION('',(0.,-1.,0.));
#208=DIRECTION('',(0.,0.,-1.));
#209=DIRECTION('',(0.,1.,0.));
#210=DIRECTION('',(1.,0.,0.));
#211=DIRECTION('',(0.,1.,0.));
#212=DIRECTION('',(0.,0.,1.));
#213=DIRECTION('',(0.,1.,0.));
#214=DIRECTION('',(1.,0.,0.));
#215=DIRECTION('',(0.,1.,0.));
#216=DIRECTION('',(0.,0.,1.));
#217=DIRECTION('',(0.,1.,0.));
#218=DIRECTION('',(1.,0.,0.));
#219=DIRECTION('',(0.,1.,0.));
#220=DIRECTION('',(0.,0.,1.));
#221=DIRECTION('',(0.,1.,0.));
#222=DIRECTION('',(1.,0.,0.));
#223=DIRECTION('',(0.,1.,0.));
#224=DIRECTION('',(0.,0.,1.));
#225=CARTESIAN_POINT('',(0.,0.,0.));
#226=CARTESIAN_POINT('',(-7.5,2.,7.5));
#227=CARTESIAN_POINT('',(-7.5,0.,7.5));
#228=CARTESIAN_POINT('',(-7.5,0.,7.5));
#229=CARTESIAN_POINT('',(-7.5,0.,-7.5));
#230=CARTESIAN_POINT('',(-7.5,2.,7.5));
#231=CARTESIAN_POINT('',(-7.5,2.5,7.5));
#232=CARTESIAN_POINT('',(-7.5,2.5,7.5));
#233=CARTESIAN_POINT('',(-7.5,2.5,-7.5));
#234=CARTESIAN_POINT('',(-7.5,2.,-7.5));
#235=CARTESIAN_POINT('',(-7.5,2.,-7.5));
#236=CARTESIAN_POINT('',(-7.5,0.,-7.5));
#237=CARTESIAN_POINT('',(7.5,0.,-7.5));
#238=CARTESIAN_POINT('',(-7.5,2.5,-7.5));
#239=CARTESIAN_POINT('',(7.5,2.5,-7.5));
#240=CARTESIAN_POINT('',(7.5,2.,-7.5));
#241=CARTESIAN_POINT('',(7.5,2.,-7.5));
#242=CARTESIAN_POINT('',(7.5,0.,-7.5));
#243=CARTESIAN_POINT('',(7.5,0.,7.5));
#244=CARTESIAN_POINT('',(7.5,2.5,-7.5));
#245=CARTESIAN_POINT('',(7.5,2.5,7.5));
#246=CARTESIAN_POINT('',(7.5,2.,7.5));
#247=CARTESIAN_POINT('',(7.5,2.,7.5));
#248=CARTESIAN_POINT('',(7.5,0.,7.5));
#249=CARTESIAN_POINT('',(7.5,2.5,7.5));
#250=CARTESIAN_POINT('',(0.,2.5,0.));
#251=CARTESIAN_POINT('',(0.,0.,0.));
#252=CARTESIAN_POINT('',(0.,0.,0.));
#253=CARTESIAN_POINT('',(4.,0.,0.));
#254=CARTESIAN_POINT('',(0.,-2.,0.));
#255=CARTESIAN_POINT('',(0.,-2.,0.));
#256=CARTESIAN_POINT('',(4.,-2.,0.));
#257=CARTESIAN_POINT('',(0.,-2.,0.));
#258=CARTESIAN_POINT('',(0.,-2.,0.));
#259=CARTESIAN_POINT('',(3.,-2.,0.));
#260=CARTESIAN_POINT('',(0.,-17.,0.));
#261=CARTESIAN_POINT('',(0.,-17.,0.));
#262=CARTESIAN_POINT('',(3.,-17.,0.));
#263=CARTESIAN_POINT('',(0.,-17.,0.));
#264=MECHANICAL_DESIGN_GEOMETRIC_PRESENTATION_REPRESENTATION('',(#157),
#265);
#265=(
GEOMETRIC_REPRESENTATION_CONTEXT(3)
GLOBAL_UNCERTAINTY_ASSIGNED_CONTEXT((#266))
GLOBAL_UNIT_ASSIGNED_CONTEXT((#269,#268,#267))
REPRESENTATION_CONTEXT('1500.15f','TOP_LEVEL_ASSEMBLY_PART')
);
#266=UNCERTAINTY_MEASURE_WITH_UNIT(LENGTH_MEASURE(0.005),#269,
'DISTANCE_ACCURACY_VALUE','Maximum Tolerance applied to model');
#267=(
NAMED_UNIT(*)
SI_UNIT($,.STERADIAN.)
SOLID_ANGLE_UNIT()
);
#268=(
NAMED_UNIT(*)
PLANE_ANGLE_UNIT()
SI_UNIT($,.RADIAN.)
);
#269=(
LENGTH_UNIT()
NAMED_UNIT(*)
SI_UNIT(.MILLI.,.METRE.)
);
#270=PRODUCT_DEFINITION_SHAPE('','',#271);
#271=PRODUCT_DEFINITION('','',#273,#272);
#272=PRODUCT_DEFINITION_CONTEXT('',#279,'design');
#273=PRODUCT_DEFINITION_FORMATION_WITH_SPECIFIED_SOURCE('','',#275,
 .NOT_KNOWN.);
#274=PRODUCT_RELATED_PRODUCT_CATEGORY('','',(#275));
#275=PRODUCT('1500.15f','1500.15f','1500.15f',(#277));
#276=PRODUCT_CATEGORY('','');
#277=PRODUCT_CONTEXT('',#279,'mechanical');
#278=APPLICATION_PROTOCOL_DEFINITION('international standard',
'automotive_design',2010,#279);
#279=APPLICATION_CONTEXT(
'core data for automotive mechanical design processes');
ENDSEC;
END-ISO-10303-21;
