ISO-10303-21;
HEADER;
/****************************************************************
 * Generated by software with PDE/Lib inside                    *
 * PDElib Version v51a, created Tue 12/06/2005                  *
 * International Technegroup Inc. (www.iti-oh.com)              *
 ****************************************************************/
FILE_DESCRIPTION((''),'2;1');
FILE_NAME('I:\\Area Tecnica\\Documenti\\A-Mauro\\_Inventor\\LIBRERIE\\FISSAGGI EUROPE\\1500_18F.stp','2007-02-26T14:52:54',('valotma1'),(''),'Autodesk Inventor 11','Autodesk Inventor 11','');
FILE_SCHEMA(('AUTOMOTIVE_DESIGN { 1 0 10303 214 1 1 1 1 }'));
ENDSEC;
DATA;
#5=APPLICATION_CONTEXT('automotive design');
#6=APPLICATION_PROTOCOL_DEFINITION('Draft International Standard','automotive_design',1998,#5);
#7=PRODUCT_CONTEXT('None',#5,'mechanical');
#8=PRODUCT('1500_18F','1500_18F','None',(#7));
#9=PRODUCT_RELATED_PRODUCT_CATEGORY('part','description',(#8));
#10=PRODUCT_DEFINITION_FORMATION('None','None',#8);
#11=PRODUCT_DEFINITION_CONTEXT('part definition',#5,'design');
#12=PRODUCT_DEFINITION('None','None',#10,#11);
#18=(NAMED_UNIT(*)PLANE_ANGLE_UNIT()SI_UNIT($,.RADIAN.));
#19=DIMENSIONAL_EXPONENTS(0.0,0.0,0.0,0.0,0.0,0.0,0.0);
#20=PLANE_ANGLE_MEASURE_WITH_UNIT(PLANE_ANGLE_MEASURE(0.017453292500000),#18);
#24=(CONVERSION_BASED_UNIT('DEGREE',#20)NAMED_UNIT(#19)PLANE_ANGLE_UNIT());
#28=(NAMED_UNIT(*)SI_UNIT($,.STERADIAN.)SOLID_ANGLE_UNIT());
#32=(LENGTH_UNIT()NAMED_UNIT(*)SI_UNIT(.MILLI.,.METRE.));
#34=UNCERTAINTY_MEASURE_WITH_UNIT(LENGTH_MEASURE(0.010000000000000),#32,'DISTANCE_ACCURACY_VALUE','');
#36=(GEOMETRIC_REPRESENTATION_CONTEXT(3)GLOBAL_UNCERTAINTY_ASSIGNED_CONTEXT((#34))GLOBAL_UNIT_ASSIGNED_CONTEXT((#24,#28,#32))REPRESENTATION_CONTEXT('None','None'));
#37=AXIS2_PLACEMENT_3D('',#38,#39,#40);
#38=CARTESIAN_POINT('',(0.0,0.0,0.0));
#39=DIRECTION('',(0.0,0.0,1.0));
#40=DIRECTION('',(1.0,0.0,0.0));
#41=SHAPE_REPRESENTATION('',(#37),#36);
#42=PRODUCT_DEFINITION_SHAPE('','',#12);
#43=SHAPE_DEFINITION_REPRESENTATION(#42,#41);
#44=CARTESIAN_POINT('',(0.0,0.0,29.500000000000000));
#45=DIRECTION('',(0.0,0.0,-1.0));
#46=DIRECTION('',(-1.0,0.0,0.0));
#47=AXIS2_PLACEMENT_3D('',#44,#45,#46);
#48=CONICAL_SURFACE('',#47,4.500000000000003,44.999999999999893);
#49=CARTESIAN_POINT('',(5.000000000000001,6.123032E-016,29.0));
#50=VERTEX_POINT('',#49);
#51=CARTESIAN_POINT('',(0.0,0.0,29.0));
#52=DIRECTION('',(0.0,0.0,1.0));
#53=DIRECTION('',(-1.0,0.0,0.0));
#54=AXIS2_PLACEMENT_3D('',#51,#52,#53);
#55=CIRCLE('',#54,5.000000000000001);
#56=EDGE_CURVE('',#50,#50,#55,.T.);
#57=ORIENTED_EDGE('',*,*,#56,.T.);
#58=EDGE_LOOP('',(#57));
#59=FACE_OUTER_BOUND('',#58,.T.);
#60=CARTESIAN_POINT('',(4.000000000000004,-4.898425E-016,30.0));
#61=VERTEX_POINT('',#60);
#62=CARTESIAN_POINT('',(0.0,0.0,30.0));
#63=DIRECTION('',(0.0,0.0,-1.0));
#64=DIRECTION('',(-1.0,0.0,0.0));
#65=AXIS2_PLACEMENT_3D('',#62,#63,#64);
#66=CIRCLE('',#65,4.000000000000004);
#67=EDGE_CURVE('',#61,#61,#66,.T.);
#68=ORIENTED_EDGE('',*,*,#67,.T.);
#69=EDGE_LOOP('',(#68));
#70=FACE_BOUND('',#69,.T.);
#71=ADVANCED_FACE('',(#59,#70),#48,.T.);
#72=CARTESIAN_POINT('',(0.0,0.0,17.399999999999999));
#73=DIRECTION('',(0.0,0.0,1.0));
#74=DIRECTION('',(1.0,0.0,0.0));
#75=AXIS2_PLACEMENT_3D('',#72,#73,#74);
#76=CYLINDRICAL_SURFACE('',#75,5.000000000000001);
#77=CARTESIAN_POINT('',(4.999999999999999,0.0,4.800000000000000));
#78=VERTEX_POINT('',#77);
#79=CARTESIAN_POINT('',(0.0,0.0,4.800000000000000));
#80=DIRECTION('',(0.0,0.0,1.0));
#81=DIRECTION('',(1.0,0.0,0.0));
#82=AXIS2_PLACEMENT_3D('',#79,#80,#81);
#83=CIRCLE('',#82,4.999999999999999);
#84=EDGE_CURVE('',#78,#78,#83,.T.);
#85=ORIENTED_EDGE('',*,*,#84,.T.);
#86=EDGE_LOOP('',(#85));
#87=FACE_OUTER_BOUND('',#86,.T.);
#88=ORIENTED_EDGE('',*,*,#56,.F.);
#89=EDGE_LOOP('',(#88));
#90=FACE_BOUND('',#89,.T.);
#91=ADVANCED_FACE('',(#87,#90),#76,.T.);
#92=CARTESIAN_POINT('',(2.500000000000003,0.0,30.0));
#93=DIRECTION('',(0.0,0.0,1.0));
#94=DIRECTION('',(1.0,0.0,0.0));
#95=AXIS2_PLACEMENT_3D('',#92,#93,#94);
#96=PLANE('',#95);
#97=ORIENTED_EDGE('',*,*,#67,.F.);
#98=EDGE_LOOP('',(#97));
#99=FACE_OUTER_BOUND('',#98,.T.);
#100=ADVANCED_FACE('',(#99),#96,.T.);
#101=CARTESIAN_POINT('',(0.0,0.0,3.800000000000000));
#102=DIRECTION('',(0.0,0.0,1.0));
#103=DIRECTION('',(1.0,0.0,0.0));
#104=AXIS2_PLACEMENT_3D('',#101,#102,#103);
#105=CYLINDRICAL_SURFACE('',#104,5.949999999999999);
#106=CARTESIAN_POINT('',(5.949999999999999,0.0,4.800000000000000));
#107=VERTEX_POINT('',#106);
#108=CARTESIAN_POINT('',(0.0,0.0,4.800000000000000));
#109=DIRECTION('',(0.0,0.0,1.0));
#110=DIRECTION('',(1.0,0.0,0.0));
#111=AXIS2_PLACEMENT_3D('',#108,#109,#110);
#112=CIRCLE('',#111,5.949999999999999);
#113=EDGE_CURVE('',#107,#107,#112,.T.);
#114=ORIENTED_EDGE('',*,*,#113,.F.);
#115=EDGE_LOOP('',(#114));
#116=FACE_OUTER_BOUND('',#115,.T.);
#117=CARTESIAN_POINT('',(5.950000000000001,0.0,2.800000000000000));
#118=VERTEX_POINT('',#117);
#119=CARTESIAN_POINT('',(0.0,0.0,2.800000000000000));
#120=DIRECTION('',(0.0,0.0,-1.0));
#121=DIRECTION('',(1.0,0.0,0.0));
#122=AXIS2_PLACEMENT_3D('',#119,#120,#121);
#123=CIRCLE('',#122,5.949999999999999);
#124=EDGE_CURVE('',#118,#118,#123,.T.);
#125=ORIENTED_EDGE('',*,*,#124,.F.);
#126=EDGE_LOOP('',(#125));
#127=FACE_BOUND('',#126,.T.);
#128=ADVANCED_FACE('',(#116,#127),#105,.T.);
#129=CARTESIAN_POINT('',(5.474999999999999,0.0,4.800000000000000));
#130=DIRECTION('',(0.0,0.0,1.0));
#131=DIRECTION('',(1.0,0.0,0.0));
#132=AXIS2_PLACEMENT_3D('',#129,#130,#131);
#133=PLANE('',#132);
#134=ORIENTED_EDGE('',*,*,#113,.T.);
#135=EDGE_LOOP('',(#134));
#136=FACE_OUTER_BOUND('',#135,.T.);
#137=ORIENTED_EDGE('',*,*,#84,.F.);
#138=EDGE_LOOP('',(#137));
#139=FACE_BOUND('',#138,.T.);
#140=ADVANCED_FACE('',(#136,#139),#133,.T.);
#141=CARTESIAN_POINT('',(7.500000000000000,7.500000000000000,0.0));
#142=DIRECTION('',(1.0,0.0,0.0));
#143=DIRECTION('',(0.0,0.0,-1.0));
#144=AXIS2_PLACEMENT_3D('',#141,#142,#143);
#145=PLANE('',#144);
#146=CARTESIAN_POINT('',(7.500000000000000,7.500000000000000,2.800000000000000));
#147=VERTEX_POINT('',#146);
#148=CARTESIAN_POINT('',(7.500000000000000,-7.500000000000000,2.800000000000000));
#149=VERTEX_POINT('',#148);
#150=CARTESIAN_POINT('',(7.500000000000000,7.500000000000000,2.800000000000000));
#151=DIRECTION('',(0.0,-1.0,0.0));
#152=VECTOR('',#151,15.0);
#153=LINE('',#150,#152);
#154=EDGE_CURVE('',#147,#149,#153,.T.);
#155=ORIENTED_EDGE('',*,*,#154,.T.);
#156=CARTESIAN_POINT('',(7.500000000000000,-7.500000000000000,0.0));
#157=VERTEX_POINT('',#156);
#158=CARTESIAN_POINT('',(7.500000000000000,-7.500000000000000,0.0));
#159=DIRECTION('',(0.0,0.0,1.0));
#160=VECTOR('',#159,2.800000000000000);
#161=LINE('',#158,#160);
#162=EDGE_CURVE('',#157,#149,#161,.T.);
#163=ORIENTED_EDGE('',*,*,#162,.F.);
#164=CARTESIAN_POINT('',(7.500000000000000,7.500000000000000,0.0));
#165=VERTEX_POINT('',#164);
#166=CARTESIAN_POINT('',(7.500000000000000,7.500000000000000,0.0));
#167=DIRECTION('',(0.0,-1.0,0.0));
#168=VECTOR('',#167,15.0);
#169=LINE('',#166,#168);
#170=EDGE_CURVE('',#165,#157,#169,.T.);
#171=ORIENTED_EDGE('',*,*,#170,.F.);
#172=CARTESIAN_POINT('',(7.500000000000000,7.500000000000000,0.0));
#173=DIRECTION('',(0.0,0.0,1.0));
#174=VECTOR('',#173,2.800000000000000);
#175=LINE('',#172,#174);
#176=EDGE_CURVE('',#165,#147,#175,.T.);
#177=ORIENTED_EDGE('',*,*,#176,.T.);
#178=EDGE_LOOP('',(#155,#163,#171,#177));
#179=FACE_OUTER_BOUND('',#178,.T.);
#180=ADVANCED_FACE('',(#179),#145,.T.);
#181=CARTESIAN_POINT('',(7.500000000000000,-7.500000000000000,0.0));
#182=DIRECTION('',(0.0,-1.0,0.0));
#183=DIRECTION('',(0.0,0.0,-1.0));
#184=AXIS2_PLACEMENT_3D('',#181,#182,#183);
#185=PLANE('',#184);
#186=CARTESIAN_POINT('',(-7.500000000000000,-7.500000000000000,2.800000000000000));
#187=VERTEX_POINT('',#186);
#188=CARTESIAN_POINT('',(7.500000000000000,-7.500000000000000,2.800000000000000));
#189=DIRECTION('',(-1.0,0.0,0.0));
#190=VECTOR('',#189,15.0);
#191=LINE('',#188,#190);
#192=EDGE_CURVE('',#149,#187,#191,.T.);
#193=ORIENTED_EDGE('',*,*,#192,.T.);
#194=CARTESIAN_POINT('',(-7.500000000000000,-7.500000000000000,0.0));
#195=VERTEX_POINT('',#194);
#196=CARTESIAN_POINT('',(-7.500000000000000,-7.500000000000000,0.0));
#197=DIRECTION('',(0.0,0.0,1.0));
#198=VECTOR('',#197,2.800000000000000);
#199=LINE('',#196,#198);
#200=EDGE_CURVE('',#195,#187,#199,.T.);
#201=ORIENTED_EDGE('',*,*,#200,.F.);
#202=CARTESIAN_POINT('',(7.500000000000000,-7.500000000000000,0.0));
#203=DIRECTION('',(-1.0,0.0,0.0));
#204=VECTOR('',#203,15.0);
#205=LINE('',#202,#204);
#206=EDGE_CURVE('',#157,#195,#205,.T.);
#207=ORIENTED_EDGE('',*,*,#206,.F.);
#208=ORIENTED_EDGE('',*,*,#162,.T.);
#209=EDGE_LOOP('',(#193,#201,#207,#208));
#210=FACE_OUTER_BOUND('',#209,.T.);
#211=ADVANCED_FACE('',(#210),#185,.T.);
#212=CARTESIAN_POINT('',(-7.500000000000000,-7.500000000000000,0.0));
#213=DIRECTION('',(-1.0,0.0,0.0));
#214=DIRECTION('',(0.0,0.0,1.0));
#215=AXIS2_PLACEMENT_3D('',#212,#213,#214);
#216=PLANE('',#215);
#217=CARTESIAN_POINT('',(-7.500000000000000,7.500000000000000,2.800000000000000));
#218=VERTEX_POINT('',#217);
#219=CARTESIAN_POINT('',(-7.500000000000000,-7.500000000000000,2.800000000000000));
#220=DIRECTION('',(0.0,1.0,0.0));
#221=VECTOR('',#220,15.0);
#222=LINE('',#219,#221);
#223=EDGE_CURVE('',#187,#218,#222,.T.);
#224=ORIENTED_EDGE('',*,*,#223,.T.);
#225=CARTESIAN_POINT('',(-7.500000000000000,7.500000000000000,0.0));
#226=VERTEX_POINT('',#225);
#227=CARTESIAN_POINT('',(-7.500000000000000,7.500000000000000,0.0));
#228=DIRECTION('',(0.0,0.0,1.0));
#229=VECTOR('',#228,2.800000000000000);
#230=LINE('',#227,#229);
#231=EDGE_CURVE('',#226,#218,#230,.T.);
#232=ORIENTED_EDGE('',*,*,#231,.F.);
#233=CARTESIAN_POINT('',(-7.500000000000000,-7.500000000000000,0.0));
#234=DIRECTION('',(0.0,1.0,0.0));
#235=VECTOR('',#234,15.0);
#236=LINE('',#233,#235);
#237=EDGE_CURVE('',#195,#226,#236,.T.);
#238=ORIENTED_EDGE('',*,*,#237,.F.);
#239=ORIENTED_EDGE('',*,*,#200,.T.);
#240=EDGE_LOOP('',(#224,#232,#238,#239));
#241=FACE_OUTER_BOUND('',#240,.T.);
#242=ADVANCED_FACE('',(#241),#216,.T.);
#243=CARTESIAN_POINT('',(-7.500000000000000,7.500000000000000,0.0));
#244=DIRECTION('',(0.0,1.0,0.0));
#245=DIRECTION('',(0.0,0.0,1.0));
#246=AXIS2_PLACEMENT_3D('',#243,#244,#245);
#247=PLANE('',#246);
#248=CARTESIAN_POINT('',(-7.500000000000000,7.500000000000000,2.800000000000000));
#249=DIRECTION('',(1.0,0.0,0.0));
#250=VECTOR('',#249,15.0);
#251=LINE('',#248,#250);
#252=EDGE_CURVE('',#218,#147,#251,.T.);
#253=ORIENTED_EDGE('',*,*,#252,.T.);
#254=ORIENTED_EDGE('',*,*,#176,.F.);
#255=CARTESIAN_POINT('',(-7.500000000000000,7.500000000000000,0.0));
#256=DIRECTION('',(1.0,0.0,0.0));
#257=VECTOR('',#256,15.0);
#258=LINE('',#255,#257);
#259=EDGE_CURVE('',#226,#165,#258,.T.);
#260=ORIENTED_EDGE('',*,*,#259,.F.);
#261=ORIENTED_EDGE('',*,*,#231,.T.);
#262=EDGE_LOOP('',(#253,#254,#260,#261));
#263=FACE_OUTER_BOUND('',#262,.T.);
#264=ADVANCED_FACE('',(#263),#247,.T.);
#265=CARTESIAN_POINT('',(0.0,5.046468E-017,2.800000000000000));
#266=DIRECTION('',(0.0,0.0,1.0));
#267=DIRECTION('',(1.0,0.0,0.0));
#268=AXIS2_PLACEMENT_3D('',#265,#266,#267);
#269=PLANE('',#268);
#270=ORIENTED_EDGE('',*,*,#154,.F.);
#271=ORIENTED_EDGE('',*,*,#252,.F.);
#272=ORIENTED_EDGE('',*,*,#223,.F.);
#273=ORIENTED_EDGE('',*,*,#192,.F.);
#274=EDGE_LOOP('',(#270,#271,#272,#273));
#275=FACE_OUTER_BOUND('',#274,.T.);
#276=ORIENTED_EDGE('',*,*,#124,.T.);
#277=EDGE_LOOP('',(#276));
#278=FACE_BOUND('',#277,.T.);
#279=ADVANCED_FACE('',(#275,#278),#269,.T.);
#280=CARTESIAN_POINT('',(0.0,-5.046468E-017,0.0));
#281=DIRECTION('',(0.0,0.0,1.0));
#282=DIRECTION('',(1.0,0.0,0.0));
#283=AXIS2_PLACEMENT_3D('',#280,#281,#282);
#284=PLANE('',#283);
#285=ORIENTED_EDGE('',*,*,#259,.T.);
#286=ORIENTED_EDGE('',*,*,#170,.T.);
#287=ORIENTED_EDGE('',*,*,#206,.T.);
#288=ORIENTED_EDGE('',*,*,#237,.T.);
#289=EDGE_LOOP('',(#285,#286,#287,#288));
#290=FACE_OUTER_BOUND('',#289,.T.);
#291=ADVANCED_FACE('',(#290),#284,.F.);
#292=CLOSED_SHELL('',(#71,#91,#100,#128,#140,#180,#211,#242,#264,#279,#291));
#293=MANIFOLD_SOLID_BREP('',#292);
#294=COLOUR_RGB('Grigio plastica',0.403921991586685,0.403921991586685,0.403921991586685);
#295=FILL_AREA_STYLE_COLOUR('Grigio plastica',#294);
#296=FILL_AREA_STYLE('Grigio plastica',(#295));
#297=SURFACE_STYLE_FILL_AREA(#296);
#298=SURFACE_SIDE_STYLE('Grigio plastica',(#297));
#299=SURFACE_STYLE_USAGE(.BOTH.,#298);
#300=PRESENTATION_STYLE_ASSIGNMENT((#299));
#301=STYLED_ITEM('',(#300),#293);
#302=MECHANICAL_DESIGN_GEOMETRIC_PRESENTATION_REPRESENTATION('',(#301),#36);
#303=ADVANCED_BREP_SHAPE_REPRESENTATION('ABSR',(#293),#36);
#304=SHAPE_REPRESENTATION_RELATIONSHIP('SRR','None',#303,#41);
ENDSEC;
END-ISO-10303-21;
