ISO-10303-21;
HEADER;
/* Generated by software containing ST-Developer
 * from STEP Tools, Inc. (www.steptools.com) 
 */

FILE_DESCRIPTION(
/* description */ (''),
/* implementation_level */ '2;1');

FILE_NAME(
/* name */ 
'C:\\PNX_VAULTFOLDER\\Area Tecnica\\Disegni\\VARIE-3D\\Componenti\\SEN
SORI\\1500_#.stp',
/* time_stamp */ '2017-11-20T08:20:37+01:00',
/* author */ ('Maniean1'),
/* organization */ ('Pneumax S.p.A.'),
/* preprocessor_version */ 'ST-DEVELOPER v16.5',
/* originating_system */ 'Autodesk Inventor 2017',
/* authorisation */ '');

FILE_SCHEMA (('AUTOMOTIVE_DESIGN { 1 0 10303 214 3 1 1 }'));
ENDSEC;

DATA;
#10=MECHANICAL_DESIGN_GEOMETRIC_PRESENTATION_REPRESENTATION('',(#256,#253,
#254,#255),#457);
#11=SHAPE_REPRESENTATION_RELATIONSHIP('SRR','None',#466,#12);
#12=ADVANCED_BREP_SHAPE_REPRESENTATION('',(#13),#456);
#13=MANIFOLD_SOLID_BREP('Solido1',#274);
#14=CONICAL_SURFACE('',#295,2.,45.);
#15=SPHERICAL_SURFACE('',#291,1.);
#16=LINE('',#397,#41);
#17=LINE('',#399,#42);
#18=LINE('',#401,#43);
#19=LINE('',#403,#44);
#20=LINE('',#405,#45);
#21=LINE('',#406,#46);
#22=LINE('',#408,#47);
#23=LINE('',#410,#48);
#24=LINE('',#411,#49);
#25=LINE('',#424,#50);
#26=LINE('',#426,#51);
#27=LINE('',#428,#52);
#28=LINE('',#430,#53);
#29=LINE('',#432,#54);
#30=LINE('',#434,#55);
#31=LINE('',#436,#56);
#32=LINE('',#437,#57);
#33=LINE('',#439,#58);
#34=LINE('',#440,#59);
#35=LINE('',#442,#60);
#36=LINE('',#444,#61);
#37=LINE('',#446,#62);
#38=LINE('',#448,#63);
#39=LINE('',#450,#64);
#40=LINE('',#452,#65);
#41=VECTOR('',#326,10.);
#42=VECTOR('',#327,10.);
#43=VECTOR('',#328,10.);
#44=VECTOR('',#329,10.);
#45=VECTOR('',#330,10.);
#46=VECTOR('',#331,10.);
#47=VECTOR('',#332,10.);
#48=VECTOR('',#333,10.);
#49=VECTOR('',#334,10.);
#50=VECTOR('',#349,10.);
#51=VECTOR('',#350,10.);
#52=VECTOR('',#351,10.);
#53=VECTOR('',#352,10.);
#54=VECTOR('',#353,10.);
#55=VECTOR('',#354,10.);
#56=VECTOR('',#355,10.);
#57=VECTOR('',#356,10.);
#58=VECTOR('',#359,10.);
#59=VECTOR('',#360,10.);
#60=VECTOR('',#363,10.);
#61=VECTOR('',#366,10.);
#62=VECTOR('',#369,10.);
#63=VECTOR('',#372,10.);
#64=VECTOR('',#375,10.);
#65=VECTOR('',#378,10.);
#66=PLANE('',#285);
#67=PLANE('',#289);
#68=PLANE('',#290);
#69=PLANE('',#293);
#70=PLANE('',#297);
#71=PLANE('',#298);
#72=PLANE('',#299);
#73=PLANE('',#300);
#74=PLANE('',#301);
#75=PLANE('',#302);
#76=PLANE('',#303);
#77=PLANE('',#304);
#78=PLANE('',#305);
#79=FACE_BOUND('',#103,.T.);
#80=FACE_BOUND('',#106,.T.);
#81=FACE_BOUND('',#108,.T.);
#82=FACE_BOUND('',#112,.T.);
#83=FACE_BOUND('',#114,.T.);
#84=FACE_BOUND('',#119,.T.);
#85=FACE_OUTER_BOUND('',#102,.T.);
#86=FACE_OUTER_BOUND('',#104,.T.);
#87=FACE_OUTER_BOUND('',#105,.T.);
#88=FACE_OUTER_BOUND('',#107,.T.);
#89=FACE_OUTER_BOUND('',#109,.T.);
#90=FACE_OUTER_BOUND('',#110,.T.);
#91=FACE_OUTER_BOUND('',#111,.T.);
#92=FACE_OUTER_BOUND('',#113,.T.);
#93=FACE_OUTER_BOUND('',#115,.T.);
#94=FACE_OUTER_BOUND('',#116,.T.);
#95=FACE_OUTER_BOUND('',#117,.T.);
#96=FACE_OUTER_BOUND('',#118,.T.);
#97=FACE_OUTER_BOUND('',#120,.T.);
#98=FACE_OUTER_BOUND('',#121,.T.);
#99=FACE_OUTER_BOUND('',#122,.T.);
#100=FACE_OUTER_BOUND('',#123,.T.);
#101=FACE_OUTER_BOUND('',#124,.T.);
#102=EDGE_LOOP('',(#187));
#103=EDGE_LOOP('',(#188));
#104=EDGE_LOOP('',(#189));
#105=EDGE_LOOP('',(#190));
#106=EDGE_LOOP('',(#191));
#107=EDGE_LOOP('',(#192));
#108=EDGE_LOOP('',(#193));
#109=EDGE_LOOP('',(#194,#195,#196,#197,#198,#199,#200,#201,#202,#203));
#110=EDGE_LOOP('',(#204));
#111=EDGE_LOOP('',(#205));
#112=EDGE_LOOP('',(#206));
#113=EDGE_LOOP('',(#207));
#114=EDGE_LOOP('',(#208));
#115=EDGE_LOOP('',(#209,#210,#211,#212,#213,#214,#215,#216));
#116=EDGE_LOOP('',(#217,#218,#219,#220));
#117=EDGE_LOOP('',(#221,#222,#223,#224));
#118=EDGE_LOOP('',(#225,#226,#227,#228,#229));
#119=EDGE_LOOP('',(#230));
#120=EDGE_LOOP('',(#231,#232,#233,#234));
#121=EDGE_LOOP('',(#235,#236,#237,#238));
#122=EDGE_LOOP('',(#239,#240,#241,#242));
#123=EDGE_LOOP('',(#243,#244,#245,#246));
#124=EDGE_LOOP('',(#247,#248,#249,#250));
#125=CIRCLE('',#283,2.05);
#126=CIRCLE('',#284,2.05);
#127=CIRCLE('',#287,3.05);
#128=CIRCLE('',#288,3.05);
#129=CIRCLE('',#292,1.);
#130=CIRCLE('',#294,1.75);
#131=CIRCLE('',#296,2.25);
#132=VERTEX_POINT('',#383);
#133=VERTEX_POINT('',#385);
#134=VERTEX_POINT('',#389);
#135=VERTEX_POINT('',#391);
#136=VERTEX_POINT('',#395);
#137=VERTEX_POINT('',#396);
#138=VERTEX_POINT('',#398);
#139=VERTEX_POINT('',#400);
#140=VERTEX_POINT('',#402);
#141=VERTEX_POINT('',#404);
#142=VERTEX_POINT('',#407);
#143=VERTEX_POINT('',#409);
#144=VERTEX_POINT('',#413);
#145=VERTEX_POINT('',#416);
#146=VERTEX_POINT('',#419);
#147=VERTEX_POINT('',#422);
#148=VERTEX_POINT('',#423);
#149=VERTEX_POINT('',#425);
#150=VERTEX_POINT('',#427);
#151=VERTEX_POINT('',#429);
#152=VERTEX_POINT('',#431);
#153=VERTEX_POINT('',#433);
#154=VERTEX_POINT('',#435);
#155=EDGE_CURVE('',#132,#132,#125,.T.);
#156=EDGE_CURVE('',#133,#133,#126,.T.);
#157=EDGE_CURVE('',#134,#134,#127,.T.);
#158=EDGE_CURVE('',#135,#135,#128,.T.);
#159=EDGE_CURVE('',#136,#137,#16,.T.);
#160=EDGE_CURVE('',#137,#138,#17,.T.);
#161=EDGE_CURVE('',#138,#139,#18,.T.);
#162=EDGE_CURVE('',#139,#140,#19,.T.);
#163=EDGE_CURVE('',#140,#141,#20,.T.);
#164=EDGE_CURVE('',#141,#135,#21,.T.);
#165=EDGE_CURVE('',#135,#142,#22,.T.);
#166=EDGE_CURVE('',#142,#143,#23,.T.);
#167=EDGE_CURVE('',#143,#136,#24,.T.);
#168=EDGE_CURVE('',#144,#144,#129,.T.);
#169=EDGE_CURVE('',#145,#145,#130,.T.);
#170=EDGE_CURVE('',#146,#146,#131,.T.);
#171=EDGE_CURVE('',#147,#148,#25,.T.);
#172=EDGE_CURVE('',#148,#149,#26,.T.);
#173=EDGE_CURVE('',#149,#150,#27,.T.);
#174=EDGE_CURVE('',#150,#151,#28,.T.);
#175=EDGE_CURVE('',#151,#152,#29,.T.);
#176=EDGE_CURVE('',#152,#153,#30,.T.);
#177=EDGE_CURVE('',#153,#154,#31,.T.);
#178=EDGE_CURVE('',#154,#147,#32,.T.);
#179=EDGE_CURVE('',#136,#148,#33,.T.);
#180=EDGE_CURVE('',#143,#149,#34,.T.);
#181=EDGE_CURVE('',#142,#150,#35,.T.);
#182=EDGE_CURVE('',#141,#151,#36,.T.);
#183=EDGE_CURVE('',#140,#152,#37,.T.);
#184=EDGE_CURVE('',#139,#153,#38,.T.);
#185=EDGE_CURVE('',#138,#154,#39,.T.);
#186=EDGE_CURVE('',#147,#137,#40,.T.);
#187=ORIENTED_EDGE('',*,*,#155,.F.);
#188=ORIENTED_EDGE('',*,*,#156,.F.);
#189=ORIENTED_EDGE('',*,*,#155,.T.);
#190=ORIENTED_EDGE('',*,*,#157,.F.);
#191=ORIENTED_EDGE('',*,*,#158,.F.);
#192=ORIENTED_EDGE('',*,*,#157,.T.);
#193=ORIENTED_EDGE('',*,*,#156,.T.);
#194=ORIENTED_EDGE('',*,*,#159,.T.);
#195=ORIENTED_EDGE('',*,*,#160,.T.);
#196=ORIENTED_EDGE('',*,*,#161,.T.);
#197=ORIENTED_EDGE('',*,*,#162,.T.);
#198=ORIENTED_EDGE('',*,*,#163,.T.);
#199=ORIENTED_EDGE('',*,*,#164,.T.);
#200=ORIENTED_EDGE('',*,*,#158,.T.);
#201=ORIENTED_EDGE('',*,*,#165,.T.);
#202=ORIENTED_EDGE('',*,*,#166,.T.);
#203=ORIENTED_EDGE('',*,*,#167,.T.);
#204=ORIENTED_EDGE('',*,*,#168,.F.);
#205=ORIENTED_EDGE('',*,*,#169,.F.);
#206=ORIENTED_EDGE('',*,*,#168,.T.);
#207=ORIENTED_EDGE('',*,*,#169,.T.);
#208=ORIENTED_EDGE('',*,*,#170,.F.);
#209=ORIENTED_EDGE('',*,*,#171,.T.);
#210=ORIENTED_EDGE('',*,*,#172,.T.);
#211=ORIENTED_EDGE('',*,*,#173,.T.);
#212=ORIENTED_EDGE('',*,*,#174,.T.);
#213=ORIENTED_EDGE('',*,*,#175,.T.);
#214=ORIENTED_EDGE('',*,*,#176,.T.);
#215=ORIENTED_EDGE('',*,*,#177,.T.);
#216=ORIENTED_EDGE('',*,*,#178,.T.);
#217=ORIENTED_EDGE('',*,*,#179,.F.);
#218=ORIENTED_EDGE('',*,*,#167,.F.);
#219=ORIENTED_EDGE('',*,*,#180,.T.);
#220=ORIENTED_EDGE('',*,*,#172,.F.);
#221=ORIENTED_EDGE('',*,*,#180,.F.);
#222=ORIENTED_EDGE('',*,*,#166,.F.);
#223=ORIENTED_EDGE('',*,*,#181,.T.);
#224=ORIENTED_EDGE('',*,*,#173,.F.);
#225=ORIENTED_EDGE('',*,*,#181,.F.);
#226=ORIENTED_EDGE('',*,*,#165,.F.);
#227=ORIENTED_EDGE('',*,*,#164,.F.);
#228=ORIENTED_EDGE('',*,*,#182,.T.);
#229=ORIENTED_EDGE('',*,*,#174,.F.);
#230=ORIENTED_EDGE('',*,*,#170,.T.);
#231=ORIENTED_EDGE('',*,*,#182,.F.);
#232=ORIENTED_EDGE('',*,*,#163,.F.);
#233=ORIENTED_EDGE('',*,*,#183,.T.);
#234=ORIENTED_EDGE('',*,*,#175,.F.);
#235=ORIENTED_EDGE('',*,*,#183,.F.);
#236=ORIENTED_EDGE('',*,*,#162,.F.);
#237=ORIENTED_EDGE('',*,*,#184,.T.);
#238=ORIENTED_EDGE('',*,*,#176,.F.);
#239=ORIENTED_EDGE('',*,*,#184,.F.);
#240=ORIENTED_EDGE('',*,*,#161,.F.);
#241=ORIENTED_EDGE('',*,*,#185,.T.);
#242=ORIENTED_EDGE('',*,*,#177,.F.);
#243=ORIENTED_EDGE('',*,*,#185,.F.);
#244=ORIENTED_EDGE('',*,*,#160,.F.);
#245=ORIENTED_EDGE('',*,*,#186,.F.);
#246=ORIENTED_EDGE('',*,*,#178,.F.);
#247=ORIENTED_EDGE('',*,*,#186,.T.);
#248=ORIENTED_EDGE('',*,*,#159,.F.);
#249=ORIENTED_EDGE('',*,*,#179,.T.);
#250=ORIENTED_EDGE('',*,*,#171,.F.);
#251=CYLINDRICAL_SURFACE('',#282,2.05);
#252=CYLINDRICAL_SURFACE('',#286,3.05);
#253=STYLED_ITEM('',(#476),#257);
#254=STYLED_ITEM('',(#476),#258);
#255=STYLED_ITEM('',(#477),#262);
#256=STYLED_ITEM('',(#475),#13);
#257=ADVANCED_FACE('',(#85,#79),#251,.T.);
#258=ADVANCED_FACE('',(#86),#66,.F.);
#259=ADVANCED_FACE('',(#87,#80),#252,.T.);
#260=ADVANCED_FACE('',(#88,#81),#67,.F.);
#261=ADVANCED_FACE('',(#89),#68,.T.);
#262=ADVANCED_FACE('',(#90),#15,.T.);
#263=ADVANCED_FACE('',(#91,#82),#69,.T.);
#264=ADVANCED_FACE('',(#92,#83),#14,.T.);
#265=ADVANCED_FACE('',(#93),#70,.T.);
#266=ADVANCED_FACE('',(#94),#71,.T.);
#267=ADVANCED_FACE('',(#95),#72,.T.);
#268=ADVANCED_FACE('',(#96,#84),#73,.T.);
#269=ADVANCED_FACE('',(#97),#74,.T.);
#270=ADVANCED_FACE('',(#98),#75,.T.);
#271=ADVANCED_FACE('',(#99),#76,.T.);
#272=ADVANCED_FACE('',(#100),#77,.T.);
#273=ADVANCED_FACE('',(#101),#78,.T.);
#274=CLOSED_SHELL('',(#257,#258,#259,#260,#261,#262,#263,#264,#265,#266,
#267,#268,#269,#270,#271,#272,#273));
#275=DATE_TIME_ROLE('creation_date');
#276=APPLIED_DATE_AND_TIME_ASSIGNMENT(#277,#275,(#468));
#277=DATE_AND_TIME(#278,#279);
#278=CALENDAR_DATE(2015,14,9);
#279=LOCAL_TIME(14,24,29.,#280);
#280=COORDINATED_UNIVERSAL_TIME_OFFSET(0,0,.BEHIND.);
#281=AXIS2_PLACEMENT_3D('placement',#381,#306,#307);
#282=AXIS2_PLACEMENT_3D('',#382,#308,#309);
#283=AXIS2_PLACEMENT_3D('',#384,#310,#311);
#284=AXIS2_PLACEMENT_3D('',#386,#312,#313);
#285=AXIS2_PLACEMENT_3D('',#387,#314,#315);
#286=AXIS2_PLACEMENT_3D('',#388,#316,#317);
#287=AXIS2_PLACEMENT_3D('',#390,#318,#319);
#288=AXIS2_PLACEMENT_3D('',#392,#320,#321);
#289=AXIS2_PLACEMENT_3D('',#393,#322,#323);
#290=AXIS2_PLACEMENT_3D('',#394,#324,#325);
#291=AXIS2_PLACEMENT_3D('',#412,#335,#336);
#292=AXIS2_PLACEMENT_3D('',#414,#337,#338);
#293=AXIS2_PLACEMENT_3D('',#415,#339,#340);
#294=AXIS2_PLACEMENT_3D('',#417,#341,#342);
#295=AXIS2_PLACEMENT_3D('',#418,#343,#344);
#296=AXIS2_PLACEMENT_3D('',#420,#345,#346);
#297=AXIS2_PLACEMENT_3D('',#421,#347,#348);
#298=AXIS2_PLACEMENT_3D('',#438,#357,#358);
#299=AXIS2_PLACEMENT_3D('',#441,#361,#362);
#300=AXIS2_PLACEMENT_3D('',#443,#364,#365);
#301=AXIS2_PLACEMENT_3D('',#445,#367,#368);
#302=AXIS2_PLACEMENT_3D('',#447,#370,#371);
#303=AXIS2_PLACEMENT_3D('',#449,#373,#374);
#304=AXIS2_PLACEMENT_3D('',#451,#376,#377);
#305=AXIS2_PLACEMENT_3D('',#453,#379,#380);
#306=DIRECTION('axis',(0.,0.,1.));
#307=DIRECTION('refdir',(1.,0.,0.));
#308=DIRECTION('center_axis',(0.,0.,-1.));
#309=DIRECTION('ref_axis',(1.,0.,0.));
#310=DIRECTION('center_axis',(0.,0.,-1.));
#311=DIRECTION('ref_axis',(1.,0.,0.));
#312=DIRECTION('center_axis',(0.,0.,1.));
#313=DIRECTION('ref_axis',(1.,0.,0.));
#314=DIRECTION('center_axis',(0.,0.,1.));
#315=DIRECTION('ref_axis',(1.,0.,0.));
#316=DIRECTION('center_axis',(0.,0.,-1.));
#317=DIRECTION('ref_axis',(1.,0.,0.));
#318=DIRECTION('center_axis',(0.,0.,-1.));
#319=DIRECTION('ref_axis',(1.,0.,0.));
#320=DIRECTION('center_axis',(0.,0.,1.));
#321=DIRECTION('ref_axis',(1.,0.,0.));
#322=DIRECTION('center_axis',(0.,0.,1.));
#323=DIRECTION('ref_axis',(1.,0.,0.));
#324=DIRECTION('center_axis',(0.,0.,-1.));
#325=DIRECTION('ref_axis',(-1.,0.,0.));
#326=DIRECTION('',(0.,-1.,0.));
#327=DIRECTION('',(-1.,0.,0.));
#328=DIRECTION('',(0.,1.,0.));
#329=DIRECTION('',(1.,-9.51619735392991E-16,0.));
#330=DIRECTION('',(-2.22044604925031E-16,1.,0.));
#331=DIRECTION('',(1.,0.,0.));
#332=DIRECTION('',(1.,0.,0.));
#333=DIRECTION('',(-1.11022302462516E-16,-1.,0.));
#334=DIRECTION('',(1.,0.,0.));
#335=DIRECTION('center_axis',(0.,1.,-6.12323399573677E-17));
#336=DIRECTION('ref_axis',(0.,0.,-1.));
#337=DIRECTION('center_axis',(0.,-1.,0.));
#338=DIRECTION('ref_axis',(1.,0.,0.));
#339=DIRECTION('center_axis',(0.,1.,0.));
#340=DIRECTION('ref_axis',(0.,0.,1.));
#341=DIRECTION('center_axis',(0.,-1.,0.));
#342=DIRECTION('ref_axis',(1.,0.,0.));
#343=DIRECTION('center_axis',(0.,-1.,0.));
#344=DIRECTION('ref_axis',(1.,0.,0.));
#345=DIRECTION('center_axis',(0.,-1.,0.));
#346=DIRECTION('ref_axis',(1.,0.,0.));
#347=DIRECTION('center_axis',(0.,0.,1.));
#348=DIRECTION('ref_axis',(1.,0.,0.));
#349=DIRECTION('',(0.,1.,0.));
#350=DIRECTION('',(-1.,0.,0.));
#351=DIRECTION('',(1.11022302462516E-16,1.,0.));
#352=DIRECTION('',(-1.,0.,0.));
#353=DIRECTION('',(2.22044604925031E-16,-1.,0.));
#354=DIRECTION('',(-1.,9.51619735392991E-16,0.));
#355=DIRECTION('',(0.,-1.,0.));
#356=DIRECTION('',(1.,0.,0.));
#357=DIRECTION('center_axis',(0.,1.,0.));
#358=DIRECTION('ref_axis',(1.,0.,0.));
#359=DIRECTION('',(0.,0.,1.));
#360=DIRECTION('',(0.,0.,1.));
#361=DIRECTION('center_axis',(1.,-1.11022302462516E-16,0.));
#362=DIRECTION('ref_axis',(-8.88178419700125E-17,-1.,0.));
#363=DIRECTION('',(0.,0.,1.));
#364=DIRECTION('center_axis',(0.,1.,0.));
#365=DIRECTION('ref_axis',(1.,0.,0.));
#366=DIRECTION('',(0.,0.,1.));
#367=DIRECTION('center_axis',(-1.,-2.22044604925031E-16,0.));
#368=DIRECTION('ref_axis',(-1.77635683940025E-16,1.,0.));
#369=DIRECTION('',(0.,0.,1.));
#370=DIRECTION('center_axis',(9.51619735392991E-16,1.,0.));
#371=DIRECTION('ref_axis',(1.,-9.32587340685132E-16,0.));
#372=DIRECTION('',(0.,0.,1.));
#373=DIRECTION('center_axis',(-1.,0.,0.));
#374=DIRECTION('ref_axis',(0.,1.,0.));
#375=DIRECTION('',(0.,0.,1.));
#376=DIRECTION('center_axis',(0.,-1.,0.));
#377=DIRECTION('ref_axis',(-1.,0.,0.));
#378=DIRECTION('',(0.,0.,-1.));
#379=DIRECTION('center_axis',(1.,0.,0.));
#380=DIRECTION('ref_axis',(0.,-1.,0.));
#381=CARTESIAN_POINT('',(0.,0.,0.));
#382=CARTESIAN_POINT('Origin',(0.,9.95,-7.));
#383=CARTESIAN_POINT('',(-2.05,9.95,-22.));
#384=CARTESIAN_POINT('Origin',(0.,9.95,-22.));
#385=CARTESIAN_POINT('',(-2.05,9.95,-12.));
#386=CARTESIAN_POINT('Origin',(0.,9.95,-12.));
#387=CARTESIAN_POINT('Origin',(7.73348210619155E-17,9.95,-22.));
#388=CARTESIAN_POINT('Origin',(0.,9.95,-7.));
#389=CARTESIAN_POINT('',(-3.05,9.95,-12.));
#390=CARTESIAN_POINT('Origin',(0.,9.95,-12.));
#391=CARTESIAN_POINT('',(0.,13.,-7.));
#392=CARTESIAN_POINT('Origin',(0.,9.95,-7.));
#393=CARTESIAN_POINT('Origin',(3.11264394783286E-17,9.95,-12.));
#394=CARTESIAN_POINT('Origin',(0.,5.8859649122807,-7.));
#395=CARTESIAN_POINT('',(7.75,3.,-7.));
#396=CARTESIAN_POINT('',(7.75,0.,-7.));
#397=CARTESIAN_POINT('',(7.75,0.,-7.));
#398=CARTESIAN_POINT('',(-7.75,0.,-7.));
#399=CARTESIAN_POINT('',(-7.75,0.,-7.));
#400=CARTESIAN_POINT('',(-7.75,3.,-7.));
#401=CARTESIAN_POINT('',(-7.75,3.,-7.));
#402=CARTESIAN_POINT('',(-6.,3.,-7.));
#403=CARTESIAN_POINT('',(-6.,3.,-7.));
#404=CARTESIAN_POINT('',(-6.,13.,-7.));
#405=CARTESIAN_POINT('',(-6.,13.,-7.));
#406=CARTESIAN_POINT('',(6.,13.,-7.));
#407=CARTESIAN_POINT('',(6.,13.,-7.));
#408=CARTESIAN_POINT('',(6.,13.,-7.));
#409=CARTESIAN_POINT('',(6.,3.,-7.));
#410=CARTESIAN_POINT('',(6.,3.,-7.));
#411=CARTESIAN_POINT('',(7.75,3.,-7.));
#412=CARTESIAN_POINT('Origin',(0.,13.5,0.));
#413=CARTESIAN_POINT('',(1.,13.5,0.));
#414=CARTESIAN_POINT('Origin',(0.,13.5,0.));
#415=CARTESIAN_POINT('Origin',(1.75,13.5,0.));
#416=CARTESIAN_POINT('',(1.75,13.5,0.));
#417=CARTESIAN_POINT('Origin',(0.,13.5,0.));
#418=CARTESIAN_POINT('Origin',(0.,13.25,0.));
#419=CARTESIAN_POINT('',(2.25,13.,0.));
#420=CARTESIAN_POINT('Origin',(0.,13.,0.));
#421=CARTESIAN_POINT('Origin',(0.,5.8859649122807,20.));
#422=CARTESIAN_POINT('',(7.75,0.,20.));
#423=CARTESIAN_POINT('',(7.75,3.,20.));
#424=CARTESIAN_POINT('',(7.75,0.,20.));
#425=CARTESIAN_POINT('',(6.,3.,20.));
#426=CARTESIAN_POINT('',(7.75,3.,20.));
#427=CARTESIAN_POINT('',(6.,13.,20.));
#428=CARTESIAN_POINT('',(6.,3.,20.));
#429=CARTESIAN_POINT('',(-6.,13.,20.));
#430=CARTESIAN_POINT('',(6.,13.,20.));
#431=CARTESIAN_POINT('',(-6.,3.,20.));
#432=CARTESIAN_POINT('',(-6.,13.,20.));
#433=CARTESIAN_POINT('',(-7.75,3.,20.));
#434=CARTESIAN_POINT('',(-6.,3.,20.));
#435=CARTESIAN_POINT('',(-7.75,0.,20.));
#436=CARTESIAN_POINT('',(-7.75,3.,20.));
#437=CARTESIAN_POINT('',(-7.75,0.,20.));
#438=CARTESIAN_POINT('Origin',(6.,3.,0.));
#439=CARTESIAN_POINT('',(7.75,3.,0.));
#440=CARTESIAN_POINT('',(6.,3.,0.));
#441=CARTESIAN_POINT('Origin',(6.,13.,0.));
#442=CARTESIAN_POINT('',(6.,13.,0.));
#443=CARTESIAN_POINT('Origin',(-6.,13.,0.));
#444=CARTESIAN_POINT('',(-6.,13.,0.));
#445=CARTESIAN_POINT('Origin',(-6.,3.,0.));
#446=CARTESIAN_POINT('',(-6.,3.,0.));
#447=CARTESIAN_POINT('Origin',(-7.75,3.,0.));
#448=CARTESIAN_POINT('',(-7.75,3.,0.));
#449=CARTESIAN_POINT('Origin',(-7.75,0.,0.));
#450=CARTESIAN_POINT('',(-7.75,0.,0.));
#451=CARTESIAN_POINT('Origin',(7.75,0.,0.));
#452=CARTESIAN_POINT('',(7.75,0.,0.));
#453=CARTESIAN_POINT('Origin',(7.75,3.,0.));
#454=UNCERTAINTY_MEASURE_WITH_UNIT(LENGTH_MEASURE(0.01),#458,
'DISTANCE_ACCURACY_VALUE',
'Maximum model space distance between geometric entities at asserted c
onnectivities');
#455=UNCERTAINTY_MEASURE_WITH_UNIT(LENGTH_MEASURE(1.E-6),#458,
'DISTANCE_ACCURACY_VALUE',
'Maximum model space distance between geometric entities at asserted c
onnectivities');
#456=(
GEOMETRIC_REPRESENTATION_CONTEXT(3)
GLOBAL_UNCERTAINTY_ASSIGNED_CONTEXT((#454))
GLOBAL_UNIT_ASSIGNED_CONTEXT((#458,#461,#459))
REPRESENTATION_CONTEXT('','3D')
);
#457=(
GEOMETRIC_REPRESENTATION_CONTEXT(3)
GLOBAL_UNCERTAINTY_ASSIGNED_CONTEXT((#455))
GLOBAL_UNIT_ASSIGNED_CONTEXT((#458,#461,#459))
REPRESENTATION_CONTEXT('','3D')
);
#458=(
LENGTH_UNIT()
NAMED_UNIT(*)
SI_UNIT(.MILLI.,.METRE.)
);
#459=(
NAMED_UNIT(*)
SI_UNIT($,.STERADIAN.)
SOLID_ANGLE_UNIT()
);
#460=DIMENSIONAL_EXPONENTS(0.,0.,0.,0.,0.,0.,0.);
#461=(
CONVERSION_BASED_UNIT('degree',#463)
NAMED_UNIT(#460)
PLANE_ANGLE_UNIT()
);
#462=(
NAMED_UNIT(*)
PLANE_ANGLE_UNIT()
SI_UNIT($,.RADIAN.)
);
#463=PLANE_ANGLE_MEASURE_WITH_UNIT(PLANE_ANGLE_MEASURE(0.01745329252),#462);
#464=SHAPE_DEFINITION_REPRESENTATION(#465,#466);
#465=PRODUCT_DEFINITION_SHAPE('',$,#468);
#466=SHAPE_REPRESENTATION('',(#281),#456);
#467=PRODUCT_DEFINITION_CONTEXT('part definition',#472,'design');
#468=PRODUCT_DEFINITION('1500_HAP','1500_HAP',#469,#467);
#469=PRODUCT_DEFINITION_FORMATION('',$,#474);
#470=PRODUCT_RELATED_PRODUCT_CATEGORY('1500_HAP','1500_HAP',(#474));
#471=APPLICATION_PROTOCOL_DEFINITION('international standard',
'automotive_design',2009,#472);
#472=APPLICATION_CONTEXT(
'Core Data for Automotive Mechanical Design Process');
#473=PRODUCT_CONTEXT('part definition',#472,'mechanical');
#474=PRODUCT('1500_HAP','1500_HAP',$,(#473));
#475=PRESENTATION_STYLE_ASSIGNMENT((#478));
#476=PRESENTATION_STYLE_ASSIGNMENT((#479));
#477=PRESENTATION_STYLE_ASSIGNMENT((#480));
#478=SURFACE_STYLE_USAGE(.BOTH.,#481);
#479=SURFACE_STYLE_USAGE(.BOTH.,#482);
#480=SURFACE_STYLE_USAGE(.BOTH.,#483);
#481=SURFACE_SIDE_STYLE('',(#484));
#482=SURFACE_SIDE_STYLE('',(#485));
#483=SURFACE_SIDE_STYLE('',(#486));
#484=SURFACE_STYLE_FILL_AREA(#487);
#485=SURFACE_STYLE_FILL_AREA(#488);
#486=SURFACE_STYLE_FILL_AREA(#489);
#487=FILL_AREA_STYLE('',(#490));
#488=FILL_AREA_STYLE('',(#491));
#489=FILL_AREA_STYLE('',(#492));
#490=FILL_AREA_STYLE_COLOUR('',#493);
#491=FILL_AREA_STYLE_COLOUR('',#494);
#492=FILL_AREA_STYLE_COLOUR('',#495);
#493=COLOUR_RGB('',0.749019607843137,0.749019607843137,0.749019607843137);
#494=COLOUR_RGB('',0.258823529411765,0.258823529411765,0.258823529411765);
#495=COLOUR_RGB('',1.,0.,0.);
ENDSEC;
END-ISO-10303-21;
