ISO-10303-21;
HEADER;
FILE_DESCRIPTION( ( 'STEP AP214' ), '1' );
FILE_NAME( 'p:/temp/worker_133/temp/exporttempdir_5772_53_DYcL9/format_0/1540.25.05_1F.stp', '2020-06-22T15:13:00', ( 'License CC BY-ND 4.0' ), ( 'CADENAS' ), ' ', 'PARTsolutions', ' ' );
FILE_SCHEMA( ( 'AUTOMOTIVE_DESIGN { 1 0 10303 214 1 1 1 1 }' ) );
ENDSEC;
DATA;
#1 = MECHANICAL_DESIGN_GEOMETRIC_PRESENTATION_REPRESENTATION( ' ', ( #10, #11, #12, #13, #14, #15, #16, #17, #18, #19, #20, #21, #22 ), #6 );
#2 = PRODUCT_DEFINITION_CONTEXT( '', #23, 'design' );
#3 = APPLICATION_PROTOCOL_DEFINITION( 'international standard', 'automotive_design', 2001, #23 );
#4 = PRODUCT_CATEGORY_RELATIONSHIP( 'NONE', 'NONE', #24, #25 );
#5 = SHAPE_DEFINITION_REPRESENTATION( #26, #27 );
#6 =  ( GEOMETRIC_REPRESENTATION_CONTEXT( 3 )GLOBAL_UNCERTAINTY_ASSIGNED_CONTEXT( ( #30 ) )GLOBAL_UNIT_ASSIGNED_CONTEXT( ( #32, #33, #34 ) )REPRESENTATION_CONTEXT( 'NONE', 'WORKSPACE' ) );
#10 = STYLED_ITEM( '', ( #36 ), #37 );
#11 = STYLED_ITEM( '', ( #38 ), #39 );
#12 = STYLED_ITEM( '', ( #40 ), #41 );
#13 = STYLED_ITEM( '', ( #42 ), #43 );
#14 = STYLED_ITEM( '', ( #44 ), #45 );
#15 = STYLED_ITEM( '', ( #46 ), #47 );
#16 = STYLED_ITEM( '', ( #48 ), #49 );
#17 = STYLED_ITEM( '', ( #50 ), #51 );
#18 = STYLED_ITEM( '', ( #52 ), #53 );
#19 = STYLED_ITEM( '', ( #54 ), #55 );
#20 = STYLED_ITEM( '', ( #56 ), #57 );
#21 = STYLED_ITEM( '', ( #58 ), #59 );
#22 = STYLED_ITEM( '', ( #60 ), #61 );
#23 = APPLICATION_CONTEXT( 'core data for automotive mechanical design processes' );
#24 = PRODUCT_CATEGORY( 'part', 'NONE' );
#25 = PRODUCT_RELATED_PRODUCT_CATEGORY( 'detail', ' ', ( #62 ) );
#26 = PRODUCT_DEFINITION_SHAPE( 'NONE', 'NONE', #63 );
#27 = ADVANCED_BREP_SHAPE_REPRESENTATION( '_1540.25.05/1F', ( #64, #65 ), #6 );
#30 = UNCERTAINTY_MEASURE_WITH_UNIT( LENGTH_MEASURE( 0.00100000000000000 ), #32, '', '' );
#32 =  ( CONVERSION_BASED_UNIT( 'MILLIMETRE', #68 )LENGTH_UNIT(  )NAMED_UNIT( #71 ) );
#33 =  ( NAMED_UNIT( #73 )PLANE_ANGLE_UNIT(  )SI_UNIT( $, .RADIAN. ) );
#34 =  ( NAMED_UNIT( #73 )SI_UNIT( $, .STERADIAN. )SOLID_ANGLE_UNIT(  ) );
#36 = PRESENTATION_STYLE_ASSIGNMENT( ( #79 ) );
#37 = ADVANCED_FACE( '', ( #80, #81, #82 ), #83, .F. );
#38 = PRESENTATION_STYLE_ASSIGNMENT( ( #84 ) );
#39 = ADVANCED_FACE( '', ( #85 ), #86, .T. );
#40 = PRESENTATION_STYLE_ASSIGNMENT( ( #87 ) );
#41 = ADVANCED_FACE( '', ( #88, #89, #90 ), #91, .F. );
#42 = PRESENTATION_STYLE_ASSIGNMENT( ( #92 ) );
#43 = ADVANCED_FACE( '', ( #93, #94 ), #95, .F. );
#44 = PRESENTATION_STYLE_ASSIGNMENT( ( #96 ) );
#45 = ADVANCED_FACE( '', ( #97, #98, #99 ), #100, .F. );
#46 = PRESENTATION_STYLE_ASSIGNMENT( ( #101 ) );
#47 = ADVANCED_FACE( '', ( #102, #103 ), #104, .F. );
#48 = PRESENTATION_STYLE_ASSIGNMENT( ( #105 ) );
#49 = ADVANCED_FACE( '', ( #106 ), #107, .F. );
#50 = PRESENTATION_STYLE_ASSIGNMENT( ( #108 ) );
#51 = ADVANCED_FACE( '', ( #109 ), #110, .F. );
#52 = PRESENTATION_STYLE_ASSIGNMENT( ( #111 ) );
#53 = ADVANCED_FACE( '', ( #112 ), #113, .F. );
#54 = PRESENTATION_STYLE_ASSIGNMENT( ( #114 ) );
#55 = ADVANCED_FACE( '', ( #115, #116 ), #117, .F. );
#56 = PRESENTATION_STYLE_ASSIGNMENT( ( #118 ) );
#57 = ADVANCED_FACE( '', ( #119 ), #120, .F. );
#58 = PRESENTATION_STYLE_ASSIGNMENT( ( #121 ) );
#59 = ADVANCED_FACE( '', ( #122, #123, #124 ), #125, .F. );
#60 = PRESENTATION_STYLE_ASSIGNMENT( ( #126 ) );
#61 = ADVANCED_FACE( '', ( #127, #128 ), #129, .F. );
#62 = PRODUCT( '_1540.25.05/1F', '_1540.25.05/1F', 'PART-_1540.25.05/1F-DESC', ( #130 ) );
#63 = PRODUCT_DEFINITION( 'NONE', 'NONE', #131, #2 );
#64 = MANIFOLD_SOLID_BREP( '_1540.25.05/1F', #132 );
#65 = AXIS2_PLACEMENT_3D( '', #133, #134, #135 );
#68 = LENGTH_MEASURE_WITH_UNIT( LENGTH_MEASURE( 1.00000000000000 ), #136 );
#71 = DIMENSIONAL_EXPONENTS( 1.00000000000000, 0.000000000000000, 0.000000000000000, 0.000000000000000, 0.000000000000000, 0.000000000000000, 0.000000000000000 );
#73 = DIMENSIONAL_EXPONENTS( 0.000000000000000, 0.000000000000000, 0.000000000000000, 0.000000000000000, 0.000000000000000, 0.000000000000000, 0.000000000000000 );
#79 = SURFACE_STYLE_USAGE( .BOTH., #137 );
#80 = FACE_BOUND( '', #138, .T. );
#81 = FACE_BOUND( '', #139, .T. );
#82 = FACE_OUTER_BOUND( '', #140, .T. );
#83 = PLANE( '', #141 );
#84 = SURFACE_STYLE_USAGE( .BOTH., #142 );
#85 = FACE_OUTER_BOUND( '', #143, .T. );
#86 = PLANE( '', #144 );
#87 = SURFACE_STYLE_USAGE( .BOTH., #145 );
#88 = FACE_BOUND( '', #146, .T. );
#89 = FACE_BOUND( '', #147, .T. );
#90 = FACE_OUTER_BOUND( '', #148, .T. );
#91 = PLANE( '', #149 );
#92 = SURFACE_STYLE_USAGE( .BOTH., #150 );
#93 = FACE_OUTER_BOUND( '', #151, .T. );
#94 = FACE_OUTER_BOUND( '', #152, .T. );
#95 = CYLINDRICAL_SURFACE( '', #153, 3.50000000000000 );
#96 = SURFACE_STYLE_USAGE( .BOTH., #154 );
#97 = FACE_BOUND( '', #155, .T. );
#98 = FACE_BOUND( '', #156, .T. );
#99 = FACE_OUTER_BOUND( '', #157, .T. );
#100 = PLANE( '', #158 );
#101 = SURFACE_STYLE_USAGE( .BOTH., #159 );
#102 = FACE_OUTER_BOUND( '', #160, .T. );
#103 = FACE_OUTER_BOUND( '', #161, .T. );
#104 = CYLINDRICAL_SURFACE( '', #162, 3.00000000000000 );
#105 = SURFACE_STYLE_USAGE( .BOTH., #163 );
#106 = FACE_OUTER_BOUND( '', #164, .T. );
#107 = PLANE( '', #165 );
#108 = SURFACE_STYLE_USAGE( .BOTH., #166 );
#109 = FACE_OUTER_BOUND( '', #167, .T. );
#110 = PLANE( '', #168 );
#111 = SURFACE_STYLE_USAGE( .BOTH., #169 );
#112 = FACE_OUTER_BOUND( '', #170, .T. );
#113 = PLANE( '', #171 );
#114 = SURFACE_STYLE_USAGE( .BOTH., #172 );
#115 = FACE_OUTER_BOUND( '', #173, .T. );
#116 = FACE_OUTER_BOUND( '', #174, .T. );
#117 = CYLINDRICAL_SURFACE( '', #175, 3.00000000000000 );
#118 = SURFACE_STYLE_USAGE( .BOTH., #176 );
#119 = FACE_OUTER_BOUND( '', #177, .T. );
#120 = CYLINDRICAL_SURFACE( '', #178, 1.60000000000000 );
#121 = SURFACE_STYLE_USAGE( .BOTH., #179 );
#122 = FACE_BOUND( '', #180, .T. );
#123 = FACE_BOUND( '', #181, .T. );
#124 = FACE_OUTER_BOUND( '', #182, .T. );
#125 = PLANE( '', #183 );
#126 = SURFACE_STYLE_USAGE( .BOTH., #184 );
#127 = FACE_OUTER_BOUND( '', #185, .T. );
#128 = FACE_OUTER_BOUND( '', #186, .T. );
#129 = CYLINDRICAL_SURFACE( '', #187, 3.50000000000000 );
#130 = PRODUCT_CONTEXT( '', #23, 'mechanical' );
#131 = PRODUCT_DEFINITION_FORMATION_WITH_SPECIFIED_SOURCE( ' ', 'NONE', #62, .NOT_KNOWN. );
#132 = CLOSED_SHELL( '', ( #59, #61, #37, #57, #55, #51, #39, #41, #49, #45, #53, #47, #43 ) );
#133 = CARTESIAN_POINT( '', ( 0.000000000000000, 0.000000000000000, 0.000000000000000 ) );
#134 = DIRECTION( '', ( 0.000000000000000, 0.000000000000000, 1.00000000000000 ) );
#135 = DIRECTION( '', ( 1.00000000000000, 0.000000000000000, 0.000000000000000 ) );
#136 =  ( LENGTH_UNIT(  )NAMED_UNIT( #71 )SI_UNIT( .MILLI., .METRE. ) );
#137 = SURFACE_SIDE_STYLE( '', ( #189 ) );
#138 = EDGE_LOOP( '', ( #190 ) );
#139 = EDGE_LOOP( '', ( #191 ) );
#140 = EDGE_LOOP( '', ( #192, #193, #194, #195 ) );
#141 = AXIS2_PLACEMENT_3D( '', #196, #197, #198 );
#142 = SURFACE_SIDE_STYLE( '', ( #199 ) );
#143 = EDGE_LOOP( '', ( #200, #201, #202, #203, #204, #205, #206 ) );
#144 = AXIS2_PLACEMENT_3D( '', #207, #208, #209 );
#145 = SURFACE_SIDE_STYLE( '', ( #210 ) );
#146 = EDGE_LOOP( '', ( #211 ) );
#147 = EDGE_LOOP( '', ( #212 ) );
#148 = EDGE_LOOP( '', ( #213, #214, #215, #216 ) );
#149 = AXIS2_PLACEMENT_3D( '', #217, #218, #219 );
#150 = SURFACE_SIDE_STYLE( '', ( #220 ) );
#151 = EDGE_LOOP( '', ( #221 ) );
#152 = EDGE_LOOP( '', ( #222 ) );
#153 = AXIS2_PLACEMENT_3D( '', #223, #224, #225 );
#154 = SURFACE_SIDE_STYLE( '', ( #226 ) );
#155 = EDGE_LOOP( '', ( #227 ) );
#156 = EDGE_LOOP( '', ( #228 ) );
#157 = EDGE_LOOP( '', ( #229, #230, #231, #232 ) );
#158 = AXIS2_PLACEMENT_3D( '', #233, #234, #235 );
#159 = SURFACE_SIDE_STYLE( '', ( #236 ) );
#160 = EDGE_LOOP( '', ( #237 ) );
#161 = EDGE_LOOP( '', ( #238 ) );
#162 = AXIS2_PLACEMENT_3D( '', #239, #240, #241 );
#163 = SURFACE_SIDE_STYLE( '', ( #242 ) );
#164 = EDGE_LOOP( '', ( #243, #244, #245, #246 ) );
#165 = AXIS2_PLACEMENT_3D( '', #247, #248, #249 );
#166 = SURFACE_SIDE_STYLE( '', ( #250 ) );
#167 = EDGE_LOOP( '', ( #251, #252, #253, #254, #255, #256, #257 ) );
#168 = AXIS2_PLACEMENT_3D( '', #258, #259, #260 );
#169 = SURFACE_SIDE_STYLE( '', ( #261 ) );
#170 = EDGE_LOOP( '', ( #262, #263, #264, #265 ) );
#171 = AXIS2_PLACEMENT_3D( '', #266, #267, #268 );
#172 = SURFACE_SIDE_STYLE( '', ( #269 ) );
#173 = EDGE_LOOP( '', ( #270 ) );
#174 = EDGE_LOOP( '', ( #271 ) );
#175 = AXIS2_PLACEMENT_3D( '', #272, #273, #274 );
#176 = SURFACE_SIDE_STYLE( '', ( #275 ) );
#177 = EDGE_LOOP( '', ( #276, #277, #278, #279 ) );
#178 = AXIS2_PLACEMENT_3D( '', #280, #281, #282 );
#179 = SURFACE_SIDE_STYLE( '', ( #283 ) );
#180 = EDGE_LOOP( '', ( #284 ) );
#181 = EDGE_LOOP( '', ( #285 ) );
#182 = EDGE_LOOP( '', ( #286, #287, #288, #289 ) );
#183 = AXIS2_PLACEMENT_3D( '', #290, #291, #292 );
#184 = SURFACE_SIDE_STYLE( '', ( #293 ) );
#185 = EDGE_LOOP( '', ( #294 ) );
#186 = EDGE_LOOP( '', ( #295 ) );
#187 = AXIS2_PLACEMENT_3D( '', #296, #297, #298 );
#189 = SURFACE_STYLE_FILL_AREA( #299 );
#190 = ORIENTED_EDGE( '', *, *, #300, .T. );
#191 = ORIENTED_EDGE( '', *, *, #301, .T. );
#192 = ORIENTED_EDGE( '', *, *, #302, .T. );
#193 = ORIENTED_EDGE( '', *, *, #303, .F. );
#194 = ORIENTED_EDGE( '', *, *, #304, .F. );
#195 = ORIENTED_EDGE( '', *, *, #305, .T. );
#196 = CARTESIAN_POINT( '', ( 19.7500000000000, 0.000000000000000, 23.0000000000000 ) );
#197 = DIRECTION( '', ( -0.000000000000000, 1.00000000000000, 0.000000000000000 ) );
#198 = DIRECTION( '', ( 0.000000000000000, -0.000000000000000, 1.00000000000000 ) );
#199 = SURFACE_STYLE_FILL_AREA( #306 );
#200 = ORIENTED_EDGE( '', *, *, #307, .T. );
#201 = ORIENTED_EDGE( '', *, *, #308, .T. );
#202 = ORIENTED_EDGE( '', *, *, #309, .T. );
#203 = ORIENTED_EDGE( '', *, *, #310, .T. );
#204 = ORIENTED_EDGE( '', *, *, #304, .T. );
#205 = ORIENTED_EDGE( '', *, *, #311, .T. );
#206 = ORIENTED_EDGE( '', *, *, #312, .T. );
#207 = CARTESIAN_POINT( '', ( 19.7500000000000, 0.000000000000000, 0.000000000000000 ) );
#208 = DIRECTION( '', ( 1.00000000000000, 0.000000000000000, -0.000000000000000 ) );
#209 = DIRECTION( '', ( -0.000000000000000, 0.000000000000000, -1.00000000000000 ) );
#210 = SURFACE_STYLE_FILL_AREA( #313 );
#211 = ORIENTED_EDGE( '', *, *, #314, .F. );
#212 = ORIENTED_EDGE( '', *, *, #315, .F. );
#213 = ORIENTED_EDGE( '', *, *, #316, .T. );
#214 = ORIENTED_EDGE( '', *, *, #317, .T. );
#215 = ORIENTED_EDGE( '', *, *, #307, .F. );
#216 = ORIENTED_EDGE( '', *, *, #318, .T. );
#217 = CARTESIAN_POINT( '', ( 19.7500000000000, 20.0000000000000, 4.00000000000000 ) );
#218 = DIRECTION( '', ( 0.000000000000000, 0.000000000000000, -1.00000000000000 ) );
#219 = DIRECTION( '', ( -1.00000000000000, 0.000000000000000, 0.000000000000000 ) );
#220 = SURFACE_STYLE_FILL_AREA( #319 );
#221 = ORIENTED_EDGE( '', *, *, #320, .T. );
#222 = ORIENTED_EDGE( '', *, *, #300, .F. );
#223 = CARTESIAN_POINT( '', ( 13.0000000000000, 4.00000000000000, 16.0000000000000 ) );
#224 = DIRECTION( '', ( -0.000000000000000, 1.00000000000000, 0.000000000000000 ) );
#225 = DIRECTION( '', ( 0.000000000000000, 0.000000000000000, -1.00000000000000 ) );
#226 = SURFACE_STYLE_FILL_AREA( #321 );
#227 = ORIENTED_EDGE( '', *, *, #322, .T. );
#228 = ORIENTED_EDGE( '', *, *, #323, .T. );
#229 = ORIENTED_EDGE( '', *, *, #324, .T. );
#230 = ORIENTED_EDGE( '', *, *, #325, .F. );
#231 = ORIENTED_EDGE( '', *, *, #311, .F. );
#232 = ORIENTED_EDGE( '', *, *, #303, .T. );
#233 = CARTESIAN_POINT( '', ( 19.7500000000000, 0.000000000000000, 0.000000000000000 ) );
#234 = DIRECTION( '', ( 0.000000000000000, 0.000000000000000, 1.00000000000000 ) );
#235 = DIRECTION( '', ( 1.00000000000000, 0.000000000000000, -0.000000000000000 ) );
#236 = SURFACE_STYLE_FILL_AREA( #326 );
#237 = ORIENTED_EDGE( '', *, *, #314, .T. );
#238 = ORIENTED_EDGE( '', *, *, #322, .F. );
#239 = CARTESIAN_POINT( '', ( 13.0000000000000, 16.0000000000000, 4.00000000000000 ) );
#240 = DIRECTION( '', ( 0.000000000000000, -0.000000000000000, 1.00000000000000 ) );
#241 = DIRECTION( '', ( -1.00000000000000, 0.000000000000000, 0.000000000000000 ) );
#242 = SURFACE_STYLE_FILL_AREA( #327 );
#243 = ORIENTED_EDGE( '', *, *, #328, .T. );
#244 = ORIENTED_EDGE( '', *, *, #318, .F. );
#245 = ORIENTED_EDGE( '', *, *, #312, .F. );
#246 = ORIENTED_EDGE( '', *, *, #325, .T. );
#247 = CARTESIAN_POINT( '', ( 19.7500000000000, 20.0000000000000, 0.000000000000000 ) );
#248 = DIRECTION( '', ( 0.000000000000000, -1.00000000000000, 0.000000000000000 ) );
#249 = DIRECTION( '', ( 0.000000000000000, 0.000000000000000, -1.00000000000000 ) );
#250 = SURFACE_STYLE_FILL_AREA( #329 );
#251 = ORIENTED_EDGE( '', *, *, #330, .F. );
#252 = ORIENTED_EDGE( '', *, *, #331, .T. );
#253 = ORIENTED_EDGE( '', *, *, #316, .F. );
#254 = ORIENTED_EDGE( '', *, *, #328, .F. );
#255 = ORIENTED_EDGE( '', *, *, #324, .F. );
#256 = ORIENTED_EDGE( '', *, *, #302, .F. );
#257 = ORIENTED_EDGE( '', *, *, #332, .F. );
#258 = CARTESIAN_POINT( '', ( -19.7500000000000, 0.000000000000000, -0.000000000000000 ) );
#259 = DIRECTION( '', ( 1.00000000000000, 0.000000000000000, -0.000000000000000 ) );
#260 = DIRECTION( '', ( -0.000000000000000, 0.000000000000000, -1.00000000000000 ) );
#261 = SURFACE_STYLE_FILL_AREA( #333 );
#262 = ORIENTED_EDGE( '', *, *, #332, .T. );
#263 = ORIENTED_EDGE( '', *, *, #305, .F. );
#264 = ORIENTED_EDGE( '', *, *, #310, .F. );
#265 = ORIENTED_EDGE( '', *, *, #334, .T. );
#266 = CARTESIAN_POINT( '', ( 19.7500000000000, 4.00000000000000, 23.0000000000000 ) );
#267 = DIRECTION( '', ( 0.000000000000000, 0.000000000000000, -1.00000000000000 ) );
#268 = DIRECTION( '', ( -1.00000000000000, 0.000000000000000, 0.000000000000000 ) );
#269 = SURFACE_STYLE_FILL_AREA( #335 );
#270 = ORIENTED_EDGE( '', *, *, #315, .T. );
#271 = ORIENTED_EDGE( '', *, *, #323, .F. );
#272 = CARTESIAN_POINT( '', ( -13.0000000000000, 16.0000000000000, 4.00000000000000 ) );
#273 = DIRECTION( '', ( 0.000000000000000, -0.000000000000000, 1.00000000000000 ) );
#274 = DIRECTION( '', ( -1.00000000000000, 0.000000000000000, 0.000000000000000 ) );
#275 = SURFACE_STYLE_FILL_AREA( #336 );
#276 = ORIENTED_EDGE( '', *, *, #308, .F. );
#277 = ORIENTED_EDGE( '', *, *, #317, .F. );
#278 = ORIENTED_EDGE( '', *, *, #331, .F. );
#279 = ORIENTED_EDGE( '', *, *, #337, .F. );
#280 = CARTESIAN_POINT( '', ( 19.7500000000000, 5.60000000000000, 5.60000000000000 ) );
#281 = DIRECTION( '', ( -1.00000000000000, -0.000000000000000, -0.000000000000000 ) );
#282 = DIRECTION( '', ( 0.000000000000000, 0.000000000000000, -1.00000000000000 ) );
#283 = SURFACE_STYLE_FILL_AREA( #338 );
#284 = ORIENTED_EDGE( '', *, *, #320, .F. );
#285 = ORIENTED_EDGE( '', *, *, #339, .F. );
#286 = ORIENTED_EDGE( '', *, *, #309, .F. );
#287 = ORIENTED_EDGE( '', *, *, #337, .T. );
#288 = ORIENTED_EDGE( '', *, *, #330, .T. );
#289 = ORIENTED_EDGE( '', *, *, #334, .F. );
#290 = CARTESIAN_POINT( '', ( 19.7500000000000, 4.00000000000000, 4.00000000000000 ) );
#291 = DIRECTION( '', ( 0.000000000000000, -1.00000000000000, 0.000000000000000 ) );
#292 = DIRECTION( '', ( 0.000000000000000, 0.000000000000000, -1.00000000000000 ) );
#293 = SURFACE_STYLE_FILL_AREA( #340 );
#294 = ORIENTED_EDGE( '', *, *, #339, .T. );
#295 = ORIENTED_EDGE( '', *, *, #301, .F. );
#296 = CARTESIAN_POINT( '', ( -13.0000000000000, 4.00000000000000, 16.0000000000000 ) );
#297 = DIRECTION( '', ( -0.000000000000000, 1.00000000000000, 0.000000000000000 ) );
#298 = DIRECTION( '', ( 0.000000000000000, 0.000000000000000, -1.00000000000000 ) );
#299 = FILL_AREA_STYLE( '', ( #341 ) );
#300 = EDGE_CURVE( '', #342, #342, #343, .T. );
#301 = EDGE_CURVE( '', #344, #344, #345, .T. );
#302 = EDGE_CURVE( '', #346, #347, #348, .T. );
#303 = EDGE_CURVE( '', #349, #347, #350, .T. );
#304 = EDGE_CURVE( '', #351, #349, #352, .T. );
#305 = EDGE_CURVE( '', #351, #346, #353, .T. );
#306 = FILL_AREA_STYLE( '', ( #354 ) );
#307 = EDGE_CURVE( '', #355, #356, #357, .T. );
#308 = EDGE_CURVE( '', #356, #358, #359, .F. );
#309 = EDGE_CURVE( '', #358, #360, #361, .T. );
#310 = EDGE_CURVE( '', #360, #351, #362, .T. );
#311 = EDGE_CURVE( '', #349, #363, #364, .T. );
#312 = EDGE_CURVE( '', #363, #355, #365, .T. );
#313 = FILL_AREA_STYLE( '', ( #366 ) );
#314 = EDGE_CURVE( '', #367, #367, #368, .T. );
#315 = EDGE_CURVE( '', #369, #369, #370, .T. );
#316 = EDGE_CURVE( '', #371, #372, #373, .T. );
#317 = EDGE_CURVE( '', #372, #356, #374, .F. );
#318 = EDGE_CURVE( '', #355, #371, #375, .T. );
#319 = FILL_AREA_STYLE( '', ( #376 ) );
#320 = EDGE_CURVE( '', #377, #377, #378, .T. );
#321 = FILL_AREA_STYLE( '', ( #379 ) );
#322 = EDGE_CURVE( '', #380, #380, #381, .T. );
#323 = EDGE_CURVE( '', #382, #382, #383, .T. );
#324 = EDGE_CURVE( '', #347, #384, #385, .T. );
#325 = EDGE_CURVE( '', #363, #384, #386, .T. );
#326 = FILL_AREA_STYLE( '', ( #387 ) );
#327 = FILL_AREA_STYLE( '', ( #388 ) );
#328 = EDGE_CURVE( '', #384, #371, #389, .T. );
#329 = FILL_AREA_STYLE( '', ( #390 ) );
#330 = EDGE_CURVE( '', #391, #392, #393, .T. );
#331 = EDGE_CURVE( '', #391, #372, #394, .T. );
#332 = EDGE_CURVE( '', #392, #346, #395, .T. );
#333 = FILL_AREA_STYLE( '', ( #396 ) );
#334 = EDGE_CURVE( '', #360, #392, #397, .T. );
#335 = FILL_AREA_STYLE( '', ( #398 ) );
#336 = FILL_AREA_STYLE( '', ( #399 ) );
#337 = EDGE_CURVE( '', #358, #391, #400, .T. );
#338 = FILL_AREA_STYLE( '', ( #401 ) );
#339 = EDGE_CURVE( '', #402, #402, #403, .T. );
#340 = FILL_AREA_STYLE( '', ( #404 ) );
#341 = FILL_AREA_STYLE_COLOUR( '', #405 );
#342 = VERTEX_POINT( '', #406 );
#343 = CIRCLE( '', #407, 3.50000000000000 );
#344 = VERTEX_POINT( '', #408 );
#345 = CIRCLE( '', #409, 3.50000000000000 );
#346 = VERTEX_POINT( '', #410 );
#347 = VERTEX_POINT( '', #411 );
#348 = LINE( '', #412, #413 );
#349 = VERTEX_POINT( '', #414 );
#350 = LINE( '', #415, #416 );
#351 = VERTEX_POINT( '', #417 );
#352 = LINE( '', #418, #419 );
#353 = LINE( '', #420, #421 );
#354 = FILL_AREA_STYLE_COLOUR( '', #422 );
#355 = VERTEX_POINT( '', #423 );
#356 = VERTEX_POINT( '', #424 );
#357 = LINE( '', #425, #426 );
#358 = VERTEX_POINT( '', #427 );
#359 = CIRCLE( '', #428, 1.60000000000000 );
#360 = VERTEX_POINT( '', #429 );
#361 = LINE( '', #430, #431 );
#362 = LINE( '', #432, #433 );
#363 = VERTEX_POINT( '', #434 );
#364 = LINE( '', #435, #436 );
#365 = LINE( '', #437, #438 );
#366 = FILL_AREA_STYLE_COLOUR( '', #439 );
#367 = VERTEX_POINT( '', #440 );
#368 = CIRCLE( '', #441, 3.00000000000000 );
#369 = VERTEX_POINT( '', #442 );
#370 = CIRCLE( '', #443, 3.00000000000000 );
#371 = VERTEX_POINT( '', #444 );
#372 = VERTEX_POINT( '', #445 );
#373 = LINE( '', #446, #447 );
#374 = LINE( '', #448, #449 );
#375 = LINE( '', #450, #451 );
#376 = FILL_AREA_STYLE_COLOUR( '', #452 );
#377 = VERTEX_POINT( '', #453 );
#378 = CIRCLE( '', #454, 3.50000000000000 );
#379 = FILL_AREA_STYLE_COLOUR( '', #455 );
#380 = VERTEX_POINT( '', #456 );
#381 = CIRCLE( '', #457, 3.00000000000000 );
#382 = VERTEX_POINT( '', #458 );
#383 = CIRCLE( '', #459, 3.00000000000000 );
#384 = VERTEX_POINT( '', #460 );
#385 = LINE( '', #461, #462 );
#386 = LINE( '', #463, #464 );
#387 = FILL_AREA_STYLE_COLOUR( '', #465 );
#388 = FILL_AREA_STYLE_COLOUR( '', #466 );
#389 = LINE( '', #467, #468 );
#390 = FILL_AREA_STYLE_COLOUR( '', #469 );
#391 = VERTEX_POINT( '', #470 );
#392 = VERTEX_POINT( '', #471 );
#393 = LINE( '', #472, #473 );
#394 = CIRCLE( '', #474, 1.60000000000000 );
#395 = LINE( '', #475, #476 );
#396 = FILL_AREA_STYLE_COLOUR( '', #477 );
#397 = LINE( '', #478, #479 );
#398 = FILL_AREA_STYLE_COLOUR( '', #480 );
#399 = FILL_AREA_STYLE_COLOUR( '', #481 );
#400 = LINE( '', #482, #483 );
#401 = FILL_AREA_STYLE_COLOUR( '', #484 );
#402 = VERTEX_POINT( '', #485 );
#403 = CIRCLE( '', #486, 3.50000000000000 );
#404 = FILL_AREA_STYLE_COLOUR( '', #487 );
#405 = COLOUR_RGB( '', 0.000000000000000, 0.000000000000000, 0.000000000000000 );
#406 = CARTESIAN_POINT( '', ( 16.5000000000000, 0.000000000000000, 16.0000000000000 ) );
#407 = AXIS2_PLACEMENT_3D( '', #488, #489, #490 );
#408 = CARTESIAN_POINT( '', ( -9.50000000000000, 0.000000000000000, 16.0000000000000 ) );
#409 = AXIS2_PLACEMENT_3D( '', #491, #492, #493 );
#410 = CARTESIAN_POINT( '', ( -19.7500000000000, 0.000000000000000, 23.0000000000000 ) );
#411 = CARTESIAN_POINT( '', ( -19.7500000000000, 0.000000000000000, 0.000000000000000 ) );
#412 = CARTESIAN_POINT( '', ( -19.7500000000000, 0.000000000000000, 23.0000000000000 ) );
#413 = VECTOR( '', #494, 1000.00000000000 );
#414 = CARTESIAN_POINT( '', ( 19.7500000000000, 0.000000000000000, 0.000000000000000 ) );
#415 = CARTESIAN_POINT( '', ( 19.7500000000000, 0.000000000000000, 0.000000000000000 ) );
#416 = VECTOR( '', #495, 1000.00000000000 );
#417 = CARTESIAN_POINT( '', ( 19.7500000000000, 0.000000000000000, 23.0000000000000 ) );
#418 = CARTESIAN_POINT( '', ( 19.7500000000000, 0.000000000000000, 23.0000000000000 ) );
#419 = VECTOR( '', #496, 1000.00000000000 );
#420 = CARTESIAN_POINT( '', ( 19.7500000000000, 0.000000000000000, 23.0000000000000 ) );
#421 = VECTOR( '', #497, 1000.00000000000 );
#422 = COLOUR_RGB( '', 0.000000000000000, 0.000000000000000, 0.000000000000000 );
#423 = CARTESIAN_POINT( '', ( 19.7500000000000, 20.0000000000000, 4.00000000000000 ) );
#424 = CARTESIAN_POINT( '', ( 19.7500000000000, 5.60000000000000, 4.00000000000000 ) );
#425 = CARTESIAN_POINT( '', ( 19.7500000000000, 20.0000000000000, 4.00000000000000 ) );
#426 = VECTOR( '', #498, 1000.00000000000 );
#427 = CARTESIAN_POINT( '', ( 19.7500000000000, 4.00000000000000, 5.60000000000000 ) );
#428 = AXIS2_PLACEMENT_3D( '', #499, #500, #501 );
#429 = CARTESIAN_POINT( '', ( 19.7500000000000, 4.00000000000000, 23.0000000000000 ) );
#430 = CARTESIAN_POINT( '', ( 19.7500000000000, 4.00000000000000, 4.00000000000000 ) );
#431 = VECTOR( '', #502, 1000.00000000000 );
#432 = CARTESIAN_POINT( '', ( 19.7500000000000, 4.00000000000000, 23.0000000000000 ) );
#433 = VECTOR( '', #503, 1000.00000000000 );
#434 = CARTESIAN_POINT( '', ( 19.7500000000000, 20.0000000000000, 0.000000000000000 ) );
#435 = CARTESIAN_POINT( '', ( 19.7500000000000, 0.000000000000000, 0.000000000000000 ) );
#436 = VECTOR( '', #504, 1000.00000000000 );
#437 = CARTESIAN_POINT( '', ( 19.7500000000000, 20.0000000000000, 0.000000000000000 ) );
#438 = VECTOR( '', #505, 1000.00000000000 );
#439 = COLOUR_RGB( '', 0.000000000000000, 0.000000000000000, 0.000000000000000 );
#440 = CARTESIAN_POINT( '', ( 16.0000000000000, 16.0000000000000, 4.00000000000000 ) );
#441 = AXIS2_PLACEMENT_3D( '', #506, #507, #508 );
#442 = CARTESIAN_POINT( '', ( -10.0000000000000, 16.0000000000000, 4.00000000000000 ) );
#443 = AXIS2_PLACEMENT_3D( '', #509, #510, #511 );
#444 = CARTESIAN_POINT( '', ( -19.7500000000000, 20.0000000000000, 4.00000000000000 ) );
#445 = CARTESIAN_POINT( '', ( -19.7500000000000, 5.60000000000000, 4.00000000000000 ) );
#446 = CARTESIAN_POINT( '', ( -19.7500000000000, 20.0000000000000, 4.00000000000000 ) );
#447 = VECTOR( '', #512, 1000.00000000000 );
#448 = CARTESIAN_POINT( '', ( 19.7500000000000, 5.60000000000000, 4.00000000000000 ) );
#449 = VECTOR( '', #513, 1000.00000000000 );
#450 = CARTESIAN_POINT( '', ( 19.7500000000000, 20.0000000000000, 4.00000000000000 ) );
#451 = VECTOR( '', #514, 1000.00000000000 );
#452 = COLOUR_RGB( '', 0.000000000000000, 0.000000000000000, 0.000000000000000 );
#453 = CARTESIAN_POINT( '', ( 16.5000000000000, 4.00000000000000, 16.0000000000000 ) );
#454 = AXIS2_PLACEMENT_3D( '', #515, #516, #517 );
#455 = COLOUR_RGB( '', 0.000000000000000, 0.000000000000000, 0.000000000000000 );
#456 = CARTESIAN_POINT( '', ( 16.0000000000000, 16.0000000000000, 0.000000000000000 ) );
#457 = AXIS2_PLACEMENT_3D( '', #518, #519, #520 );
#458 = CARTESIAN_POINT( '', ( -10.0000000000000, 16.0000000000000, 0.000000000000000 ) );
#459 = AXIS2_PLACEMENT_3D( '', #521, #522, #523 );
#460 = CARTESIAN_POINT( '', ( -19.7500000000000, 20.0000000000000, 0.000000000000000 ) );
#461 = CARTESIAN_POINT( '', ( -19.7500000000000, 0.000000000000000, 0.000000000000000 ) );
#462 = VECTOR( '', #524, 1000.00000000000 );
#463 = CARTESIAN_POINT( '', ( 19.7500000000000, 20.0000000000000, 0.000000000000000 ) );
#464 = VECTOR( '', #525, 1000.00000000000 );
#465 = COLOUR_RGB( '', 0.000000000000000, 0.000000000000000, 0.000000000000000 );
#466 = COLOUR_RGB( '', 0.000000000000000, 0.000000000000000, 0.000000000000000 );
#467 = CARTESIAN_POINT( '', ( -19.7500000000000, 20.0000000000000, 0.000000000000000 ) );
#468 = VECTOR( '', #526, 1000.00000000000 );
#469 = COLOUR_RGB( '', 0.000000000000000, 0.000000000000000, 0.000000000000000 );
#470 = CARTESIAN_POINT( '', ( -19.7500000000000, 4.00000000000000, 5.60000000000000 ) );
#471 = CARTESIAN_POINT( '', ( -19.7500000000000, 4.00000000000000, 23.0000000000000 ) );
#472 = CARTESIAN_POINT( '', ( -19.7500000000000, 4.00000000000000, 4.00000000000000 ) );
#473 = VECTOR( '', #527, 1000.00000000000 );
#474 = AXIS2_PLACEMENT_3D( '', #528, #529, #530 );
#475 = CARTESIAN_POINT( '', ( -19.7500000000000, 4.00000000000000, 23.0000000000000 ) );
#476 = VECTOR( '', #531, 1000.00000000000 );
#477 = COLOUR_RGB( '', 0.000000000000000, 0.000000000000000, 0.000000000000000 );
#478 = CARTESIAN_POINT( '', ( 19.7500000000000, 4.00000000000000, 23.0000000000000 ) );
#479 = VECTOR( '', #532, 1000.00000000000 );
#480 = COLOUR_RGB( '', 0.000000000000000, 0.000000000000000, 0.000000000000000 );
#481 = COLOUR_RGB( '', 0.000000000000000, 0.000000000000000, 0.000000000000000 );
#482 = CARTESIAN_POINT( '', ( -19.7500000000000, 4.00000000000000, 5.60000000000000 ) );
#483 = VECTOR( '', #533, 1000.00000000000 );
#484 = COLOUR_RGB( '', 0.000000000000000, 0.000000000000000, 0.000000000000000 );
#485 = CARTESIAN_POINT( '', ( -9.50000000000000, 4.00000000000000, 16.0000000000000 ) );
#486 = AXIS2_PLACEMENT_3D( '', #534, #535, #536 );
#487 = COLOUR_RGB( '', 0.000000000000000, 0.000000000000000, 0.000000000000000 );
#488 = CARTESIAN_POINT( '', ( 13.0000000000000, 0.000000000000000, 16.0000000000000 ) );
#489 = DIRECTION( '', ( -0.000000000000000, 1.00000000000000, 0.000000000000000 ) );
#490 = DIRECTION( '', ( 1.00000000000000, 0.000000000000000, 0.000000000000000 ) );
#491 = CARTESIAN_POINT( '', ( -13.0000000000000, 0.000000000000000, 16.0000000000000 ) );
#492 = DIRECTION( '', ( -0.000000000000000, 1.00000000000000, 0.000000000000000 ) );
#493 = DIRECTION( '', ( 1.00000000000000, 0.000000000000000, 0.000000000000000 ) );
#494 = DIRECTION( '', ( 0.000000000000000, 0.000000000000000, -1.00000000000000 ) );
#495 = DIRECTION( '', ( -1.00000000000000, -0.000000000000000, -0.000000000000000 ) );
#496 = DIRECTION( '', ( 0.000000000000000, 0.000000000000000, -1.00000000000000 ) );
#497 = DIRECTION( '', ( -1.00000000000000, -0.000000000000000, -0.000000000000000 ) );
#498 = DIRECTION( '', ( 0.000000000000000, -1.00000000000000, 0.000000000000000 ) );
#499 = CARTESIAN_POINT( '', ( 19.7500000000000, 5.60000000000000, 5.60000000000000 ) );
#500 = DIRECTION( '', ( 1.00000000000000, 0.000000000000000, -0.000000000000000 ) );
#501 = DIRECTION( '', ( -0.000000000000000, 0.000000000000000, -1.00000000000000 ) );
#502 = DIRECTION( '', ( 0.000000000000000, 0.000000000000000, 1.00000000000000 ) );
#503 = DIRECTION( '', ( 0.000000000000000, -1.00000000000000, 0.000000000000000 ) );
#504 = DIRECTION( '', ( 0.000000000000000, 1.00000000000000, 0.000000000000000 ) );
#505 = DIRECTION( '', ( 0.000000000000000, 0.000000000000000, 1.00000000000000 ) );
#506 = CARTESIAN_POINT( '', ( 13.0000000000000, 16.0000000000000, 4.00000000000000 ) );
#507 = DIRECTION( '', ( 0.000000000000000, 0.000000000000000, 1.00000000000000 ) );
#508 = DIRECTION( '', ( 1.00000000000000, 0.000000000000000, 0.000000000000000 ) );
#509 = CARTESIAN_POINT( '', ( -13.0000000000000, 16.0000000000000, 4.00000000000000 ) );
#510 = DIRECTION( '', ( 0.000000000000000, 0.000000000000000, 1.00000000000000 ) );
#511 = DIRECTION( '', ( 1.00000000000000, 0.000000000000000, 0.000000000000000 ) );
#512 = DIRECTION( '', ( 0.000000000000000, -1.00000000000000, 0.000000000000000 ) );
#513 = DIRECTION( '', ( -1.00000000000000, 0.000000000000000, 0.000000000000000 ) );
#514 = DIRECTION( '', ( -1.00000000000000, -0.000000000000000, -0.000000000000000 ) );
#515 = CARTESIAN_POINT( '', ( 13.0000000000000, 4.00000000000000, 16.0000000000000 ) );
#516 = DIRECTION( '', ( -0.000000000000000, 1.00000000000000, 0.000000000000000 ) );
#517 = DIRECTION( '', ( 1.00000000000000, 0.000000000000000, 0.000000000000000 ) );
#518 = CARTESIAN_POINT( '', ( 13.0000000000000, 16.0000000000000, 0.000000000000000 ) );
#519 = DIRECTION( '', ( 0.000000000000000, 0.000000000000000, 1.00000000000000 ) );
#520 = DIRECTION( '', ( 1.00000000000000, 0.000000000000000, 0.000000000000000 ) );
#521 = CARTESIAN_POINT( '', ( -13.0000000000000, 16.0000000000000, 0.000000000000000 ) );
#522 = DIRECTION( '', ( 0.000000000000000, 0.000000000000000, 1.00000000000000 ) );
#523 = DIRECTION( '', ( 1.00000000000000, 0.000000000000000, 0.000000000000000 ) );
#524 = DIRECTION( '', ( 0.000000000000000, 1.00000000000000, 0.000000000000000 ) );
#525 = DIRECTION( '', ( -1.00000000000000, -0.000000000000000, -0.000000000000000 ) );
#526 = DIRECTION( '', ( 0.000000000000000, 0.000000000000000, 1.00000000000000 ) );
#527 = DIRECTION( '', ( 0.000000000000000, 0.000000000000000, 1.00000000000000 ) );
#528 = CARTESIAN_POINT( '', ( -19.7500000000000, 5.60000000000000, 5.60000000000000 ) );
#529 = DIRECTION( '', ( 1.00000000000000, 0.000000000000000, -0.000000000000000 ) );
#530 = DIRECTION( '', ( -0.000000000000000, 0.000000000000000, -1.00000000000000 ) );
#531 = DIRECTION( '', ( 0.000000000000000, -1.00000000000000, 0.000000000000000 ) );
#532 = DIRECTION( '', ( -1.00000000000000, -0.000000000000000, -0.000000000000000 ) );
#533 = DIRECTION( '', ( -1.00000000000000, 0.000000000000000, 0.000000000000000 ) );
#534 = CARTESIAN_POINT( '', ( -13.0000000000000, 4.00000000000000, 16.0000000000000 ) );
#535 = DIRECTION( '', ( -0.000000000000000, 1.00000000000000, 0.000000000000000 ) );
#536 = DIRECTION( '', ( 1.00000000000000, 0.000000000000000, 0.000000000000000 ) );
ENDSEC;
END-ISO-10303-21;
