ISO-10303-21;
HEADER;
/* Generated by software containing ST-Developer
 * from STEP Tools, Inc. (www.steptools.com) 
 */

FILE_DESCRIPTION(
/* description */ ('SENSORE UNIV. Led 2mt. x CIL. S.STELO'),
/* implementation_level */ '2;1');

FILE_NAME(
/* name */ 
'C:\\PNX_VAULTFOLDER\\Area Tecnica\\Disegni\\VARIE-3D\\Componenti\\SEN
SORI\\1600_#.stp',
/* time_stamp */ '2017-11-06T09:57:31+01:00',
/* author */ ('Maniean1'),
/* organization */ ('Pneumax S.p.A.'),
/* preprocessor_version */ 'ST-DEVELOPER v16.5',
/* originating_system */ 'Autodesk Inventor 2017',
/* authorisation */ '');

FILE_SCHEMA (('AUTOMOTIVE_DESIGN { 1 0 10303 214 3 1 1 }'));
ENDSEC;

DATA;
#10=MECHANICAL_DESIGN_GEOMETRIC_PRESENTATION_REPRESENTATION('',(#13),#472);
#11=SHAPE_REPRESENTATION_RELATIONSHIP('SRR','None',#481,#12);
#12=ADVANCED_BREP_SHAPE_REPRESENTATION('',(#14),#471);
#13=STYLED_ITEM('',(#490),#14);
#14=MANIFOLD_SOLID_BREP('Solido1',#195);
#15=LINE('',#446,#27);
#16=LINE('',#448,#28);
#17=LINE('',#450,#29);
#18=LINE('',#451,#30);
#19=LINE('',#454,#31);
#20=LINE('',#456,#32);
#21=LINE('',#457,#33);
#22=LINE('',#460,#34);
#23=LINE('',#462,#35);
#24=LINE('',#463,#36);
#25=LINE('',#465,#37);
#26=LINE('',#466,#38);
#27=VECTOR('',#255,10.);
#28=VECTOR('',#256,10.);
#29=VECTOR('',#257,10.);
#30=VECTOR('',#258,10.);
#31=VECTOR('',#261,10.);
#32=VECTOR('',#262,10.);
#33=VECTOR('',#263,10.);
#34=VECTOR('',#266,10.);
#35=VECTOR('',#267,10.);
#36=VECTOR('',#268,10.);
#37=VECTOR('',#271,10.);
#38=VECTOR('',#272,10.);
#39=B_SPLINE_CURVE_WITH_KNOTS('',3,(#422,#423,#424,#425,#426,#427,#428,
#429,#430,#431,#432,#433,#434),.UNSPECIFIED.,.F.,.F.,(4,1,1,1,1,1,1,1,1,
1,4),(6.48624152062462E-9,0.0714285774515197,0.142857148416798,0.214285719382076,
0.285714290347354,0.428571432277911,0.571428574208467,0.714285716139024,
0.85714285806958,0.892857143552219,1.00000000000014),.UNSPECIFIED.);
#40=B_SPLINE_SURFACE_WITH_KNOTS('',3,3,((#289,#290,#291,#292,#293,#294,
#295,#296,#297,#298,#299,#300,#301),(#302,#303,#304,#305,#306,#307,#308,
#309,#310,#311,#312,#313,#314),(#315,#316,#317,#318,#319,#320,#321,#322,
#323,#324,#325,#326,#327),(#328,#329,#330,#331,#332,#333,#334,#335,#336,
#337,#338,#339,#340),(#341,#342,#343,#344,#345,#346,#347,#348,#349,#350,
#351,#352,#353),(#354,#355,#356,#357,#358,#359,#360,#361,#362,#363,#364,
#365,#366),(#367,#368,#369,#370,#371,#372,#373,#374,#375,#376,#377,#378,
#379),(#380,#381,#382,#383,#384,#385,#386,#387,#388,#389,#390,#391,#392),
(#393,#394,#395,#396,#397,#398,#399,#400,#401,#402,#403,#404,#405),(#406,
#407,#408,#409,#410,#411,#412,#413,#414,#415,#416,#417,#418)),
 .UNSPECIFIED.,.T.,.F.,.F.,(4,1,1,1,1,1,1,4),(4,1,1,1,1,1,1,1,1,1,4),(-3.1415926535898,
-2.24399475256414,-1.34639685153849,-0.44879895051283,0.448798950512826,
1.34639685153848,2.24399475256414,3.14159265358979),(0.,0.0714285714285812,
0.142857142857162,0.214285714285744,0.285714285714325,0.428571428571487,
0.571428571428649,0.714285714285812,0.857142857142974,0.892857142857265,
1.00000000000014),.UNSPECIFIED.);
#41=CYLINDRICAL_SURFACE('',#207,0.8);
#42=CYLINDRICAL_SURFACE('',#213,3.);
#43=PLANE('',#206);
#44=PLANE('',#212);
#45=PLANE('',#216);
#46=PLANE('',#217);
#47=PLANE('',#218);
#48=PLANE('',#219);
#49=PLANE('',#220);
#50=PLANE('',#221);
#51=PLANE('',#222);
#52=FACE_BOUND('',#74,.T.);
#53=FACE_BOUND('',#77,.T.);
#54=FACE_BOUND('',#81,.T.);
#55=FACE_BOUND('',#83,.T.);
#56=FACE_BOUND('',#85,.T.);
#57=FACE_BOUND('',#88,.T.);
#58=FACE_BOUND('',#89,.T.);
#59=FACE_BOUND('',#92,.T.);
#60=FACE_OUTER_BOUND('',#73,.T.);
#61=FACE_OUTER_BOUND('',#75,.T.);
#62=FACE_OUTER_BOUND('',#76,.T.);
#63=FACE_OUTER_BOUND('',#78,.T.);
#64=FACE_OUTER_BOUND('',#79,.T.);
#65=FACE_OUTER_BOUND('',#80,.T.);
#66=FACE_OUTER_BOUND('',#82,.T.);
#67=FACE_OUTER_BOUND('',#84,.T.);
#68=FACE_OUTER_BOUND('',#86,.T.);
#69=FACE_OUTER_BOUND('',#87,.T.);
#70=FACE_OUTER_BOUND('',#90,.T.);
#71=FACE_OUTER_BOUND('',#91,.T.);
#72=FACE_OUTER_BOUND('',#93,.T.);
#73=EDGE_LOOP('',(#139));
#74=EDGE_LOOP('',(#140));
#75=EDGE_LOOP('',(#141));
#76=EDGE_LOOP('',(#142));
#77=EDGE_LOOP('',(#143));
#78=EDGE_LOOP('',(#144,#145,#146,#147));
#79=EDGE_LOOP('',(#148));
#80=EDGE_LOOP('',(#149));
#81=EDGE_LOOP('',(#150));
#82=EDGE_LOOP('',(#151));
#83=EDGE_LOOP('',(#152));
#84=EDGE_LOOP('',(#153,#154,#155,#156));
#85=EDGE_LOOP('',(#157));
#86=EDGE_LOOP('',(#158,#159,#160,#161));
#87=EDGE_LOOP('',(#162,#163,#164,#165));
#88=EDGE_LOOP('',(#166));
#89=EDGE_LOOP('',(#167));
#90=EDGE_LOOP('',(#168,#169,#170,#171));
#91=EDGE_LOOP('',(#172,#173,#174,#175));
#92=EDGE_LOOP('',(#176));
#93=EDGE_LOOP('',(#177,#178,#179,#180));
#94=CIRCLE('',#204,1.34807621135332);
#95=CIRCLE('',#205,1.75);
#96=CIRCLE('',#208,0.8);
#97=CIRCLE('',#209,0.8);
#98=CIRCLE('',#210,2.);
#99=CIRCLE('',#211,2.);
#100=CIRCLE('',#214,3.);
#101=CIRCLE('',#215,3.);
#102=VERTEX_POINT('',#279);
#103=VERTEX_POINT('',#281);
#104=VERTEX_POINT('',#285);
#105=VERTEX_POINT('',#287);
#106=VERTEX_POINT('',#419);
#107=VERTEX_POINT('',#421);
#108=VERTEX_POINT('',#438);
#109=VERTEX_POINT('',#440);
#110=VERTEX_POINT('',#444);
#111=VERTEX_POINT('',#445);
#112=VERTEX_POINT('',#447);
#113=VERTEX_POINT('',#449);
#114=VERTEX_POINT('',#453);
#115=VERTEX_POINT('',#455);
#116=VERTEX_POINT('',#459);
#117=VERTEX_POINT('',#461);
#118=EDGE_CURVE('',#102,#102,#94,.F.);
#119=EDGE_CURVE('',#103,#103,#95,.T.);
#120=EDGE_CURVE('',#104,#104,#96,.T.);
#121=EDGE_CURVE('',#105,#105,#97,.T.);
#122=EDGE_CURVE('',#106,#106,#98,.T.);
#123=EDGE_CURVE('',#107,#106,#39,.T.);
#124=EDGE_CURVE('',#107,#107,#99,.T.);
#125=EDGE_CURVE('',#108,#108,#100,.T.);
#126=EDGE_CURVE('',#109,#109,#101,.T.);
#127=EDGE_CURVE('',#110,#111,#15,.T.);
#128=EDGE_CURVE('',#112,#111,#16,.T.);
#129=EDGE_CURVE('',#113,#112,#17,.T.);
#130=EDGE_CURVE('',#113,#110,#18,.T.);
#131=EDGE_CURVE('',#111,#114,#19,.T.);
#132=EDGE_CURVE('',#115,#114,#20,.T.);
#133=EDGE_CURVE('',#112,#115,#21,.T.);
#134=EDGE_CURVE('',#114,#116,#22,.T.);
#135=EDGE_CURVE('',#117,#116,#23,.T.);
#136=EDGE_CURVE('',#115,#117,#24,.T.);
#137=EDGE_CURVE('',#116,#110,#25,.T.);
#138=EDGE_CURVE('',#117,#113,#26,.T.);
#139=ORIENTED_EDGE('',*,*,#118,.T.);
#140=ORIENTED_EDGE('',*,*,#119,.F.);
#141=ORIENTED_EDGE('',*,*,#118,.F.);
#142=ORIENTED_EDGE('',*,*,#120,.F.);
#143=ORIENTED_EDGE('',*,*,#121,.F.);
#144=ORIENTED_EDGE('',*,*,#122,.T.);
#145=ORIENTED_EDGE('',*,*,#123,.F.);
#146=ORIENTED_EDGE('',*,*,#124,.F.);
#147=ORIENTED_EDGE('',*,*,#123,.T.);
#148=ORIENTED_EDGE('',*,*,#122,.F.);
#149=ORIENTED_EDGE('',*,*,#125,.T.);
#150=ORIENTED_EDGE('',*,*,#126,.F.);
#151=ORIENTED_EDGE('',*,*,#125,.F.);
#152=ORIENTED_EDGE('',*,*,#124,.T.);
#153=ORIENTED_EDGE('',*,*,#127,.T.);
#154=ORIENTED_EDGE('',*,*,#128,.F.);
#155=ORIENTED_EDGE('',*,*,#129,.F.);
#156=ORIENTED_EDGE('',*,*,#130,.T.);
#157=ORIENTED_EDGE('',*,*,#120,.T.);
#158=ORIENTED_EDGE('',*,*,#131,.T.);
#159=ORIENTED_EDGE('',*,*,#132,.F.);
#160=ORIENTED_EDGE('',*,*,#133,.F.);
#161=ORIENTED_EDGE('',*,*,#128,.T.);
#162=ORIENTED_EDGE('',*,*,#134,.T.);
#163=ORIENTED_EDGE('',*,*,#135,.F.);
#164=ORIENTED_EDGE('',*,*,#136,.F.);
#165=ORIENTED_EDGE('',*,*,#132,.T.);
#166=ORIENTED_EDGE('',*,*,#119,.T.);
#167=ORIENTED_EDGE('',*,*,#121,.T.);
#168=ORIENTED_EDGE('',*,*,#137,.T.);
#169=ORIENTED_EDGE('',*,*,#130,.F.);
#170=ORIENTED_EDGE('',*,*,#138,.F.);
#171=ORIENTED_EDGE('',*,*,#135,.T.);
#172=ORIENTED_EDGE('',*,*,#127,.F.);
#173=ORIENTED_EDGE('',*,*,#137,.F.);
#174=ORIENTED_EDGE('',*,*,#134,.F.);
#175=ORIENTED_EDGE('',*,*,#131,.F.);
#176=ORIENTED_EDGE('',*,*,#126,.T.);
#177=ORIENTED_EDGE('',*,*,#138,.T.);
#178=ORIENTED_EDGE('',*,*,#129,.T.);
#179=ORIENTED_EDGE('',*,*,#133,.T.);
#180=ORIENTED_EDGE('',*,*,#136,.T.);
#181=CONICAL_SURFACE('',#203,1.75,15.);
#182=ADVANCED_FACE('',(#60,#52),#181,.T.);
#183=ADVANCED_FACE('',(#61),#43,.F.);
#184=ADVANCED_FACE('',(#62,#53),#41,.F.);
#185=ADVANCED_FACE('',(#63),#40,.T.);
#186=ADVANCED_FACE('',(#64),#44,.F.);
#187=ADVANCED_FACE('',(#65,#54),#42,.T.);
#188=ADVANCED_FACE('',(#66,#55),#45,.F.);
#189=ADVANCED_FACE('',(#67,#56),#46,.T.);
#190=ADVANCED_FACE('',(#68),#47,.T.);
#191=ADVANCED_FACE('',(#69,#57,#58),#48,.T.);
#192=ADVANCED_FACE('',(#70),#49,.T.);
#193=ADVANCED_FACE('',(#71,#59),#50,.F.);
#194=ADVANCED_FACE('',(#72),#51,.T.);
#195=CLOSED_SHELL('',(#182,#183,#184,#185,#186,#187,#188,#189,#190,#191,
#192,#193,#194));
#196=DATE_TIME_ROLE('creation_date');
#197=APPLIED_DATE_AND_TIME_ASSIGNMENT(#198,#196,(#483));
#198=DATE_AND_TIME(#199,#200);
#199=CALENDAR_DATE(2017,6,11);
#200=LOCAL_TIME(8,56,30.,#201);
#201=COORDINATED_UNIVERSAL_TIME_OFFSET(0,0,.BEHIND.);
#202=AXIS2_PLACEMENT_3D('placement',#277,#223,#224);
#203=AXIS2_PLACEMENT_3D('',#278,#225,#226);
#204=AXIS2_PLACEMENT_3D('',#280,#227,#228);
#205=AXIS2_PLACEMENT_3D('',#282,#229,#230);
#206=AXIS2_PLACEMENT_3D('',#283,#231,#232);
#207=AXIS2_PLACEMENT_3D('',#284,#233,#234);
#208=AXIS2_PLACEMENT_3D('',#286,#235,#236);
#209=AXIS2_PLACEMENT_3D('',#288,#237,#238);
#210=AXIS2_PLACEMENT_3D('',#420,#239,#240);
#211=AXIS2_PLACEMENT_3D('',#435,#241,#242);
#212=AXIS2_PLACEMENT_3D('',#436,#243,#244);
#213=AXIS2_PLACEMENT_3D('',#437,#245,#246);
#214=AXIS2_PLACEMENT_3D('',#439,#247,#248);
#215=AXIS2_PLACEMENT_3D('',#441,#249,#250);
#216=AXIS2_PLACEMENT_3D('',#442,#251,#252);
#217=AXIS2_PLACEMENT_3D('',#443,#253,#254);
#218=AXIS2_PLACEMENT_3D('',#452,#259,#260);
#219=AXIS2_PLACEMENT_3D('',#458,#264,#265);
#220=AXIS2_PLACEMENT_3D('',#464,#269,#270);
#221=AXIS2_PLACEMENT_3D('',#467,#273,#274);
#222=AXIS2_PLACEMENT_3D('',#468,#275,#276);
#223=DIRECTION('axis',(0.,0.,1.));
#224=DIRECTION('refdir',(1.,0.,0.));
#225=DIRECTION('center_axis',(0.,-1.,0.));
#226=DIRECTION('ref_axis',(-1.,0.,0.));
#227=DIRECTION('center_axis',(0.,1.,0.));
#228=DIRECTION('ref_axis',(-1.,0.,0.));
#229=DIRECTION('center_axis',(0.,-1.,0.));
#230=DIRECTION('ref_axis',(-1.,0.,0.));
#231=DIRECTION('center_axis',(0.,-1.,0.));
#232=DIRECTION('ref_axis',(0.,0.,-1.));
#233=DIRECTION('center_axis',(0.,1.,0.));
#234=DIRECTION('ref_axis',(1.,0.,0.));
#235=DIRECTION('center_axis',(0.,1.,0.));
#236=DIRECTION('ref_axis',(1.,0.,0.));
#237=DIRECTION('center_axis',(0.,-1.,0.));
#238=DIRECTION('ref_axis',(1.,0.,0.));
#239=DIRECTION('center_axis',(0.,0.0276860759389402,0.999616667127506));
#240=DIRECTION('ref_axis',(1.,0.,0.));
#241=DIRECTION('center_axis',(0.,0.,1.));
#242=DIRECTION('ref_axis',(-0.809016994374947,0.587785252292473,0.));
#243=DIRECTION('center_axis',(0.,0.0276860759389402,0.999616667127506));
#244=DIRECTION('ref_axis',(1.,0.,0.));
#245=DIRECTION('center_axis',(0.,0.,-1.));
#246=DIRECTION('ref_axis',(1.,0.,0.));
#247=DIRECTION('center_axis',(0.,0.,1.));
#248=DIRECTION('ref_axis',(1.,0.,0.));
#249=DIRECTION('center_axis',(0.,0.,1.));
#250=DIRECTION('ref_axis',(1.,0.,0.));
#251=DIRECTION('center_axis',(0.,0.,1.));
#252=DIRECTION('ref_axis',(1.,0.,0.));
#253=DIRECTION('center_axis',(0.,-1.,0.));
#254=DIRECTION('ref_axis',(0.,0.,-1.));
#255=DIRECTION('',(1.,0.,0.));
#256=DIRECTION('',(0.,0.,-1.));
#257=DIRECTION('',(1.,0.,0.));
#258=DIRECTION('',(0.,0.,-1.));
#259=DIRECTION('center_axis',(1.,8.22387425648264E-17,0.));
#260=DIRECTION('ref_axis',(0.,0.,-1.));
#261=DIRECTION('',(-8.22387425648264E-17,1.,0.));
#262=DIRECTION('',(0.,0.,-1.));
#263=DIRECTION('',(-8.22387425648264E-17,1.,0.));
#264=DIRECTION('center_axis',(0.,1.,0.));
#265=DIRECTION('ref_axis',(0.,0.,1.));
#266=DIRECTION('',(-1.,0.,0.));
#267=DIRECTION('',(0.,0.,-1.));
#268=DIRECTION('',(-1.,0.,0.));
#269=DIRECTION('center_axis',(-1.,4.93432455388958E-16,0.));
#270=DIRECTION('ref_axis',(0.,0.,1.));
#271=DIRECTION('',(-4.93432455388958E-16,-1.,0.));
#272=DIRECTION('',(-4.93432455388958E-16,-1.,0.));
#273=DIRECTION('center_axis',(0.,0.,1.));
#274=DIRECTION('ref_axis',(1.,0.,0.));
#275=DIRECTION('center_axis',(0.,0.,1.));
#276=DIRECTION('ref_axis',(1.,0.,0.));
#277=CARTESIAN_POINT('',(0.,0.,0.));
#278=CARTESIAN_POINT('Origin',(1.,13.5,-23.));
#279=CARTESIAN_POINT('',(2.34807621135332,15.,-23.));
#280=CARTESIAN_POINT('Origin',(1.,15.,-23.));
#281=CARTESIAN_POINT('',(2.75,13.5,-23.));
#282=CARTESIAN_POINT('Origin',(1.,13.5,-23.));
#283=CARTESIAN_POINT('Origin',(1.,15.,-23.));
#284=CARTESIAN_POINT('Origin',(-1.,-45.4562284574345,-5.));
#285=CARTESIAN_POINT('',(-1.8,0.,-5.));
#286=CARTESIAN_POINT('Origin',(-1.,0.,-5.));
#287=CARTESIAN_POINT('',(-0.200000000000001,13.5,-5.));
#288=CARTESIAN_POINT('Origin',(-1.,13.5,-5.));
#289=CARTESIAN_POINT('Ctrl Pts',(-2.00210142783779,10.0004530179033,-31.9999999999999));
#290=CARTESIAN_POINT('Ctrl Pts',(-2.00210142783779,10.3736378583928,-32.7887259282387));
#291=CARTESIAN_POINT('Ctrl Pts',(-2.00210142783779,10.9139676029442,-34.2517693246046));
#292=CARTESIAN_POINT('Ctrl Pts',(-2.00210142783779,11.1953247858327,-36.1596838283537));
#293=CARTESIAN_POINT('Ctrl Pts',(-2.00210142783779,11.0330188440236,-37.8355286409665));
#294=CARTESIAN_POINT('Ctrl Pts',(-2.00210142783779,10.3398394267383,-39.8269252115333));
#295=CARTESIAN_POINT('Ctrl Pts',(-2.00210142783779,8.80801698976293,-41.9818634435463));
#296=CARTESIAN_POINT('Ctrl Pts',(-2.00210142783779,6.64538458559158,-44.4665526156733));
#297=CARTESIAN_POINT('Ctrl Pts',(-2.00210142783779,4.87709028743524,-47.2884127906697));
#298=CARTESIAN_POINT('Ctrl Pts',(-2.00210142783779,4.37631807904614,-49.9968468488807));
#299=CARTESIAN_POINT('Ctrl Pts',(-2.00210142783779,4.69712204470806,-52.9284799187555));
#300=CARTESIAN_POINT('Ctrl Pts',(-2.00210142783779,5.19577201066148,-54.6209608914844));
#301=CARTESIAN_POINT('Ctrl Pts',(-2.00210142783779,5.81125889943712,-56.0483321357193));
#302=CARTESIAN_POINT('Ctrl Pts',(-2.00208459922073,10.597205794249,-31.9999999999999));
#303=CARTESIAN_POINT('Ctrl Pts',(-2.00208459922073,10.9703906347386,-32.8204503865299));
#304=CARTESIAN_POINT('Ctrl Pts',(-2.00208459922073,11.5060845858287,-34.3568291898399));
#305=CARTESIAN_POINT('Ctrl Pts',(-2.00208459922073,11.7483070944634,-36.4002202878298));
#306=CARTESIAN_POINT('Ctrl Pts',(-2.00208459922074,11.5077872465917,-38.2077737996895));
#307=CARTESIAN_POINT('Ctrl Pts',(-2.00208459922074,10.6862980184895,-40.3231247857592));
#308=CARTESIAN_POINT('Ctrl Pts',(-2.00208459922074,9.05031357624719,-42.5262039299164));
#309=CARTESIAN_POINT('Ctrl Pts',(-2.00208459922073,6.9086891060505,-45.0039935424208));
#310=CARTESIAN_POINT('Ctrl Pts',(-2.00208459922073,5.29408444909673,-47.7382294042574));
#311=CARTESIAN_POINT('Ctrl Pts',(-2.00208459922073,4.91644591780518,-50.2706014749579));
#312=CARTESIAN_POINT('Ctrl Pts',(-2.00208459922073,5.28416121577929,-53.0505637256365));
#313=CARTESIAN_POINT('Ctrl Pts',(-2.00208459922073,5.79117923937747,-54.6778048731495));
#314=CARTESIAN_POINT('Ctrl Pts',(-2.00208459922073,6.40778292082694,-56.0648538784018));
#315=CARTESIAN_POINT('Ctrl Pts',(-1.4266288701244,11.7896087928675,-32.));
#316=CARTESIAN_POINT('Ctrl Pts',(-1.4266288701244,12.1627936333571,-32.8838926273168));
#317=CARTESIAN_POINT('Ctrl Pts',(-1.4266288701244,12.689312949373,-34.5666594186254));
#318=CARTESIAN_POINT('Ctrl Pts',(-1.4266288701244,12.8533050348077,-36.8809177052351));
#319=CARTESIAN_POINT('Ctrl Pts',(-1.4266288701244,12.4564764552209,-38.9516544009729));
#320=CARTESIAN_POINT('Ctrl Pts',(-1.4266288701244,11.3784458876946,-41.3148321176055));
#321=CARTESIAN_POINT('Ctrl Pts',(-1.4266288701244,9.5342736417644,-43.6140465692964));
#322=CARTESIAN_POINT('Ctrl Pts',(-1.4266288701244,7.43468705687385,-46.0780135142853));
#323=CARTESIAN_POINT('Ctrl Pts',(-1.4266288701244,6.12727967756116,-48.637180630195));
#324=CARTESIAN_POINT('Ctrl Pts',(-1.4266288701244,5.99571717190608,-50.8177382809233));
#325=CARTESIAN_POINT('Ctrl Pts',(-1.4266288701244,6.45722177756942,-53.2944533052349));
#326=CARTESIAN_POINT('Ctrl Pts',(-1.4266288701244,6.980891800389,-54.7914538260528));
#327=CARTESIAN_POINT('Ctrl Pts',(-1.4266288701244,7.59972883217882,-56.0978668383713));
#328=CARTESIAN_POINT('Ctrl Pts',(0.50923757873448,12.2322729944646,-32.));
#329=CARTESIAN_POINT('Ctrl Pts',(0.50923757873448,12.6054578349541,-32.9074157149253));
#330=CARTESIAN_POINT('Ctrl Pts',(0.50923757873448,13.1285217934167,-34.6446094878128));
#331=CARTESIAN_POINT('Ctrl Pts',(0.50923757873448,13.2634904986946,-37.0593318991985));
#332=CARTESIAN_POINT('Ctrl Pts',(0.50923757873448,12.8086485318719,-39.2277668488357));
#333=CARTESIAN_POINT('Ctrl Pts',(0.50923757873448,11.6354690391801,-41.6828649353223));
#334=CARTESIAN_POINT('Ctrl Pts',(0.50923757873448,9.71404119130076,-44.0178005502081));
#335=CARTESIAN_POINT('Ctrl Pts',(0.50923757873448,7.63002663382076,-46.4766562915947));
#336=CARTESIAN_POINT('Ctrl Pts',(0.50923757873448,6.43660530069567,-48.9708213469093));
#337=CARTESIAN_POINT('Ctrl Pts',(0.50923757873448,6.39637512524837,-51.0207812346186));
#338=CARTESIAN_POINT('Ctrl Pts',(0.50923757873448,6.89266800483206,-53.3850234829458));
#339=CARTESIAN_POINT('Ctrl Pts',(0.50923757873448,7.42255823353731,-54.8336076406199));
#340=CARTESIAN_POINT('Ctrl Pts',(0.50923757873448,8.04222334603591,-56.110122473072));
#341=CARTESIAN_POINT('Ctrl Pts',(2.06281312126114,10.9933177023154,-32.));
#342=CARTESIAN_POINT('Ctrl Pts',(2.06281312126114,11.3665025428049,-32.8415436625767));
#343=CARTESIAN_POINT('Ctrl Pts',(2.06281312126114,11.8991793390012,-34.4265009699114));
#344=CARTESIAN_POINT('Ctrl Pts',(2.06281312126114,12.1154024219169,-36.5599300860632));
#345=CARTESIAN_POINT('Ctrl Pts',(2.06281312126114,11.8229485758108,-38.4549152506115));
#346=CARTESIAN_POINT('Ctrl Pts',(2.06281312126114,10.9161822380573,-40.6526442739974));
#347=CARTESIAN_POINT('Ctrl Pts',(2.06281312126114,9.21101908278618,-42.887639266905));
#348=CARTESIAN_POINT('Ctrl Pts',(2.06281312126114,7.08338052164736,-45.3608244637058));
#349=CARTESIAN_POINT('Ctrl Pts',(2.06281312126114,5.57086099998437,-48.0369093616848));
#350=CARTESIAN_POINT('Ctrl Pts',(2.06281312126114,5.27498055622691,-50.4524045187431));
#351=CARTESIAN_POINT('Ctrl Pts',(2.06281312126114,5.67387079215742,-53.1315647689597));
#352=CARTESIAN_POINT('Ctrl Pts',(2.06281312126114,6.18639676041312,-54.7155815122311));
#353=CARTESIAN_POINT('Ctrl Pts',(2.06281312126114,6.80374298617776,-56.075820662769));
#354=CARTESIAN_POINT('Ctrl Pts',(2.06292675139097,9.00659025301012,-32.));
#355=CARTESIAN_POINT('Ctrl Pts',(2.06292675139097,9.37977509349966,-32.7359113048449));
#356=CARTESIAN_POINT('Ctrl Pts',(2.06292675139097,9.92786112983136,-34.0767587962183));
#357=CARTESIAN_POINT('Ctrl Pts',(2.06292675139097,10.2743817663936,-35.7591097958198));
#358=CARTESIAN_POINT('Ctrl Pts',(2.06292675139097,10.2423270441937,-37.2156038441164));
#359=CARTESIAN_POINT('Ctrl Pts',(2.06292675139097,9.76277742631144,-39.0006195352291));
#360=CARTESIAN_POINT('Ctrl Pts',(2.06292675139097,8.40440909534563,-41.0753582257351));
#361=CARTESIAN_POINT('Ctrl Pts',(2.06292675139097,6.20681350087192,-43.571523659049));
#362=CARTESIAN_POINT('Ctrl Pts',(2.06292675139097,4.18259763648341,-46.5393251168935));
#363=CARTESIAN_POINT('Ctrl Pts',(2.06292675139097,3.47676683979801,-49.5409755257543));
#364=CARTESIAN_POINT('Ctrl Pts',(2.06292675139097,3.71946373606252,-52.7251341312461));
#365=CARTESIAN_POINT('Ctrl Pts',(2.06292675139097,4.20414945351162,-54.5263165918604));
#366=CARTESIAN_POINT('Ctrl Pts',(2.06292675139097,4.81777711481247,-56.020815975738));
#367=CARTESIAN_POINT('Ctrl Pts',(0.508987533777027,7.76793690797593,-32.));
#368=CARTESIAN_POINT('Ctrl Pts',(0.508987533777027,8.14112174846547,-32.6700511822936));
#369=CARTESIAN_POINT('Ctrl Pts',(0.508987533777027,8.69881126173511,-33.8587110082141));
#370=CARTESIAN_POINT('Ctrl Pts',(0.508987533777027,9.12656912372487,-35.2598242207949));
#371=CARTESIAN_POINT('Ctrl Pts',(0.508987533777027,9.25686496538203,-36.4429344018875));
#372=CARTESIAN_POINT('Ctrl Pts',(0.508987533777027,9.04367618209632,-37.9706320882113));
#373=CARTESIAN_POINT('Ctrl Pts',(0.508987533777027,7.90152430331781,-39.9454590846845));
#374=CARTESIAN_POINT('Ctrl Pts',(0.508987533777027,5.6603105067368,-42.4559533631069));
#375=CARTESIAN_POINT('Ctrl Pts',(0.508987533777027,3.31706612654591,-45.6056288995712));
#376=CARTESIAN_POINT('Ctrl Pts',(0.508987533777027,2.35564449424742,-48.9727267421887));
#377=CARTESIAN_POINT('Ctrl Pts',(0.508987533777027,2.50095825159754,-52.4717413544193));
#378=CARTESIAN_POINT('Ctrl Pts',(0.508987533777027,2.96828939179279,-54.4083139861447));
#379=CARTESIAN_POINT('Ctrl Pts',(0.508987533777027,3.57959858632306,-55.9865225251657));
#380=CARTESIAN_POINT('Ctrl Pts',(-1.42672984182673,8.20909213479307,-32.0000000000001));
#381=CARTESIAN_POINT('Ctrl Pts',(-1.42672984182673,8.58227697528261,-32.6935458775698));
#382=CARTESIAN_POINT('Ctrl Pts',(-1.42672984182673,9.13661105206626,-33.9363002272135));
#383=CARTESIAN_POINT('Ctrl Pts',(-1.42672984182673,9.53541118302353,-35.4376989483782));
#384=CARTESIAN_POINT('Ctrl Pts',(-1.42672984182673,9.60786603981243,-36.7181834486351));
#385=CARTESIAN_POINT('Ctrl Pts',(-1.42672984182673,9.29969433718724,-38.33763467225));
#386=CARTESIAN_POINT('Ctrl Pts',(-1.42672984182673,8.08049412285886,-40.3480036510755));
#387=CARTESIAN_POINT('Ctrl Pts',(-1.42672984182673,5.85485993412032,-42.8533679538003));
#388=CARTESIAN_POINT('Ctrl Pts',(-1.42672984182673,3.62531470759222,-45.938280948669));
#389=CARTESIAN_POINT('Ctrl Pts',(-1.42672984182673,2.75495013935186,-49.1752105244605));
#390=CARTESIAN_POINT('Ctrl Pts',(-1.42672984182673,2.93498675114203,-52.5619504639489));
#391=CARTESIAN_POINT('Ctrl Pts',(-1.42672984182673,3.40844842809306,-54.4503899360624));
#392=CARTESIAN_POINT('Ctrl Pts',(-1.42672984182673,4.02058470383989,-55.9987363822762));
#393=CARTESIAN_POINT('Ctrl Pts',(-2.00211825645484,9.40370024155752,-31.9999999999999));
#394=CARTESIAN_POINT('Ctrl Pts',(-2.00211825645484,9.77688508204707,-32.7570014699475));
#395=CARTESIAN_POINT('Ctrl Pts',(-2.00211825645484,10.3218506200598,-34.1467094593693));
#396=CARTESIAN_POINT('Ctrl Pts',(-2.00211825645484,10.642342477202,-35.9191473688775));
#397=CARTESIAN_POINT('Ctrl Pts',(-2.00211825645484,10.5582504414555,-37.4632834822435));
#398=CARTESIAN_POINT('Ctrl Pts',(-2.00211825645484,9.99338083498705,-39.3307256373073));
#399=CARTESIAN_POINT('Ctrl Pts',(-2.00211825645484,8.56572040327867,-41.4375229571762));
#400=CARTESIAN_POINT('Ctrl Pts',(-2.00211825645484,6.38208006513266,-43.9291116889258));
#401=CARTESIAN_POINT('Ctrl Pts',(-2.00211825645484,4.46009612577375,-46.838596177082));
#402=CARTESIAN_POINT('Ctrl Pts',(-2.00211825645484,3.8361902402871,-49.7230922228036));
#403=CARTESIAN_POINT('Ctrl Pts',(-2.00211825645484,4.11008287363683,-52.8063961118745));
#404=CARTESIAN_POINT('Ctrl Pts',(-2.00211825645484,4.60036478194549,-54.5641169098193));
#405=CARTESIAN_POINT('Ctrl Pts',(-2.00211825645484,5.2147348780473,-56.0318103930367));
#406=CARTESIAN_POINT('Ctrl Pts',(-2.00210142783779,10.0004530179033,-31.9999999999999));
#407=CARTESIAN_POINT('Ctrl Pts',(-2.00210142783779,10.3736378583928,-32.7887259282387));
#408=CARTESIAN_POINT('Ctrl Pts',(-2.00210142783779,10.9139676029442,-34.2517693246046));
#409=CARTESIAN_POINT('Ctrl Pts',(-2.00210142783779,11.1953247858327,-36.1596838283537));
#410=CARTESIAN_POINT('Ctrl Pts',(-2.00210142783779,11.0330188440236,-37.8355286409665));
#411=CARTESIAN_POINT('Ctrl Pts',(-2.00210142783779,10.3398394267383,-39.8269252115333));
#412=CARTESIAN_POINT('Ctrl Pts',(-2.00210142783779,8.80801698976293,-41.9818634435463));
#413=CARTESIAN_POINT('Ctrl Pts',(-2.00210142783779,6.64538458559158,-44.4665526156733));
#414=CARTESIAN_POINT('Ctrl Pts',(-2.00210142783779,4.87709028743524,-47.2884127906697));
#415=CARTESIAN_POINT('Ctrl Pts',(-2.00210142783779,4.37631807904614,-49.9968468488807));
#416=CARTESIAN_POINT('Ctrl Pts',(-2.00210142783779,4.69712204470806,-52.9284799187555));
#417=CARTESIAN_POINT('Ctrl Pts',(-2.00210142783779,5.19577201066148,-54.6209608914844));
#418=CARTESIAN_POINT('Ctrl Pts',(-2.00210142783779,5.81125889943712,-56.0483321357193));
#419=CARTESIAN_POINT('',(-2.,5.81080605518813,-56.048319593426));
#420=CARTESIAN_POINT('Origin',(0.,5.81080605518813,-56.048319593426));
#421=CARTESIAN_POINT('',(-2.,10.,-32.));
#422=CARTESIAN_POINT('Ctrl Pts',(-2.00210142783779,10.0004531195671,-32.0000002148663));
#423=CARTESIAN_POINT('Ctrl Pts',(-2.00210142783779,10.3736379487855,-32.788726148438));
#424=CARTESIAN_POINT('Ctrl Pts',(-2.00210142783779,10.9139676029442,-34.2517693246046));
#425=CARTESIAN_POINT('Ctrl Pts',(-2.00210142783779,11.1953247858327,-36.1596838283537));
#426=CARTESIAN_POINT('Ctrl Pts',(-2.00210142783779,11.0330188440236,-37.8355286409665));
#427=CARTESIAN_POINT('Ctrl Pts',(-2.00210142783779,10.3398394267383,-39.8269252115333));
#428=CARTESIAN_POINT('Ctrl Pts',(-2.00210142783779,8.80801698976293,-41.9818634435463));
#429=CARTESIAN_POINT('Ctrl Pts',(-2.00210142783779,6.64538458559158,-44.4665526156733));
#430=CARTESIAN_POINT('Ctrl Pts',(-2.00210142783779,4.87709028743524,-47.2884127906697));
#431=CARTESIAN_POINT('Ctrl Pts',(-2.00210142783779,4.37631807904614,-49.9968468488807));
#432=CARTESIAN_POINT('Ctrl Pts',(-2.00210142783779,4.69712204470806,-52.9284799187555));
#433=CARTESIAN_POINT('Ctrl Pts',(-2.00210142783779,5.19577201066148,-54.6209608914844));
#434=CARTESIAN_POINT('Ctrl Pts',(-2.00210142783779,5.81125889943712,-56.0483321357193));
#435=CARTESIAN_POINT('Origin',(0.,10.,-32.));
#436=CARTESIAN_POINT('Origin',(0.,5.81080605518813,-56.048319593426));
#437=CARTESIAN_POINT('Origin',(0.,10.,-27.));
#438=CARTESIAN_POINT('',(-3.,10.,-32.));
#439=CARTESIAN_POINT('Origin',(0.,10.,-32.));
#440=CARTESIAN_POINT('',(-3.,10.,-27.));
#441=CARTESIAN_POINT('Origin',(0.,10.,-27.));
#442=CARTESIAN_POINT('Origin',(0.,10.,-32.));
#443=CARTESIAN_POINT('Origin',(-6.00000000000001,0.,0.));
#444=CARTESIAN_POINT('',(-6.00000000000001,0.,-27.));
#445=CARTESIAN_POINT('',(6.,0.,-27.));
#446=CARTESIAN_POINT('',(-7.75,0.,-27.));
#447=CARTESIAN_POINT('',(6.,0.,0.));
#448=CARTESIAN_POINT('',(6.,0.,0.));
#449=CARTESIAN_POINT('',(-6.00000000000001,0.,0.));
#450=CARTESIAN_POINT('',(-7.75,0.,0.));
#451=CARTESIAN_POINT('',(-6.00000000000001,0.,0.));
#452=CARTESIAN_POINT('Origin',(6.,2.5,0.));
#453=CARTESIAN_POINT('',(6.,13.5,-27.));
#454=CARTESIAN_POINT('',(6.,0.,-27.));
#455=CARTESIAN_POINT('',(6.,13.5,0.));
#456=CARTESIAN_POINT('',(6.,13.5,0.));
#457=CARTESIAN_POINT('',(6.,0.,0.));
#458=CARTESIAN_POINT('Origin',(6.,13.5,0.));
#459=CARTESIAN_POINT('',(-6.,13.5,-27.));
#460=CARTESIAN_POINT('',(6.,13.5,-27.));
#461=CARTESIAN_POINT('',(-6.,13.5,0.));
#462=CARTESIAN_POINT('',(-6.,13.5,0.));
#463=CARTESIAN_POINT('',(6.,13.5,0.));
#464=CARTESIAN_POINT('Origin',(-6.,2.5,0.));
#465=CARTESIAN_POINT('',(-6.,13.5,-27.));
#466=CARTESIAN_POINT('',(-6.,13.5,0.));
#467=CARTESIAN_POINT('Origin',(-2.2080154104385E-15,6.75,-27.));
#468=CARTESIAN_POINT('Origin',(-2.22044604925031E-15,6.75,0.));
#469=UNCERTAINTY_MEASURE_WITH_UNIT(LENGTH_MEASURE(0.01),#473,
'DISTANCE_ACCURACY_VALUE',
'Maximum model space distance between geometric entities at asserted c
onnectivities');
#470=UNCERTAINTY_MEASURE_WITH_UNIT(LENGTH_MEASURE(1.E-6),#473,
'DISTANCE_ACCURACY_VALUE',
'Maximum model space distance between geometric entities at asserted c
onnectivities');
#471=(
GEOMETRIC_REPRESENTATION_CONTEXT(3)
GLOBAL_UNCERTAINTY_ASSIGNED_CONTEXT((#469))
GLOBAL_UNIT_ASSIGNED_CONTEXT((#473,#476,#474))
REPRESENTATION_CONTEXT('','3D')
);
#472=(
GEOMETRIC_REPRESENTATION_CONTEXT(3)
GLOBAL_UNCERTAINTY_ASSIGNED_CONTEXT((#470))
GLOBAL_UNIT_ASSIGNED_CONTEXT((#473,#476,#474))
REPRESENTATION_CONTEXT('','3D')
);
#473=(
LENGTH_UNIT()
NAMED_UNIT(*)
SI_UNIT(.MILLI.,.METRE.)
);
#474=(
NAMED_UNIT(*)
SI_UNIT($,.STERADIAN.)
SOLID_ANGLE_UNIT()
);
#475=DIMENSIONAL_EXPONENTS(0.,0.,0.,0.,0.,0.,0.);
#476=(
CONVERSION_BASED_UNIT('degree',#478)
NAMED_UNIT(#475)
PLANE_ANGLE_UNIT()
);
#477=(
NAMED_UNIT(*)
PLANE_ANGLE_UNIT()
SI_UNIT($,.RADIAN.)
);
#478=PLANE_ANGLE_MEASURE_WITH_UNIT(PLANE_ANGLE_MEASURE(0.01745329252),#477);
#479=SHAPE_DEFINITION_REPRESENTATION(#480,#481);
#480=PRODUCT_DEFINITION_SHAPE('',$,#483);
#481=SHAPE_REPRESENTATION('',(#202),#471);
#482=PRODUCT_DEFINITION_CONTEXT('part definition',#487,'design');
#483=PRODUCT_DEFINITION('1600_U','1600_U',#484,#482);
#484=PRODUCT_DEFINITION_FORMATION('',$,#489);
#485=PRODUCT_RELATED_PRODUCT_CATEGORY('1600_U','1600_U',(#489));
#486=APPLICATION_PROTOCOL_DEFINITION('international standard',
'automotive_design',2009,#487);
#487=APPLICATION_CONTEXT(
'Core Data for Automotive Mechanical Design Process');
#488=PRODUCT_CONTEXT('part definition',#487,'mechanical');
#489=PRODUCT('1600_U','1600_U','SENSORE UNIV. Led 2mt. x CIL. S.STELO',
(#488));
#490=PRESENTATION_STYLE_ASSIGNMENT((#491));
#491=SURFACE_STYLE_USAGE(.BOTH.,#492);
#492=SURFACE_SIDE_STYLE('',(#493));
#493=SURFACE_STYLE_FILL_AREA(#494);
#494=FILL_AREA_STYLE('',(#495));
#495=FILL_AREA_STYLE_COLOUR('',#496);
#496=COLOUR_RGB('',0.250980392156863,0.250980392156863,0.250980392156863);
ENDSEC;
END-ISO-10303-21;
