ISO-10303-21;
HEADER;
/****************************************************************
 * Generated by software with PDE/Lib inside                    *
 * PDE/Lib Version 3.2.6, created Mon Nov 19, 2001 at 18:43:38  *
 * International Technegroup Inc. (www.iti-oh.com)              *
 ****************************************************************/
FILE_DESCRIPTION((''),'2;1');
FILE_NAME('I:\\DOC-EDP\\Lib-3d\\FRL\\17070B_.stp','2003-06-16T14:42:30',('maffial1'),(''),'Autodesk Inventor 7','Autodesk Inventor 7','');
FILE_SCHEMA(('AUTOMOTIVE_DESIGN { 1 0 10303 214 1 1 1 1 }'));
ENDSEC;
DATA;
#5=APPLICATION_CONTEXT('automotive design');
#6=APPLICATION_PROTOCOL_DEFINITION('Draft International Standard','automotive_design',1998,#5);
#7=PRODUCT_CONTEXT('None',#5,'mechanical');
#8=PRODUCT('17070B_','17070B_','None',(#7));
#9=PRODUCT_RELATED_PRODUCT_CATEGORY('part','description',(#8));
#10=PRODUCT_DEFINITION_FORMATION('None','None',#8);
#11=PRODUCT_DEFINITION_CONTEXT('part definition',#5,'design');
#12=PRODUCT_DEFINITION('None','None',#10,#11);
#18=(NAMED_UNIT(*)PLANE_ANGLE_UNIT()SI_UNIT($,.RADIAN.));
#19=DIMENSIONAL_EXPONENTS(0.0,0.0,0.0,0.0,0.0,0.0,0.0);
#20=PLANE_ANGLE_MEASURE_WITH_UNIT(PLANE_ANGLE_MEASURE(0.017453292500000),#18);
#24=(CONVERSION_BASED_UNIT('DEGREE',#20)NAMED_UNIT(#19)PLANE_ANGLE_UNIT());
#28=(NAMED_UNIT(*)SI_UNIT($,.STERADIAN.)SOLID_ANGLE_UNIT());
#32=(LENGTH_UNIT()NAMED_UNIT(*)SI_UNIT(.MILLI.,.METRE.));
#34=UNCERTAINTY_MEASURE_WITH_UNIT(LENGTH_MEASURE(0.000001000000000),#32,'DISTANCE_ACCURACY_VALUE','');
#36=(GEOMETRIC_REPRESENTATION_CONTEXT(3)GLOBAL_UNCERTAINTY_ASSIGNED_CONTEXT((#34))GLOBAL_UNIT_ASSIGNED_CONTEXT((#24,#28,#32))REPRESENTATION_CONTEXT('None','None'));
#37=AXIS2_PLACEMENT_3D('',#38,#39,#40);
#38=CARTESIAN_POINT('',(0.0,0.0,0.0));
#39=DIRECTION('',(0.0,0.0,1.0));
#40=DIRECTION('',(1.0,0.0,0.0));
#41=SHAPE_REPRESENTATION('',(#37),#36);
#42=PRODUCT_DEFINITION_SHAPE('','',#12);
#43=SHAPE_DEFINITION_REPRESENTATION(#42,#41);
#44=CARTESIAN_POINT('',(-107.062499999999890,0.0,0.0));
#45=DIRECTION('',(0.0,0.0,1.0));
#46=DIRECTION('',(1.0,0.0,0.0));
#47=AXIS2_PLACEMENT_3D('',#44,#45,#46);
#48=SPHERICAL_SURFACE('',#47,151.062499999999910);
#49=CARTESIAN_POINT('',(42.0,-1.825429E-014,-24.500000000000000));
#50=VERTEX_POINT('',#49);
#51=CARTESIAN_POINT('',(42.0,-1.825429E-014,24.500000000000000));
#52=VERTEX_POINT('',#51);
#53=CARTESIAN_POINT('',(-107.062499999999890,-7.565053E-031,0.0));
#54=DIRECTION('',(0.0,-1.0,0.0));
#55=DIRECTION('',(0.0,0.0,1.0));
#56=AXIS2_PLACEMENT_3D('',#53,#54,#55);
#57=CIRCLE('',#56,151.062499999999910);
#58=EDGE_CURVE('',#50,#52,#57,.T.);
#59=ORIENTED_EDGE('',*,*,#58,.F.);
#60=CARTESIAN_POINT('',(42.0,24.500000000000000,0.0));
#61=VERTEX_POINT('',#60);
#62=CARTESIAN_POINT('',(42.0,0.0,0.0));
#63=DIRECTION('',(1.0,0.0,0.0));
#64=DIRECTION('',(0.0,1.0,0.0));
#65=AXIS2_PLACEMENT_3D('',#62,#63,#64);
#66=CIRCLE('',#65,24.500000000000000);
#67=EDGE_CURVE('',#50,#61,#66,.T.);
#68=ORIENTED_EDGE('',*,*,#67,.T.);
#69=CARTESIAN_POINT('',(42.0,0.0,0.0));
#70=DIRECTION('',(1.0,0.0,0.0));
#71=DIRECTION('',(0.0,1.0,0.0));
#72=AXIS2_PLACEMENT_3D('',#69,#70,#71);
#73=CIRCLE('',#72,24.500000000000000);
#74=EDGE_CURVE('',#61,#52,#73,.T.);
#75=ORIENTED_EDGE('',*,*,#74,.T.);
#76=EDGE_LOOP('',(#59,#68,#75));
#77=FACE_OUTER_BOUND('',#76,.T.);
#78=ADVANCED_FACE('',(#77),#48,.T.);
#79=CARTESIAN_POINT('',(29.500000000000000,0.0,0.0));
#80=DIRECTION('',(1.0,0.0,0.0));
#81=DIRECTION('',(0.0,1.0,0.0));
#82=AXIS2_PLACEMENT_3D('',#79,#80,#81);
#83=CYLINDRICAL_SURFACE('',#82,24.500000000000000);
#84=CARTESIAN_POINT('',(17.0,24.500000000000000,0.0));
#85=VERTEX_POINT('',#84);
#86=CARTESIAN_POINT('',(17.0,24.500000000000000,0.0));
#87=DIRECTION('',(1.0,0.0,0.0));
#88=VECTOR('',#87,25.0);
#89=LINE('',#86,#88);
#90=EDGE_CURVE('',#85,#61,#89,.T.);
#91=ORIENTED_EDGE('',*,*,#90,.F.);
#92=CARTESIAN_POINT('',(17.0,-24.500000000000000,3.000286E-015));
#93=VERTEX_POINT('',#92);
#94=CARTESIAN_POINT('',(17.0,0.0,0.0));
#95=DIRECTION('',(1.0,0.0,0.0));
#96=DIRECTION('',(0.0,1.0,0.0));
#97=AXIS2_PLACEMENT_3D('',#94,#95,#96);
#98=CIRCLE('',#97,24.500000000000000);
#99=EDGE_CURVE('',#85,#93,#98,.T.);
#100=ORIENTED_EDGE('',*,*,#99,.T.);
#101=CARTESIAN_POINT('',(42.0,-24.500000000000000,3.000286E-015));
#102=VERTEX_POINT('',#101);
#103=CARTESIAN_POINT('',(42.0,-24.500000000000000,3.000286E-015));
#104=DIRECTION('',(-1.0,0.0,0.0));
#105=VECTOR('',#104,25.0);
#106=LINE('',#103,#105);
#107=EDGE_CURVE('',#102,#93,#106,.T.);
#108=ORIENTED_EDGE('',*,*,#107,.F.);
#109=CARTESIAN_POINT('',(42.0,0.0,0.0));
#110=DIRECTION('',(1.0,0.0,0.0));
#111=DIRECTION('',(0.0,1.0,0.0));
#112=AXIS2_PLACEMENT_3D('',#109,#110,#111);
#113=CIRCLE('',#112,24.500000000000000);
#114=EDGE_CURVE('',#52,#102,#113,.T.);
#115=ORIENTED_EDGE('',*,*,#114,.F.);
#116=ORIENTED_EDGE('',*,*,#74,.F.);
#117=EDGE_LOOP('',(#91,#100,#108,#115,#116));
#118=FACE_OUTER_BOUND('',#117,.T.);
#119=ADVANCED_FACE('',(#118),#83,.T.);
#120=CARTESIAN_POINT('',(5.0,0.0,0.0));
#121=DIRECTION('',(1.0,0.0,0.0));
#122=DIRECTION('',(0.0,1.0,0.0));
#123=AXIS2_PLACEMENT_3D('',#120,#121,#122);
#124=CYLINDRICAL_SURFACE('',#123,5.0);
#125=CARTESIAN_POINT('',(0.0,5.0,0.0));
#126=VERTEX_POINT('',#125);
#127=CARTESIAN_POINT('',(10.0,5.000000000000001,0.0));
#128=VERTEX_POINT('',#127);
#129=CARTESIAN_POINT('',(0.0,5.0,0.0));
#130=DIRECTION('',(1.0,0.0,0.0));
#131=VECTOR('',#130,10.0);
#132=LINE('',#129,#131);
#133=EDGE_CURVE('',#126,#128,#132,.T.);
#134=ORIENTED_EDGE('',*,*,#133,.F.);
#135=CARTESIAN_POINT('',(0.0,-5.0,6.123032E-016));
#136=VERTEX_POINT('',#135);
#137=CARTESIAN_POINT('',(0.0,0.0,0.0));
#138=DIRECTION('',(1.0,0.0,0.0));
#139=DIRECTION('',(0.0,1.0,0.0));
#140=AXIS2_PLACEMENT_3D('',#137,#138,#139);
#141=CIRCLE('',#140,5.0);
#142=EDGE_CURVE('',#126,#136,#141,.T.);
#143=ORIENTED_EDGE('',*,*,#142,.T.);
#144=CARTESIAN_POINT('',(10.0,-5.000000000000001,6.123032E-016));
#145=VERTEX_POINT('',#144);
#146=CARTESIAN_POINT('',(10.0,-5.000000000000001,6.123032E-016));
#147=DIRECTION('',(-1.0,0.0,0.0));
#148=VECTOR('',#147,10.0);
#149=LINE('',#146,#148);
#150=EDGE_CURVE('',#145,#136,#149,.T.);
#151=ORIENTED_EDGE('',*,*,#150,.F.);
#152=CARTESIAN_POINT('',(10.0,0.0,0.0));
#153=DIRECTION('',(1.0,0.0,0.0));
#154=DIRECTION('',(0.0,1.0,0.0));
#155=AXIS2_PLACEMENT_3D('',#152,#153,#154);
#156=CIRCLE('',#155,5.000000000000001);
#157=EDGE_CURVE('',#128,#145,#156,.T.);
#158=ORIENTED_EDGE('',*,*,#157,.F.);
#159=EDGE_LOOP('',(#134,#143,#151,#158));
#160=FACE_OUTER_BOUND('',#159,.T.);
#161=ADVANCED_FACE('',(#160),#124,.T.);
#162=CARTESIAN_POINT('',(10.0,-7.0,7.0));
#163=DIRECTION('',(0.0,0.0,1.0));
#164=DIRECTION('',(1.0,0.0,0.0));
#165=AXIS2_PLACEMENT_3D('',#162,#163,#164);
#166=PLANE('',#165);
#167=CARTESIAN_POINT('',(17.0,7.000000000000001,7.000000000000001));
#168=VERTEX_POINT('',#167);
#169=CARTESIAN_POINT('',(17.0,-7.0,7.0));
#170=VERTEX_POINT('',#169);
#171=CARTESIAN_POINT('',(17.0,7.000000000000001,7.000000000000001));
#172=DIRECTION('',(0.0,-1.0,0.0));
#173=VECTOR('',#172,14.0);
#174=LINE('',#171,#173);
#175=EDGE_CURVE('',#168,#170,#174,.T.);
#176=ORIENTED_EDGE('',*,*,#175,.F.);
#177=CARTESIAN_POINT('',(10.0,7.000000000000001,7.000000000000001));
#178=VERTEX_POINT('',#177);
#179=CARTESIAN_POINT('',(10.0,7.000000000000001,7.000000000000001));
#180=DIRECTION('',(1.0,0.0,0.0));
#181=VECTOR('',#180,7.0);
#182=LINE('',#179,#181);
#183=EDGE_CURVE('',#178,#168,#182,.T.);
#184=ORIENTED_EDGE('',*,*,#183,.F.);
#185=CARTESIAN_POINT('',(10.0,-7.0,7.0));
#186=VERTEX_POINT('',#185);
#187=CARTESIAN_POINT('',(10.0,7.000000000000001,7.000000000000001));
#188=DIRECTION('',(0.0,-1.0,0.0));
#189=VECTOR('',#188,14.0);
#190=LINE('',#187,#189);
#191=EDGE_CURVE('',#178,#186,#190,.T.);
#192=ORIENTED_EDGE('',*,*,#191,.T.);
#193=CARTESIAN_POINT('',(10.0,-7.0,7.0));
#194=DIRECTION('',(1.0,0.0,0.0));
#195=VECTOR('',#194,7.0);
#196=LINE('',#193,#195);
#197=EDGE_CURVE('',#186,#170,#196,.T.);
#198=ORIENTED_EDGE('',*,*,#197,.T.);
#199=EDGE_LOOP('',(#176,#184,#192,#198));
#200=FACE_OUTER_BOUND('',#199,.T.);
#201=ADVANCED_FACE('',(#200),#166,.T.);
#202=CARTESIAN_POINT('',(9.999999999999998,9.083643E-016,-5.551115E-016));
#203=DIRECTION('',(1.0,0.0,0.0));
#204=DIRECTION('',(0.0,0.0,-1.0));
#205=AXIS2_PLACEMENT_3D('',#202,#203,#204);
#206=PLANE('',#205);
#207=CARTESIAN_POINT('',(10.0,7.000000000000001,-7.000000000000002));
#208=VERTEX_POINT('',#207);
#209=CARTESIAN_POINT('',(10.0,7.000000000000001,-7.000000000000002));
#210=DIRECTION('',(0.0,0.0,1.0));
#211=VECTOR('',#210,14.000000000000004);
#212=LINE('',#209,#211);
#213=EDGE_CURVE('',#208,#178,#212,.T.);
#214=ORIENTED_EDGE('',*,*,#213,.F.);
#215=CARTESIAN_POINT('',(10.0,-7.000000000000002,-7.0));
#216=VERTEX_POINT('',#215);
#217=CARTESIAN_POINT('',(10.0,-7.000000000000002,-7.0));
#218=DIRECTION('',(0.0,1.0,0.0));
#219=VECTOR('',#218,14.000000000000004);
#220=LINE('',#217,#219);
#221=EDGE_CURVE('',#216,#208,#220,.T.);
#222=ORIENTED_EDGE('',*,*,#221,.F.);
#223=CARTESIAN_POINT('',(10.0,-7.0,7.0));
#224=DIRECTION('',(0.0,0.0,-1.0));
#225=VECTOR('',#224,14.0);
#226=LINE('',#223,#225);
#227=EDGE_CURVE('',#186,#216,#226,.T.);
#228=ORIENTED_EDGE('',*,*,#227,.F.);
#229=ORIENTED_EDGE('',*,*,#191,.F.);
#230=EDGE_LOOP('',(#214,#222,#228,#229));
#231=FACE_OUTER_BOUND('',#230,.T.);
#232=ORIENTED_EDGE('',*,*,#157,.T.);
#233=CARTESIAN_POINT('',(10.0,0.0,0.0));
#234=DIRECTION('',(1.0,0.0,0.0));
#235=DIRECTION('',(0.0,1.0,0.0));
#236=AXIS2_PLACEMENT_3D('',#233,#234,#235);
#237=CIRCLE('',#236,5.000000000000001);
#238=EDGE_CURVE('',#145,#128,#237,.T.);
#239=ORIENTED_EDGE('',*,*,#238,.T.);
#240=EDGE_LOOP('',(#232,#239));
#241=FACE_BOUND('',#240,.T.);
#242=ADVANCED_FACE('',(#231,#241),#206,.F.);
#243=CARTESIAN_POINT('',(10.0,7.000000000000001,-7.000000000000002));
#244=DIRECTION('',(0.0,0.0,-1.0));
#245=DIRECTION('',(-1.0,0.0,0.0));
#246=AXIS2_PLACEMENT_3D('',#243,#244,#245);
#247=PLANE('',#246);
#248=CARTESIAN_POINT('',(17.0,-7.000000000000002,-7.0));
#249=VERTEX_POINT('',#248);
#250=CARTESIAN_POINT('',(17.0,7.000000000000001,-7.000000000000002));
#251=VERTEX_POINT('',#250);
#252=CARTESIAN_POINT('',(17.0,-7.000000000000002,-7.0));
#253=DIRECTION('',(0.0,1.0,0.0));
#254=VECTOR('',#253,14.000000000000004);
#255=LINE('',#252,#254);
#256=EDGE_CURVE('',#249,#251,#255,.T.);
#257=ORIENTED_EDGE('',*,*,#256,.F.);
#258=CARTESIAN_POINT('',(10.0,-7.000000000000002,-7.0));
#259=DIRECTION('',(1.0,0.0,0.0));
#260=VECTOR('',#259,7.0);
#261=LINE('',#258,#260);
#262=EDGE_CURVE('',#216,#249,#261,.T.);
#263=ORIENTED_EDGE('',*,*,#262,.F.);
#264=ORIENTED_EDGE('',*,*,#221,.T.);
#265=CARTESIAN_POINT('',(10.0,7.000000000000001,-7.000000000000002));
#266=DIRECTION('',(1.0,0.0,0.0));
#267=VECTOR('',#266,7.0);
#268=LINE('',#265,#267);
#269=EDGE_CURVE('',#208,#251,#268,.T.);
#270=ORIENTED_EDGE('',*,*,#269,.T.);
#271=EDGE_LOOP('',(#257,#263,#264,#270));
#272=FACE_OUTER_BOUND('',#271,.T.);
#273=ADVANCED_FACE('',(#272),#247,.T.);
#274=CARTESIAN_POINT('',(10.0,-7.000000000000002,-7.0));
#275=DIRECTION('',(0.0,-1.0,0.0));
#276=DIRECTION('',(0.0,0.0,-1.0));
#277=AXIS2_PLACEMENT_3D('',#274,#275,#276);
#278=PLANE('',#277);
#279=CARTESIAN_POINT('',(17.0,-7.0,7.0));
#280=DIRECTION('',(0.0,0.0,-1.0));
#281=VECTOR('',#280,14.0);
#282=LINE('',#279,#281);
#283=EDGE_CURVE('',#170,#249,#282,.T.);
#284=ORIENTED_EDGE('',*,*,#283,.F.);
#285=ORIENTED_EDGE('',*,*,#197,.F.);
#286=ORIENTED_EDGE('',*,*,#227,.T.);
#287=ORIENTED_EDGE('',*,*,#262,.T.);
#288=EDGE_LOOP('',(#284,#285,#286,#287));
#289=FACE_OUTER_BOUND('',#288,.T.);
#290=ADVANCED_FACE('',(#289),#278,.T.);
#291=CARTESIAN_POINT('',(10.0,7.000000000000001,7.000000000000001));
#292=DIRECTION('',(0.0,1.0,0.0));
#293=DIRECTION('',(0.0,0.0,1.0));
#294=AXIS2_PLACEMENT_3D('',#291,#292,#293);
#295=PLANE('',#294);
#296=CARTESIAN_POINT('',(17.0,7.000000000000001,-7.000000000000002));
#297=DIRECTION('',(0.0,0.0,1.0));
#298=VECTOR('',#297,14.000000000000004);
#299=LINE('',#296,#298);
#300=EDGE_CURVE('',#251,#168,#299,.T.);
#301=ORIENTED_EDGE('',*,*,#300,.F.);
#302=ORIENTED_EDGE('',*,*,#269,.F.);
#303=ORIENTED_EDGE('',*,*,#213,.T.);
#304=ORIENTED_EDGE('',*,*,#183,.T.);
#305=EDGE_LOOP('',(#301,#302,#303,#304));
#306=FACE_OUTER_BOUND('',#305,.T.);
#307=ADVANCED_FACE('',(#306),#295,.T.);
#308=CARTESIAN_POINT('',(5.0,0.0,0.0));
#309=DIRECTION('',(1.0,0.0,0.0));
#310=DIRECTION('',(0.0,1.0,0.0));
#311=AXIS2_PLACEMENT_3D('',#308,#309,#310);
#312=CYLINDRICAL_SURFACE('',#311,5.0);
#313=ORIENTED_EDGE('',*,*,#133,.T.);
#314=ORIENTED_EDGE('',*,*,#238,.F.);
#315=ORIENTED_EDGE('',*,*,#150,.T.);
#316=CARTESIAN_POINT('',(0.0,0.0,0.0));
#317=DIRECTION('',(1.0,0.0,0.0));
#318=DIRECTION('',(0.0,1.0,0.0));
#319=AXIS2_PLACEMENT_3D('',#316,#317,#318);
#320=CIRCLE('',#319,5.0);
#321=EDGE_CURVE('',#136,#126,#320,.T.);
#322=ORIENTED_EDGE('',*,*,#321,.T.);
#323=EDGE_LOOP('',(#313,#314,#315,#322));
#324=FACE_OUTER_BOUND('',#323,.T.);
#325=ADVANCED_FACE('',(#324),#312,.T.);
#326=CARTESIAN_POINT('',(17.0,15.750000000000002,0.0));
#327=DIRECTION('',(-1.0,0.0,0.0));
#328=DIRECTION('',(0.0,0.0,1.0));
#329=AXIS2_PLACEMENT_3D('',#326,#327,#328);
#330=PLANE('',#329);
#331=ORIENTED_EDGE('',*,*,#99,.F.);
#332=CARTESIAN_POINT('',(17.0,0.0,0.0));
#333=DIRECTION('',(1.0,0.0,0.0));
#334=DIRECTION('',(0.0,1.0,0.0));
#335=AXIS2_PLACEMENT_3D('',#332,#333,#334);
#336=CIRCLE('',#335,24.500000000000000);
#337=EDGE_CURVE('',#93,#85,#336,.T.);
#338=ORIENTED_EDGE('',*,*,#337,.F.);
#339=EDGE_LOOP('',(#331,#338));
#340=FACE_OUTER_BOUND('',#339,.T.);
#341=ORIENTED_EDGE('',*,*,#300,.T.);
#342=ORIENTED_EDGE('',*,*,#175,.T.);
#343=ORIENTED_EDGE('',*,*,#283,.T.);
#344=ORIENTED_EDGE('',*,*,#256,.T.);
#345=EDGE_LOOP('',(#341,#342,#343,#344));
#346=FACE_BOUND('',#345,.T.);
#347=ADVANCED_FACE('',(#340,#346),#330,.T.);
#348=CARTESIAN_POINT('',(29.500000000000000,0.0,0.0));
#349=DIRECTION('',(1.0,0.0,0.0));
#350=DIRECTION('',(0.0,1.0,0.0));
#351=AXIS2_PLACEMENT_3D('',#348,#349,#350);
#352=CYLINDRICAL_SURFACE('',#351,24.500000000000000);
#353=ORIENTED_EDGE('',*,*,#90,.T.);
#354=ORIENTED_EDGE('',*,*,#67,.F.);
#355=CARTESIAN_POINT('',(42.0,0.0,0.0));
#356=DIRECTION('',(1.0,0.0,0.0));
#357=DIRECTION('',(0.0,1.0,0.0));
#358=AXIS2_PLACEMENT_3D('',#355,#356,#357);
#359=CIRCLE('',#358,24.500000000000000);
#360=EDGE_CURVE('',#102,#50,#359,.T.);
#361=ORIENTED_EDGE('',*,*,#360,.F.);
#362=ORIENTED_EDGE('',*,*,#107,.T.);
#363=ORIENTED_EDGE('',*,*,#337,.T.);
#364=EDGE_LOOP('',(#353,#354,#361,#362,#363));
#365=FACE_OUTER_BOUND('',#364,.T.);
#366=ADVANCED_FACE('',(#365),#352,.T.);
#367=CARTESIAN_POINT('',(-107.062499999999890,0.0,0.0));
#368=DIRECTION('',(0.0,0.0,1.0));
#369=DIRECTION('',(1.0,0.0,0.0));
#370=AXIS2_PLACEMENT_3D('',#367,#368,#369);
#371=SPHERICAL_SURFACE('',#370,151.062499999999910);
#372=ORIENTED_EDGE('',*,*,#58,.T.);
#373=ORIENTED_EDGE('',*,*,#114,.T.);
#374=ORIENTED_EDGE('',*,*,#360,.T.);
#375=EDGE_LOOP('',(#372,#373,#374));
#376=FACE_OUTER_BOUND('',#375,.T.);
#377=ADVANCED_FACE('',(#376),#371,.T.);
#378=CARTESIAN_POINT('',(0.0,2.500000000000000,0.0));
#379=DIRECTION('',(-1.0,0.0,0.0));
#380=DIRECTION('',(0.0,0.0,1.0));
#381=AXIS2_PLACEMENT_3D('',#378,#379,#380);
#382=PLANE('',#381);
#383=ORIENTED_EDGE('',*,*,#142,.F.);
#384=ORIENTED_EDGE('',*,*,#321,.F.);
#385=EDGE_LOOP('',(#383,#384));
#386=FACE_OUTER_BOUND('',#385,.T.);
#387=ADVANCED_FACE('',(#386),#382,.T.);
#388=CLOSED_SHELL('',(#78,#119,#161,#201,#242,#273,#290,#307,#325,#347,#366,#377,#387));
#389=MANIFOLD_SOLID_BREP('',#388);
#390=COLOUR_RGB('Nero plastica',0.705882370471954,0.705882370471954,0.705882370471954);
#391=FILL_AREA_STYLE_COLOUR('Nero plastica',#390);
#392=FILL_AREA_STYLE('Nero plastica',(#391));
#393=SURFACE_STYLE_FILL_AREA(#392);
#394=SURFACE_SIDE_STYLE('Nero plastica',(#393));
#395=SURFACE_STYLE_USAGE(.BOTH.,#394);
#396=PRESENTATION_STYLE_ASSIGNMENT((#395));
#397=STYLED_ITEM('',(#396),#389);
#398=MECHANICAL_DESIGN_GEOMETRIC_PRESENTATION_REPRESENTATION('',(#397),#36);
#399=ADVANCED_BREP_SHAPE_REPRESENTATION('ABSR',(#389),#36);
#400=SHAPE_REPRESENTATION_RELATIONSHIP('SRR','None',#399,#41);
ENDSEC;
END-ISO-10303-21;
