ISO-10303-21;
HEADER;
/****************************************************************
 * Generated by software with PDE/Lib inside                    *
 * PDElib Version 4.0, created Wed Jun 15 17:58:53 EDT 2005     *
 * International Technegroup Inc. (www.iti-oh.com)              *
 ****************************************************************/
FILE_DESCRIPTION((''),'2;1');
FILE_NAME('K:\\A-Roberto\\Rev.Librerie\\Step-Igs\\COPIA 2400\\2400 FLAT\\2430_17.stp','2006-01-04T09:08:04',('rivolro1'),(''),'Autodesk Inventor 10','Autodesk Inventor 10','');
FILE_SCHEMA(('AUTOMOTIVE_DESIGN { 1 0 10303 214 1 1 1 1 }'));
ENDSEC;
DATA;
#5=APPLICATION_CONTEXT('automotive design');
#6=APPLICATION_PROTOCOL_DEFINITION('Draft International Standard','automotive_design',1998,#5);
#7=PRODUCT_CONTEXT('None',#5,'mechanical');
#8=PRODUCT('2430_17','2430_17','None',(#7));
#9=PRODUCT_RELATED_PRODUCT_CATEGORY('part','description',(#8));
#10=PRODUCT_DEFINITION_FORMATION('None','None',#8);
#11=PRODUCT_DEFINITION_CONTEXT('part definition',#5,'design');
#12=PRODUCT_DEFINITION('None','None',#10,#11);
#18=(NAMED_UNIT(*)PLANE_ANGLE_UNIT()SI_UNIT($,.RADIAN.));
#19=DIMENSIONAL_EXPONENTS(0.0,0.0,0.0,0.0,0.0,0.0,0.0);
#20=PLANE_ANGLE_MEASURE_WITH_UNIT(PLANE_ANGLE_MEASURE(0.017453292500000),#18);
#24=(CONVERSION_BASED_UNIT('DEGREE',#20)NAMED_UNIT(#19)PLANE_ANGLE_UNIT());
#28=(NAMED_UNIT(*)SI_UNIT($,.STERADIAN.)SOLID_ANGLE_UNIT());
#32=(LENGTH_UNIT()NAMED_UNIT(*)SI_UNIT(.MILLI.,.METRE.));
#34=UNCERTAINTY_MEASURE_WITH_UNIT(LENGTH_MEASURE(0.010000000000000),#32,'DISTANCE_ACCURACY_VALUE','');
#36=(GEOMETRIC_REPRESENTATION_CONTEXT(3)GLOBAL_UNCERTAINTY_ASSIGNED_CONTEXT((#34))GLOBAL_UNIT_ASSIGNED_CONTEXT((#24,#28,#32))REPRESENTATION_CONTEXT('None','None'));
#37=AXIS2_PLACEMENT_3D('',#38,#39,#40);
#38=CARTESIAN_POINT('',(0.0,0.0,0.0));
#39=DIRECTION('',(0.0,0.0,1.0));
#40=DIRECTION('',(1.0,0.0,0.0));
#41=SHAPE_REPRESENTATION('',(#37),#36);
#42=PRODUCT_DEFINITION_SHAPE('','',#12);
#43=SHAPE_DEFINITION_REPRESENTATION(#42,#41);
#44=CARTESIAN_POINT('',(-2.249999999999996,1.353084E-015,0.0));
#45=DIRECTION('',(0.0,-1.0,0.0));
#46=DIRECTION('',(0.0,0.0,-1.0));
#47=AXIS2_PLACEMENT_3D('',#44,#45,#46);
#48=PLANE('',#47);
#49=CARTESIAN_POINT('',(-4.499999999999996,4.857226E-016,0.0));
#50=VERTEX_POINT('',#49);
#51=CARTESIAN_POINT('',(4.437546E-015,2.220446E-015,0.0));
#52=DIRECTION('',(0.0,1.0,0.0));
#53=DIRECTION('',(-1.0,0.0,0.0));
#54=AXIS2_PLACEMENT_3D('',#51,#52,#53);
#55=CIRCLE('',#54,4.500000000000001);
#56=EDGE_CURVE('',#50,#50,#55,.T.);
#57=ORIENTED_EDGE('',*,*,#56,.F.);
#58=EDGE_LOOP('',(#57));
#59=FACE_OUTER_BOUND('',#58,.T.);
#60=ADVANCED_FACE('',(#59),#48,.T.);
#61=CARTESIAN_POINT('',(4.223239E-015,0.500000000000002,0.0));
#62=DIRECTION('',(-4.286122E-016,1.0,0.0));
#63=DIRECTION('',(-1.0,0.0,0.0));
#64=AXIS2_PLACEMENT_3D('',#61,#62,#63);
#65=CYLINDRICAL_SURFACE('',#64,4.500000000000001);
#66=CARTESIAN_POINT('',(-4.499999999999996,1.000000000000001,0.0));
#67=VERTEX_POINT('',#66);
#68=CARTESIAN_POINT('',(4.008933E-015,1.000000000000003,0.0));
#69=DIRECTION('',(0.0,1.0,0.0));
#70=DIRECTION('',(-1.0,0.0,0.0));
#71=AXIS2_PLACEMENT_3D('',#68,#69,#70);
#72=CIRCLE('',#71,4.500000000000001);
#73=EDGE_CURVE('',#67,#67,#72,.T.);
#74=ORIENTED_EDGE('',*,*,#73,.F.);
#75=EDGE_LOOP('',(#74));
#76=FACE_OUTER_BOUND('',#75,.T.);
#77=ORIENTED_EDGE('',*,*,#56,.T.);
#78=EDGE_LOOP('',(#77));
#79=FACE_BOUND('',#78,.T.);
#80=ADVANCED_FACE('',(#76,#79),#65,.T.);
#81=CARTESIAN_POINT('',(-5.599999999999997,1.000000000000000,0.0));
#82=DIRECTION('',(0.0,-1.0,0.0));
#83=DIRECTION('',(0.0,0.0,-1.0));
#84=AXIS2_PLACEMENT_3D('',#81,#82,#83);
#85=PLANE('',#84);
#86=CARTESIAN_POINT('',(-6.699999999999998,1.000000000000000,0.0));
#87=VERTEX_POINT('',#86);
#88=CARTESIAN_POINT('',(4.008933E-015,1.000000000000003,0.0));
#89=DIRECTION('',(0.0,1.0,0.0));
#90=DIRECTION('',(-1.0,0.0,0.0));
#91=AXIS2_PLACEMENT_3D('',#88,#89,#90);
#92=CIRCLE('',#91,6.700000000000001);
#93=EDGE_CURVE('',#87,#87,#92,.T.);
#94=ORIENTED_EDGE('',*,*,#93,.F.);
#95=EDGE_LOOP('',(#94));
#96=FACE_OUTER_BOUND('',#95,.T.);
#97=ORIENTED_EDGE('',*,*,#73,.T.);
#98=EDGE_LOOP('',(#97));
#99=FACE_BOUND('',#98,.T.);
#100=ADVANCED_FACE('',(#96,#99),#85,.T.);
#101=CARTESIAN_POINT('',(3.794627E-015,1.500000000000002,0.0));
#102=DIRECTION('',(-4.286122E-016,1.0,0.0));
#103=DIRECTION('',(-1.0,0.0,0.0));
#104=AXIS2_PLACEMENT_3D('',#101,#102,#103);
#105=CYLINDRICAL_SURFACE('',#104,6.700000000000000);
#106=CARTESIAN_POINT('',(-6.699999999999998,2.000000000000000,0.0));
#107=VERTEX_POINT('',#106);
#108=CARTESIAN_POINT('',(3.580321E-015,2.000000000000002,0.0));
#109=DIRECTION('',(0.0,1.0,0.0));
#110=DIRECTION('',(-1.0,0.0,0.0));
#111=AXIS2_PLACEMENT_3D('',#108,#109,#110);
#112=CIRCLE('',#111,6.700000000000001);
#113=EDGE_CURVE('',#107,#107,#112,.T.);
#114=ORIENTED_EDGE('',*,*,#113,.F.);
#115=EDGE_LOOP('',(#114));
#116=FACE_OUTER_BOUND('',#115,.T.);
#117=ORIENTED_EDGE('',*,*,#93,.T.);
#118=EDGE_LOOP('',(#117));
#119=FACE_BOUND('',#118,.T.);
#120=ADVANCED_FACE('',(#116,#119),#105,.T.);
#121=CARTESIAN_POINT('',(-5.599999999999997,2.000000000000000,0.0));
#122=DIRECTION('',(0.0,1.0,0.0));
#123=DIRECTION('',(0.0,0.0,1.0));
#124=AXIS2_PLACEMENT_3D('',#121,#122,#123);
#125=PLANE('',#124);
#126=ORIENTED_EDGE('',*,*,#113,.T.);
#127=EDGE_LOOP('',(#126));
#128=FACE_OUTER_BOUND('',#127,.T.);
#129=CARTESIAN_POINT('',(-4.499999999999996,2.000000000000000,0.0));
#130=VERTEX_POINT('',#129);
#131=CARTESIAN_POINT('',(3.580321E-015,2.000000000000001,0.0));
#132=DIRECTION('',(0.0,1.0,0.0));
#133=DIRECTION('',(-1.0,0.0,0.0));
#134=AXIS2_PLACEMENT_3D('',#131,#132,#133);
#135=CIRCLE('',#134,4.500000000000000);
#136=EDGE_CURVE('',#130,#130,#135,.T.);
#137=ORIENTED_EDGE('',*,*,#136,.F.);
#138=EDGE_LOOP('',(#137));
#139=FACE_BOUND('',#138,.T.);
#140=ADVANCED_FACE('',(#128,#139),#125,.T.);
#141=CARTESIAN_POINT('',(3.366015E-015,2.500000000000002,0.0));
#142=DIRECTION('',(-4.286122E-016,1.0,0.0));
#143=DIRECTION('',(-1.0,0.0,0.0));
#144=AXIS2_PLACEMENT_3D('',#141,#142,#143);
#145=CYLINDRICAL_SURFACE('',#144,4.500000000000000);
#146=CARTESIAN_POINT('',(-4.499999999999996,3.000000000000000,0.0));
#147=VERTEX_POINT('',#146);
#148=CARTESIAN_POINT('',(3.151709E-015,3.000000000000002,0.0));
#149=DIRECTION('',(0.0,1.0,0.0));
#150=DIRECTION('',(-1.0,0.0,0.0));
#151=AXIS2_PLACEMENT_3D('',#148,#149,#150);
#152=CIRCLE('',#151,4.500000000000000);
#153=EDGE_CURVE('',#147,#147,#152,.T.);
#154=ORIENTED_EDGE('',*,*,#153,.F.);
#155=EDGE_LOOP('',(#154));
#156=FACE_OUTER_BOUND('',#155,.T.);
#157=ORIENTED_EDGE('',*,*,#136,.T.);
#158=EDGE_LOOP('',(#157));
#159=FACE_BOUND('',#158,.T.);
#160=ADVANCED_FACE('',(#156,#159),#145,.T.);
#161=CARTESIAN_POINT('',(-2.249999999999997,3.000000000000001,0.0));
#162=DIRECTION('',(0.0,1.0,0.0));
#163=DIRECTION('',(0.0,0.0,1.0));
#164=AXIS2_PLACEMENT_3D('',#161,#162,#163);
#165=PLANE('',#164);
#166=ORIENTED_EDGE('',*,*,#153,.T.);
#167=EDGE_LOOP('',(#166));
#168=FACE_OUTER_BOUND('',#167,.T.);
#169=ADVANCED_FACE('',(#168),#165,.T.);
#170=CLOSED_SHELL('',(#60,#80,#100,#120,#140,#160,#169));
#171=MANIFOLD_SOLID_BREP('',#170);
#172=COLOUR_RGB('Plastic-Black',0.705882370471954,0.705882370471954,0.705882370471954);
#173=FILL_AREA_STYLE_COLOUR('Plastic-Black',#172);
#174=FILL_AREA_STYLE('Plastic-Black',(#173));
#175=SURFACE_STYLE_FILL_AREA(#174);
#176=SURFACE_SIDE_STYLE('Plastic-Black',(#175));
#177=SURFACE_STYLE_USAGE(.BOTH.,#176);
#178=PRESENTATION_STYLE_ASSIGNMENT((#177));
#179=STYLED_ITEM('',(#178),#171);
#180=MECHANICAL_DESIGN_GEOMETRIC_PRESENTATION_REPRESENTATION('',(#179),#36);
#181=ADVANCED_BREP_SHAPE_REPRESENTATION('ABSR',(#171),#36);
#182=SHAPE_REPRESENTATION_RELATIONSHIP('SRR','None',#181,#41);
ENDSEC;
END-ISO-10303-21;
