ISO-10303-21;
HEADER;
/* Generated by software containing ST-Developer
 * from STEP Tools, Inc. (www.steptools.com) 
 */

FILE_DESCRIPTION(
/* description */ (''),
/* implementation_level */ '2;1');

FILE_NAME(
/* name */ 
'I:\\Area Tecnica\\Documenti\\A-Manieri\\_Inventor\\LIBRERIE\\300\\300
_10_05.stp',
/* time_stamp */ '2016-10-04T16:35:25+02:00',
/* author */ ('Maniean1'),
/* organization */ ('Pneumax S.p.A.'),
/* preprocessor_version */ 'ST-DEVELOPER v15.2',
/* originating_system */ 'Autodesk Inventor 2014',
/* authorisation */ '');

FILE_SCHEMA (('AUTOMOTIVE_DESIGN { 1 0 10303 214 3 1 1 }'));
ENDSEC;

DATA;
#10=MECHANICAL_DESIGN_GEOMETRIC_PRESENTATION_REPRESENTATION('',(#13),#499);
#11=SHAPE_REPRESENTATION_RELATIONSHIP('SRR','None',#508,#12);
#12=ADVANCED_BREP_SHAPE_REPRESENTATION($,(#290),#498);
#13=STYLED_ITEM('',(#517),#290);
#14=LINE('',#473,#26);
#15=LINE('',#475,#27);
#16=LINE('',#477,#28);
#17=LINE('',#478,#29);
#18=LINE('',#481,#30);
#19=LINE('',#483,#31);
#20=LINE('',#484,#32);
#21=LINE('',#487,#33);
#22=LINE('',#489,#34);
#23=LINE('',#490,#35);
#24=LINE('',#492,#36);
#25=LINE('',#493,#37);
#26=VECTOR('',#398,32.);
#27=VECTOR('',#399,12.);
#28=VECTOR('',#400,32.);
#29=VECTOR('',#401,12.);
#30=VECTOR('',#404,32.);
#31=VECTOR('',#405,32.);
#32=VECTOR('',#406,12.);
#33=VECTOR('',#409,32.);
#34=VECTOR('',#410,32.);
#35=VECTOR('',#411,12.);
#36=VECTOR('',#414,32.);
#37=VECTOR('',#415,32.);
#38=PLANE('',#297);
#39=PLANE('',#310);
#40=PLANE('',#317);
#41=PLANE('',#324);
#42=PLANE('',#325);
#43=PLANE('',#326);
#44=PLANE('',#327);
#45=PLANE('',#328);
#46=PLANE('',#329);
#47=CYLINDRICAL_SURFACE('',#295,2.067);
#48=CYLINDRICAL_SURFACE('',#303,1.621);
#49=CYLINDRICAL_SURFACE('',#309,1.621);
#50=CYLINDRICAL_SURFACE('',#313,3.625);
#51=CYLINDRICAL_SURFACE('',#315,2.125);
#52=CYLINDRICAL_SURFACE('',#320,3.625);
#53=CYLINDRICAL_SURFACE('',#322,2.125);
#54=FACE_BOUND('',#95,.T.);
#55=FACE_BOUND('',#97,.T.);
#56=FACE_BOUND('',#101,.T.);
#57=FACE_BOUND('',#103,.T.);
#58=FACE_BOUND('',#106,.T.);
#59=FACE_BOUND('',#108,.T.);
#60=FACE_BOUND('',#110,.T.);
#61=FACE_BOUND('',#112,.T.);
#62=FACE_BOUND('',#114,.T.);
#63=FACE_BOUND('',#116,.T.);
#64=FACE_BOUND('',#118,.T.);
#65=FACE_BOUND('',#120,.T.);
#66=FACE_BOUND('',#124,.T.);
#67=FACE_BOUND('',#125,.T.);
#68=FACE_BOUND('',#126,.T.);
#69=FACE_BOUND('',#127,.T.);
#70=FACE_BOUND('',#128,.T.);
#71=FACE_BOUND('',#129,.T.);
#72=FACE_BOUND('',#130,.T.);
#73=FACE_BOUND('',#131,.T.);
#74=FACE_BOUND('',#132,.T.);
#75=FACE_BOUND('',#133,.T.);
#76=FACE_OUTER_BOUND('',#94,.T.);
#77=FACE_OUTER_BOUND('',#96,.T.);
#78=FACE_OUTER_BOUND('',#98,.T.);
#79=FACE_OUTER_BOUND('',#99,.T.);
#80=FACE_OUTER_BOUND('',#100,.T.);
#81=FACE_OUTER_BOUND('',#102,.T.);
#82=FACE_OUTER_BOUND('',#104,.T.);
#83=FACE_OUTER_BOUND('',#105,.T.);
#84=FACE_OUTER_BOUND('',#107,.T.);
#85=FACE_OUTER_BOUND('',#109,.T.);
#86=FACE_OUTER_BOUND('',#111,.T.);
#87=FACE_OUTER_BOUND('',#113,.T.);
#88=FACE_OUTER_BOUND('',#115,.T.);
#89=FACE_OUTER_BOUND('',#117,.T.);
#90=FACE_OUTER_BOUND('',#119,.T.);
#91=FACE_OUTER_BOUND('',#121,.T.);
#92=FACE_OUTER_BOUND('',#122,.T.);
#93=FACE_OUTER_BOUND('',#123,.T.);
#94=EDGE_LOOP('',(#205));
#95=EDGE_LOOP('',(#206));
#96=EDGE_LOOP('',(#207));
#97=EDGE_LOOP('',(#208));
#98=EDGE_LOOP('',(#209));
#99=EDGE_LOOP('',(#210));
#100=EDGE_LOOP('',(#211));
#101=EDGE_LOOP('',(#212));
#102=EDGE_LOOP('',(#213));
#103=EDGE_LOOP('',(#214));
#104=EDGE_LOOP('',(#215));
#105=EDGE_LOOP('',(#216));
#106=EDGE_LOOP('',(#217));
#107=EDGE_LOOP('',(#218));
#108=EDGE_LOOP('',(#219));
#109=EDGE_LOOP('',(#220));
#110=EDGE_LOOP('',(#221));
#111=EDGE_LOOP('',(#222));
#112=EDGE_LOOP('',(#223));
#113=EDGE_LOOP('',(#224));
#114=EDGE_LOOP('',(#225));
#115=EDGE_LOOP('',(#226));
#116=EDGE_LOOP('',(#227));
#117=EDGE_LOOP('',(#228));
#118=EDGE_LOOP('',(#229));
#119=EDGE_LOOP('',(#230));
#120=EDGE_LOOP('',(#231));
#121=EDGE_LOOP('',(#232,#233,#234,#235));
#122=EDGE_LOOP('',(#236,#237,#238,#239));
#123=EDGE_LOOP('',(#240,#241,#242,#243));
#124=EDGE_LOOP('',(#244));
#125=EDGE_LOOP('',(#245,#246,#247,#248));
#126=EDGE_LOOP('',(#249));
#127=EDGE_LOOP('',(#250));
#128=EDGE_LOOP('',(#251));
#129=EDGE_LOOP('',(#252));
#130=EDGE_LOOP('',(#253,#254,#255,#256));
#131=EDGE_LOOP('',(#257));
#132=EDGE_LOOP('',(#258));
#133=EDGE_LOOP('',(#259,#260,#261,#262));
#134=CIRCLE('',#293,2.65);
#135=CIRCLE('',#294,2.067);
#136=CIRCLE('',#296,2.067);
#137=CIRCLE('',#299,1.621);
#138=CIRCLE('',#301,2.);
#139=CIRCLE('',#302,1.621);
#140=CIRCLE('',#305,1.621);
#141=CIRCLE('',#307,2.);
#142=CIRCLE('',#308,1.621);
#143=CIRCLE('',#311,3.625);
#144=CIRCLE('',#312,2.125);
#145=CIRCLE('',#314,3.625);
#146=CIRCLE('',#316,2.125);
#147=CIRCLE('',#318,3.625);
#148=CIRCLE('',#319,2.125);
#149=CIRCLE('',#321,3.625);
#150=CIRCLE('',#323,2.125);
#151=VERTEX_POINT('',#422);
#152=VERTEX_POINT('',#424);
#153=VERTEX_POINT('',#427);
#154=VERTEX_POINT('',#431);
#155=VERTEX_POINT('',#434);
#156=VERTEX_POINT('',#436);
#157=VERTEX_POINT('',#440);
#158=VERTEX_POINT('',#443);
#159=VERTEX_POINT('',#445);
#160=VERTEX_POINT('',#449);
#161=VERTEX_POINT('',#451);
#162=VERTEX_POINT('',#454);
#163=VERTEX_POINT('',#457);
#164=VERTEX_POINT('',#460);
#165=VERTEX_POINT('',#462);
#166=VERTEX_POINT('',#465);
#167=VERTEX_POINT('',#468);
#168=VERTEX_POINT('',#471);
#169=VERTEX_POINT('',#472);
#170=VERTEX_POINT('',#474);
#171=VERTEX_POINT('',#476);
#172=VERTEX_POINT('',#480);
#173=VERTEX_POINT('',#482);
#174=VERTEX_POINT('',#486);
#175=VERTEX_POINT('',#488);
#176=EDGE_CURVE('',#151,#151,#134,.T.);
#177=EDGE_CURVE('',#152,#152,#135,.T.);
#178=EDGE_CURVE('',#153,#153,#136,.T.);
#179=EDGE_CURVE('',#154,#154,#137,.T.);
#180=EDGE_CURVE('',#155,#155,#138,.T.);
#181=EDGE_CURVE('',#156,#156,#139,.T.);
#182=EDGE_CURVE('',#157,#157,#140,.T.);
#183=EDGE_CURVE('',#158,#158,#141,.T.);
#184=EDGE_CURVE('',#159,#159,#142,.T.);
#185=EDGE_CURVE('',#160,#160,#143,.T.);
#186=EDGE_CURVE('',#161,#161,#144,.T.);
#187=EDGE_CURVE('',#162,#162,#145,.T.);
#188=EDGE_CURVE('',#163,#163,#146,.T.);
#189=EDGE_CURVE('',#164,#164,#147,.T.);
#190=EDGE_CURVE('',#165,#165,#148,.T.);
#191=EDGE_CURVE('',#166,#166,#149,.T.);
#192=EDGE_CURVE('',#167,#167,#150,.T.);
#193=EDGE_CURVE('',#168,#169,#14,.T.);
#194=EDGE_CURVE('',#168,#170,#15,.T.);
#195=EDGE_CURVE('',#171,#170,#16,.T.);
#196=EDGE_CURVE('',#169,#171,#17,.T.);
#197=EDGE_CURVE('',#169,#172,#18,.T.);
#198=EDGE_CURVE('',#173,#171,#19,.T.);
#199=EDGE_CURVE('',#172,#173,#20,.T.);
#200=EDGE_CURVE('',#172,#174,#21,.T.);
#201=EDGE_CURVE('',#175,#173,#22,.T.);
#202=EDGE_CURVE('',#174,#175,#23,.T.);
#203=EDGE_CURVE('',#174,#168,#24,.T.);
#204=EDGE_CURVE('',#170,#175,#25,.T.);
#205=ORIENTED_EDGE('',*,*,#176,.F.);
#206=ORIENTED_EDGE('',*,*,#177,.F.);
#207=ORIENTED_EDGE('',*,*,#177,.T.);
#208=ORIENTED_EDGE('',*,*,#178,.F.);
#209=ORIENTED_EDGE('',*,*,#178,.T.);
#210=ORIENTED_EDGE('',*,*,#179,.F.);
#211=ORIENTED_EDGE('',*,*,#180,.F.);
#212=ORIENTED_EDGE('',*,*,#181,.T.);
#213=ORIENTED_EDGE('',*,*,#181,.F.);
#214=ORIENTED_EDGE('',*,*,#179,.T.);
#215=ORIENTED_EDGE('',*,*,#182,.F.);
#216=ORIENTED_EDGE('',*,*,#183,.F.);
#217=ORIENTED_EDGE('',*,*,#184,.T.);
#218=ORIENTED_EDGE('',*,*,#184,.F.);
#219=ORIENTED_EDGE('',*,*,#182,.T.);
#220=ORIENTED_EDGE('',*,*,#185,.F.);
#221=ORIENTED_EDGE('',*,*,#186,.T.);
#222=ORIENTED_EDGE('',*,*,#187,.F.);
#223=ORIENTED_EDGE('',*,*,#185,.T.);
#224=ORIENTED_EDGE('',*,*,#188,.F.);
#225=ORIENTED_EDGE('',*,*,#186,.F.);
#226=ORIENTED_EDGE('',*,*,#189,.F.);
#227=ORIENTED_EDGE('',*,*,#190,.T.);
#228=ORIENTED_EDGE('',*,*,#191,.F.);
#229=ORIENTED_EDGE('',*,*,#189,.T.);
#230=ORIENTED_EDGE('',*,*,#192,.F.);
#231=ORIENTED_EDGE('',*,*,#190,.F.);
#232=ORIENTED_EDGE('',*,*,#193,.F.);
#233=ORIENTED_EDGE('',*,*,#194,.T.);
#234=ORIENTED_EDGE('',*,*,#195,.F.);
#235=ORIENTED_EDGE('',*,*,#196,.F.);
#236=ORIENTED_EDGE('',*,*,#197,.F.);
#237=ORIENTED_EDGE('',*,*,#196,.T.);
#238=ORIENTED_EDGE('',*,*,#198,.F.);
#239=ORIENTED_EDGE('',*,*,#199,.F.);
#240=ORIENTED_EDGE('',*,*,#200,.F.);
#241=ORIENTED_EDGE('',*,*,#199,.T.);
#242=ORIENTED_EDGE('',*,*,#201,.F.);
#243=ORIENTED_EDGE('',*,*,#202,.F.);
#244=ORIENTED_EDGE('',*,*,#176,.T.);
#245=ORIENTED_EDGE('',*,*,#203,.F.);
#246=ORIENTED_EDGE('',*,*,#202,.T.);
#247=ORIENTED_EDGE('',*,*,#204,.F.);
#248=ORIENTED_EDGE('',*,*,#194,.F.);
#249=ORIENTED_EDGE('',*,*,#180,.T.);
#250=ORIENTED_EDGE('',*,*,#183,.T.);
#251=ORIENTED_EDGE('',*,*,#187,.T.);
#252=ORIENTED_EDGE('',*,*,#191,.T.);
#253=ORIENTED_EDGE('',*,*,#203,.T.);
#254=ORIENTED_EDGE('',*,*,#193,.T.);
#255=ORIENTED_EDGE('',*,*,#197,.T.);
#256=ORIENTED_EDGE('',*,*,#200,.T.);
#257=ORIENTED_EDGE('',*,*,#188,.T.);
#258=ORIENTED_EDGE('',*,*,#192,.T.);
#259=ORIENTED_EDGE('',*,*,#204,.T.);
#260=ORIENTED_EDGE('',*,*,#201,.T.);
#261=ORIENTED_EDGE('',*,*,#198,.T.);
#262=ORIENTED_EDGE('',*,*,#195,.T.);
#263=CONICAL_SURFACE('',#292,2.3585,45.);
#264=CONICAL_SURFACE('',#298,0.8105,59.);
#265=CONICAL_SURFACE('',#300,1.8105,45.);
#266=CONICAL_SURFACE('',#304,0.8105,59.);
#267=CONICAL_SURFACE('',#306,1.8105,45.);
#268=ADVANCED_FACE('',(#76,#54),#263,.F.);
#269=ADVANCED_FACE('',(#77,#55),#47,.F.);
#270=ADVANCED_FACE('',(#78),#38,.T.);
#271=ADVANCED_FACE('',(#79),#264,.F.);
#272=ADVANCED_FACE('',(#80,#56),#265,.F.);
#273=ADVANCED_FACE('',(#81,#57),#48,.F.);
#274=ADVANCED_FACE('',(#82),#266,.F.);
#275=ADVANCED_FACE('',(#83,#58),#267,.F.);
#276=ADVANCED_FACE('',(#84,#59),#49,.F.);
#277=ADVANCED_FACE('',(#85,#60),#39,.F.);
#278=ADVANCED_FACE('',(#86,#61),#50,.F.);
#279=ADVANCED_FACE('',(#87,#62),#51,.F.);
#280=ADVANCED_FACE('',(#88,#63),#40,.F.);
#281=ADVANCED_FACE('',(#89,#64),#52,.F.);
#282=ADVANCED_FACE('',(#90,#65),#53,.F.);
#283=ADVANCED_FACE('',(#91),#41,.T.);
#284=ADVANCED_FACE('',(#92),#42,.T.);
#285=ADVANCED_FACE('',(#93),#43,.T.);
#286=ADVANCED_FACE('',(#66,#67),#44,.T.);
#287=ADVANCED_FACE('',(#68,#69,#70,#71,#72),#45,.F.);
#288=ADVANCED_FACE('',(#73,#74,#75),#46,.T.);
#289=CLOSED_SHELL('',(#268,#269,#270,#271,#272,#273,#274,#275,#276,#277,
#278,#279,#280,#281,#282,#283,#284,#285,#286,#287,#288));
#290=MANIFOLD_SOLID_BREP('Solido1',#289);
#291=AXIS2_PLACEMENT_3D('placement',#420,#330,#331);
#292=AXIS2_PLACEMENT_3D('',#421,#332,#333);
#293=AXIS2_PLACEMENT_3D('',#423,#334,#335);
#294=AXIS2_PLACEMENT_3D('',#425,#336,#337);
#295=AXIS2_PLACEMENT_3D('',#426,#338,#339);
#296=AXIS2_PLACEMENT_3D('',#428,#340,#341);
#297=AXIS2_PLACEMENT_3D('',#429,#342,#343);
#298=AXIS2_PLACEMENT_3D('',#430,#344,#345);
#299=AXIS2_PLACEMENT_3D('',#432,#346,#347);
#300=AXIS2_PLACEMENT_3D('',#433,#348,#349);
#301=AXIS2_PLACEMENT_3D('',#435,#350,#351);
#302=AXIS2_PLACEMENT_3D('',#437,#352,#353);
#303=AXIS2_PLACEMENT_3D('',#438,#354,#355);
#304=AXIS2_PLACEMENT_3D('',#439,#356,#357);
#305=AXIS2_PLACEMENT_3D('',#441,#358,#359);
#306=AXIS2_PLACEMENT_3D('',#442,#360,#361);
#307=AXIS2_PLACEMENT_3D('',#444,#362,#363);
#308=AXIS2_PLACEMENT_3D('',#446,#364,#365);
#309=AXIS2_PLACEMENT_3D('',#447,#366,#367);
#310=AXIS2_PLACEMENT_3D('',#448,#368,#369);
#311=AXIS2_PLACEMENT_3D('',#450,#370,#371);
#312=AXIS2_PLACEMENT_3D('',#452,#372,#373);
#313=AXIS2_PLACEMENT_3D('',#453,#374,#375);
#314=AXIS2_PLACEMENT_3D('',#455,#376,#377);
#315=AXIS2_PLACEMENT_3D('',#456,#378,#379);
#316=AXIS2_PLACEMENT_3D('',#458,#380,#381);
#317=AXIS2_PLACEMENT_3D('',#459,#382,#383);
#318=AXIS2_PLACEMENT_3D('',#461,#384,#385);
#319=AXIS2_PLACEMENT_3D('',#463,#386,#387);
#320=AXIS2_PLACEMENT_3D('',#464,#388,#389);
#321=AXIS2_PLACEMENT_3D('',#466,#390,#391);
#322=AXIS2_PLACEMENT_3D('',#467,#392,#393);
#323=AXIS2_PLACEMENT_3D('',#469,#394,#395);
#324=AXIS2_PLACEMENT_3D('',#470,#396,#397);
#325=AXIS2_PLACEMENT_3D('',#479,#402,#403);
#326=AXIS2_PLACEMENT_3D('',#485,#407,#408);
#327=AXIS2_PLACEMENT_3D('',#491,#412,#413);
#328=AXIS2_PLACEMENT_3D('',#494,#416,#417);
#329=AXIS2_PLACEMENT_3D('',#495,#418,#419);
#330=DIRECTION('axis',(0.,0.,1.));
#331=DIRECTION('refdir',(1.,0.,0.));
#332=DIRECTION('center_axis',(6.93889390390723E-017,-1.,0.));
#333=DIRECTION('ref_axis',(1.,6.93889390390723E-017,0.));
#334=DIRECTION('center_axis',(-6.93889390390723E-017,1.,0.));
#335=DIRECTION('ref_axis',(1.,6.93889390390723E-017,0.));
#336=DIRECTION('center_axis',(6.93889390390723E-017,-1.,0.));
#337=DIRECTION('ref_axis',(1.,6.93889390390723E-017,0.));
#338=DIRECTION('center_axis',(6.93889390390723E-017,-1.,0.));
#339=DIRECTION('ref_axis',(1.,6.93889390390723E-017,0.));
#340=DIRECTION('center_axis',(6.93889390390723E-017,-1.,0.));
#341=DIRECTION('ref_axis',(1.,6.93889390390723E-017,0.));
#342=DIRECTION('center_axis',(6.93889390390723E-017,-1.,0.));
#343=DIRECTION('ref_axis',(1.,8.88178419700125E-017,0.));
#344=DIRECTION('center_axis',(0.,0.,-1.));
#345=DIRECTION('ref_axis',(1.,0.,0.));
#346=DIRECTION('center_axis',(0.,0.,1.));
#347=DIRECTION('ref_axis',(1.,0.,0.));
#348=DIRECTION('center_axis',(0.,0.,-1.));
#349=DIRECTION('ref_axis',(1.,0.,0.));
#350=DIRECTION('center_axis',(0.,0.,1.));
#351=DIRECTION('ref_axis',(1.,0.,0.));
#352=DIRECTION('center_axis',(0.,0.,1.));
#353=DIRECTION('ref_axis',(1.,0.,0.));
#354=DIRECTION('center_axis',(0.,0.,1.));
#355=DIRECTION('ref_axis',(1.,0.,0.));
#356=DIRECTION('center_axis',(0.,0.,-1.));
#357=DIRECTION('ref_axis',(1.,0.,0.));
#358=DIRECTION('center_axis',(0.,0.,1.));
#359=DIRECTION('ref_axis',(1.,0.,0.));
#360=DIRECTION('center_axis',(0.,0.,-1.));
#361=DIRECTION('ref_axis',(1.,0.,0.));
#362=DIRECTION('center_axis',(0.,0.,1.));
#363=DIRECTION('ref_axis',(1.,0.,0.));
#364=DIRECTION('center_axis',(0.,0.,1.));
#365=DIRECTION('ref_axis',(1.,0.,0.));
#366=DIRECTION('center_axis',(0.,0.,1.));
#367=DIRECTION('ref_axis',(1.,0.,0.));
#368=DIRECTION('center_axis',(0.,0.,1.));
#369=DIRECTION('ref_axis',(1.,0.,0.));
#370=DIRECTION('center_axis',(0.,0.,1.));
#371=DIRECTION('ref_axis',(1.,0.,0.));
#372=DIRECTION('center_axis',(0.,0.,1.));
#373=DIRECTION('ref_axis',(1.,0.,0.));
#374=DIRECTION('center_axis',(0.,0.,1.));
#375=DIRECTION('ref_axis',(1.,0.,0.));
#376=DIRECTION('center_axis',(0.,0.,1.));
#377=DIRECTION('ref_axis',(1.,0.,0.));
#378=DIRECTION('center_axis',(0.,0.,1.));
#379=DIRECTION('ref_axis',(1.,0.,0.));
#380=DIRECTION('center_axis',(0.,0.,-1.));
#381=DIRECTION('ref_axis',(1.,0.,0.));
#382=DIRECTION('center_axis',(0.,0.,1.));
#383=DIRECTION('ref_axis',(1.,0.,0.));
#384=DIRECTION('center_axis',(0.,0.,1.));
#385=DIRECTION('ref_axis',(1.,0.,0.));
#386=DIRECTION('center_axis',(0.,0.,1.));
#387=DIRECTION('ref_axis',(1.,0.,0.));
#388=DIRECTION('center_axis',(0.,0.,1.));
#389=DIRECTION('ref_axis',(1.,0.,0.));
#390=DIRECTION('center_axis',(0.,0.,1.));
#391=DIRECTION('ref_axis',(1.,0.,0.));
#392=DIRECTION('center_axis',(0.,0.,1.));
#393=DIRECTION('ref_axis',(1.,0.,0.));
#394=DIRECTION('center_axis',(0.,0.,-1.));
#395=DIRECTION('ref_axis',(1.,0.,0.));
#396=DIRECTION('center_axis',(-1.,0.,0.));
#397=DIRECTION('ref_axis',(0.,-1.,0.));
#398=DIRECTION('',(0.,1.,0.));
#399=DIRECTION('',(0.,0.,1.));
#400=DIRECTION('',(0.,-1.,0.));
#401=DIRECTION('',(0.,0.,1.));
#402=DIRECTION('center_axis',(-2.77555756156289E-016,1.,0.));
#403=DIRECTION('ref_axis',(-1.,-3.5527136788005E-016,0.));
#404=DIRECTION('',(1.,2.77555756156289E-016,0.));
#405=DIRECTION('',(-1.,-2.77555756156289E-016,0.));
#406=DIRECTION('',(0.,0.,1.));
#407=DIRECTION('center_axis',(1.,6.93889390390723E-017,0.));
#408=DIRECTION('ref_axis',(0.,1.,0.));
#409=DIRECTION('',(6.93889390390723E-017,-1.,0.));
#410=DIRECTION('',(-6.93889390390723E-017,1.,0.));
#411=DIRECTION('',(0.,0.,1.));
#412=DIRECTION('center_axis',(6.93889390390723E-017,-1.,0.));
#413=DIRECTION('ref_axis',(1.,0.,0.));
#414=DIRECTION('',(-1.,-6.93889390390723E-017,0.));
#415=DIRECTION('',(1.,6.93889390390723E-017,0.));
#416=DIRECTION('center_axis',(0.,0.,1.));
#417=DIRECTION('ref_axis',(1.,0.,0.));
#418=DIRECTION('center_axis',(0.,0.,1.));
#419=DIRECTION('ref_axis',(1.,0.,0.));
#420=CARTESIAN_POINT('',(0.,0.,0.));
#421=CARTESIAN_POINT('Origin',(-4.,-15.7085,6.));
#422=CARTESIAN_POINT('',(-1.35,-16.,6.));
#423=CARTESIAN_POINT('Origin',(-4.,-16.,6.));
#424=CARTESIAN_POINT('',(-1.933,-15.417,6.));
#425=CARTESIAN_POINT('Origin',(-4.,-15.417,6.));
#426=CARTESIAN_POINT('Origin',(-4.,-11.,6.));
#427=CARTESIAN_POINT('',(-1.933,-6.00000000000001,6.));
#428=CARTESIAN_POINT('Origin',(-4.,-6.00000000000001,6.));
#429=CARTESIAN_POINT('Origin',(-4.,-6.00000000000001,6.));
#430=CARTESIAN_POINT('Origin',(12.,12.,10.4869975317218));
#431=CARTESIAN_POINT('',(13.621,12.,10.));
#432=CARTESIAN_POINT('Origin',(12.,12.,10.));
#433=CARTESIAN_POINT('Origin',(12.,12.,0.1895));
#434=CARTESIAN_POINT('',(14.,12.,0.));
#435=CARTESIAN_POINT('Origin',(12.,12.,0.));
#436=CARTESIAN_POINT('',(13.621,12.,0.379));
#437=CARTESIAN_POINT('Origin',(12.,12.,0.379));
#438=CARTESIAN_POINT('Origin',(12.,12.,5.));
#439=CARTESIAN_POINT('Origin',(-12.,-12.,10.4869975317218));
#440=CARTESIAN_POINT('',(-10.379,-12.,10.));
#441=CARTESIAN_POINT('Origin',(-12.,-12.,10.));
#442=CARTESIAN_POINT('Origin',(-12.,-12.,0.1895));
#443=CARTESIAN_POINT('',(-9.99999999999999,-12.,0.));
#444=CARTESIAN_POINT('Origin',(-12.,-12.,0.));
#445=CARTESIAN_POINT('',(-10.379,-12.,0.379));
#446=CARTESIAN_POINT('Origin',(-12.,-12.,0.379));
#447=CARTESIAN_POINT('Origin',(-12.,-12.,5.));
#448=CARTESIAN_POINT('Origin',(-12.,12.,4.5));
#449=CARTESIAN_POINT('',(-8.37500000000001,12.,4.5));
#450=CARTESIAN_POINT('Origin',(-12.,12.,4.5));
#451=CARTESIAN_POINT('',(-14.125,12.,4.5));
#452=CARTESIAN_POINT('Origin',(-12.,12.,4.5));
#453=CARTESIAN_POINT('Origin',(-12.,12.,2.25));
#454=CARTESIAN_POINT('',(-8.37500000000001,12.,0.));
#455=CARTESIAN_POINT('Origin',(-12.,12.,0.));
#456=CARTESIAN_POINT('Origin',(-12.,12.,49.0687996428785));
#457=CARTESIAN_POINT('',(-14.125,12.,12.));
#458=CARTESIAN_POINT('Origin',(-12.,12.,12.));
#459=CARTESIAN_POINT('Origin',(12.,-12.,4.5));
#460=CARTESIAN_POINT('',(15.625,-12.,4.5));
#461=CARTESIAN_POINT('Origin',(12.,-12.,4.5));
#462=CARTESIAN_POINT('',(9.875,-12.,4.5));
#463=CARTESIAN_POINT('Origin',(12.,-12.,4.5));
#464=CARTESIAN_POINT('Origin',(12.,-12.,2.25));
#465=CARTESIAN_POINT('',(15.625,-12.,0.));
#466=CARTESIAN_POINT('Origin',(12.,-12.,0.));
#467=CARTESIAN_POINT('Origin',(12.,-12.,49.0687996428785));
#468=CARTESIAN_POINT('',(9.875,-12.,12.));
#469=CARTESIAN_POINT('Origin',(12.,-12.,12.));
#470=CARTESIAN_POINT('Origin',(-16.,16.,0.));
#471=CARTESIAN_POINT('',(-16.,-16.,0.));
#472=CARTESIAN_POINT('',(-16.,16.,0.));
#473=CARTESIAN_POINT('',(-16.,-16.,0.));
#474=CARTESIAN_POINT('',(-16.,-16.,12.));
#475=CARTESIAN_POINT('',(-16.,-16.,0.));
#476=CARTESIAN_POINT('',(-16.,16.,12.));
#477=CARTESIAN_POINT('',(-16.,-16.,12.));
#478=CARTESIAN_POINT('',(-16.,16.,0.));
#479=CARTESIAN_POINT('Origin',(16.,16.,0.));
#480=CARTESIAN_POINT('',(16.,16.,0.));
#481=CARTESIAN_POINT('',(-16.,16.,0.));
#482=CARTESIAN_POINT('',(16.,16.,12.));
#483=CARTESIAN_POINT('',(-16.,16.,12.));
#484=CARTESIAN_POINT('',(16.,16.,0.));
#485=CARTESIAN_POINT('Origin',(16.,-16.,0.));
#486=CARTESIAN_POINT('',(16.,-16.,0.));
#487=CARTESIAN_POINT('',(16.,16.,0.));
#488=CARTESIAN_POINT('',(16.,-16.,12.));
#489=CARTESIAN_POINT('',(16.,16.,12.));
#490=CARTESIAN_POINT('',(16.,-16.,0.));
#491=CARTESIAN_POINT('Origin',(-16.,-16.,0.));
#492=CARTESIAN_POINT('',(16.,-16.,0.));
#493=CARTESIAN_POINT('',(16.,-16.,12.));
#494=CARTESIAN_POINT('Origin',(1.04083408558608E-015,-1.56125112837913E-015,
0.));
#495=CARTESIAN_POINT('Origin',(0.,-2.22044604925031E-015,12.));
#496=UNCERTAINTY_MEASURE_WITH_UNIT(LENGTH_MEASURE(0.01),#500,
'DISTANCE_ACCURACY_VALUE',
'Maximum model space distance between geometric entities at asserted c
onnectivities');
#497=UNCERTAINTY_MEASURE_WITH_UNIT(LENGTH_MEASURE(1.E-006),#500,
'DISTANCE_ACCURACY_VALUE',
'Maximum model space distance between geometric entities at asserted c
onnectivities');
#498=(
GEOMETRIC_REPRESENTATION_CONTEXT(3)
GLOBAL_UNCERTAINTY_ASSIGNED_CONTEXT((#496))
GLOBAL_UNIT_ASSIGNED_CONTEXT((#500,#503,#501))
REPRESENTATION_CONTEXT('','3D')
);
#499=(
GEOMETRIC_REPRESENTATION_CONTEXT(3)
GLOBAL_UNCERTAINTY_ASSIGNED_CONTEXT((#497))
GLOBAL_UNIT_ASSIGNED_CONTEXT((#500,#503,#501))
REPRESENTATION_CONTEXT('','3D')
);
#500=(
LENGTH_UNIT()
NAMED_UNIT(*)
SI_UNIT(.MILLI.,.METRE.)
);
#501=(
NAMED_UNIT(*)
SI_UNIT($,.STERADIAN.)
SOLID_ANGLE_UNIT()
);
#502=DIMENSIONAL_EXPONENTS(0.,0.,0.,0.,0.,0.,0.);
#503=(
CONVERSION_BASED_UNIT('degree',#505)
NAMED_UNIT(#502)
PLANE_ANGLE_UNIT()
);
#504=(
NAMED_UNIT(*)
PLANE_ANGLE_UNIT()
SI_UNIT($,.RADIAN.)
);
#505=PLANE_ANGLE_MEASURE_WITH_UNIT(PLANE_ANGLE_MEASURE(0.01745329252),#504);
#506=SHAPE_DEFINITION_REPRESENTATION(#507,#508);
#507=PRODUCT_DEFINITION_SHAPE('',$,#510);
#508=SHAPE_REPRESENTATION('',(#291),#498);
#509=PRODUCT_DEFINITION_CONTEXT('part definition',#514,'design');
#510=PRODUCT_DEFINITION('300_10_05','300_10_05',#511,#509);
#511=PRODUCT_DEFINITION_FORMATION('',$,#516);
#512=PRODUCT_RELATED_PRODUCT_CATEGORY('300_10_05','300_10_05',(#516));
#513=APPLICATION_PROTOCOL_DEFINITION('international standard',
'automotive_design',2009,#514);
#514=APPLICATION_CONTEXT(
'Core Data for Automotive Mechanical Design Process');
#515=PRODUCT_CONTEXT('part definition',#514,'mechanical');
#516=PRODUCT('300_10_05','300_10_05',$,(#515));
#517=PRESENTATION_STYLE_ASSIGNMENT((#518));
#518=SURFACE_STYLE_USAGE(.BOTH.,#519);
#519=SURFACE_SIDE_STYLE($,(#520));
#520=SURFACE_STYLE_FILL_AREA(#521);
#521=FILL_AREA_STYLE($,(#522));
#522=FILL_AREA_STYLE_COLOUR($,#523);
#523=COLOUR_RGB('',0.219607843137255,0.219607843137255,0.219607843137255);
ENDSEC;
END-ISO-10303-21;
