ISO-10303-21;
HEADER;
/* Generated by software containing ST-Developer
 * from STEP Tools, Inc. (www.steptools.com) 
 */
/* OPTION: strings as raw bytes, not using required /X/ escapes */

FILE_DESCRIPTION(
/* description */ ('Unknown'),
/* implementation_level */ '2;1');

FILE_NAME(
/* name */ '6.02.12',
/* time_stamp */ '2017-07-06T13:44:57-04:00',
/* author */ ('Unknown'),
/* organization */ ('Unknown'),
/* preprocessor_version */ 'ST-DEVELOPER v16.7',
/* originating_system */ 'DEX',
/* authorisation */ $);

FILE_SCHEMA (('AUTOMOTIVE_DESIGN {1 0 10303 214 3 1 1}'));
ENDSEC;

DATA;
#10=PROPERTY_DEFINITION_REPRESENTATION(#14,#12);
#11=PROPERTY_DEFINITION_REPRESENTATION(#15,#13);
#12=REPRESENTATION('',(#16),#758);
#13=REPRESENTATION('',(#17),#758);
#14=PROPERTY_DEFINITION('pmi validation property','',#763);
#15=PROPERTY_DEFINITION('pmi validation property','',#763);
#16=VALUE_REPRESENTATION_ITEM('number of annotations',COUNT_MEASURE(0.));
#17=VALUE_REPRESENTATION_ITEM('number of views',COUNT_MEASURE(0.));
#18=SHAPE_REPRESENTATION_RELATIONSHIP('','',#510,#19);
#19=ADVANCED_BREP_SHAPE_REPRESENTATION('',(#508),#758);
#20=CONICAL_SURFACE('',#549,17.,0.785398163397445);
#21=CONICAL_SURFACE('',#550,17.,0.785398163397448);
#22=B_SPLINE_CURVE_WITH_KNOTS('',3,(#734,#735,#736,#737),.UNSPECIFIED.,
 .F.,.F.,(4,4),(0.,0.00123214581972258),.UNSPECIFIED.);
#23=B_SPLINE_CURVE_WITH_KNOTS('',3,(#738,#739,#740,#741),.UNSPECIFIED.,
 .F.,.F.,(4,4),(0.,0.00123214581972259),.UNSPECIFIED.);
#24=B_SPLINE_CURVE_WITH_KNOTS('',3,(#745,#746,#747,#748),.UNSPECIFIED.,
 .F.,.F.,(4,4),(0.,0.00123214581972258),.UNSPECIFIED.);
#25=B_SPLINE_CURVE_WITH_KNOTS('',3,(#749,#750,#751,#752),.UNSPECIFIED.,
 .F.,.F.,(4,4),(0.,0.00123214581972259),.UNSPECIFIED.);
#26=PLANE('',#521);
#27=PLANE('',#525);
#28=PLANE('',#531);
#29=PLANE('',#537);
#30=PLANE('',#538);
#31=PLANE('',#539);
#32=PLANE('',#540);
#33=PLANE('',#541);
#34=PLANE('',#542);
#35=PLANE('',#543);
#36=PLANE('',#544);
#37=PLANE('',#545);
#38=PLANE('',#546);
#39=PLANE('',#547);
#40=LINE('',#660,#60);
#41=LINE('',#665,#61);
#42=LINE('',#669,#62);
#43=LINE('',#673,#63);
#44=LINE('',#679,#64);
#45=LINE('',#684,#65);
#46=LINE('',#706,#66);
#47=LINE('',#709,#67);
#48=LINE('',#711,#68);
#49=LINE('',#713,#69);
#50=LINE('',#715,#70);
#51=LINE('',#717,#71);
#52=LINE('',#719,#72);
#53=LINE('',#721,#73);
#54=LINE('',#723,#74);
#55=LINE('',#725,#75);
#56=LINE('',#727,#76);
#57=LINE('',#729,#77);
#58=LINE('',#732,#78);
#59=LINE('',#743,#79);
#60=VECTOR('',#563,1000.);
#61=VECTOR('',#566,1000.);
#62=VECTOR('',#569,1000.);
#63=VECTOR('',#572,1000.);
#64=VECTOR('',#579,1000.);
#65=VECTOR('',#582,1000.);
#66=VECTOR('',#611,1000.);
#67=VECTOR('',#612,1000.);
#68=VECTOR('',#613,1000.);
#69=VECTOR('',#614,1000.);
#70=VECTOR('',#617,1000.);
#71=VECTOR('',#618,1000.);
#72=VECTOR('',#619,1000.);
#73=VECTOR('',#622,1000.);
#74=VECTOR('',#623,1000.);
#75=VECTOR('',#626,1000.);
#76=VECTOR('',#627,1000.);
#77=VECTOR('',#630,1000.);
#78=VECTOR('',#635,1000.);
#79=VECTOR('',#640,1000.);
#80=ORIENTED_EDGE('',*,*,#160,.F.);
#81=ORIENTED_EDGE('',*,*,#161,.T.);
#82=ORIENTED_EDGE('',*,*,#162,.F.);
#83=ORIENTED_EDGE('',*,*,#163,.T.);
#84=ORIENTED_EDGE('',*,*,#164,.T.);
#85=ORIENTED_EDGE('',*,*,#165,.F.);
#86=ORIENTED_EDGE('',*,*,#166,.T.);
#87=ORIENTED_EDGE('',*,*,#167,.T.);
#88=ORIENTED_EDGE('',*,*,#168,.T.);
#89=ORIENTED_EDGE('',*,*,#169,.F.);
#90=ORIENTED_EDGE('',*,*,#170,.T.);
#91=ORIENTED_EDGE('',*,*,#171,.T.);
#92=ORIENTED_EDGE('',*,*,#172,.T.);
#93=ORIENTED_EDGE('',*,*,#173,.T.);
#94=ORIENTED_EDGE('',*,*,#174,.T.);
#95=ORIENTED_EDGE('',*,*,#175,.T.);
#96=ORIENTED_EDGE('',*,*,#176,.T.);
#97=ORIENTED_EDGE('',*,*,#176,.F.);
#98=ORIENTED_EDGE('',*,*,#177,.T.);
#99=ORIENTED_EDGE('',*,*,#177,.F.);
#100=ORIENTED_EDGE('',*,*,#178,.F.);
#101=ORIENTED_EDGE('',*,*,#179,.T.);
#102=ORIENTED_EDGE('',*,*,#179,.F.);
#103=ORIENTED_EDGE('',*,*,#180,.T.);
#104=ORIENTED_EDGE('',*,*,#180,.F.);
#105=ORIENTED_EDGE('',*,*,#181,.F.);
#106=ORIENTED_EDGE('',*,*,#182,.F.);
#107=ORIENTED_EDGE('',*,*,#183,.F.);
#108=ORIENTED_EDGE('',*,*,#184,.T.);
#109=ORIENTED_EDGE('',*,*,#185,.T.);
#110=ORIENTED_EDGE('',*,*,#181,.T.);
#111=ORIENTED_EDGE('',*,*,#186,.F.);
#112=ORIENTED_EDGE('',*,*,#187,.F.);
#113=ORIENTED_EDGE('',*,*,#188,.T.);
#114=ORIENTED_EDGE('',*,*,#183,.T.);
#115=ORIENTED_EDGE('',*,*,#189,.F.);
#116=ORIENTED_EDGE('',*,*,#184,.F.);
#117=ORIENTED_EDGE('',*,*,#188,.F.);
#118=ORIENTED_EDGE('',*,*,#190,.F.);
#119=ORIENTED_EDGE('',*,*,#191,.F.);
#120=ORIENTED_EDGE('',*,*,#185,.F.);
#121=ORIENTED_EDGE('',*,*,#189,.T.);
#122=ORIENTED_EDGE('',*,*,#192,.T.);
#123=ORIENTED_EDGE('',*,*,#162,.T.);
#124=ORIENTED_EDGE('',*,*,#191,.T.);
#125=ORIENTED_EDGE('',*,*,#193,.T.);
#126=ORIENTED_EDGE('',*,*,#186,.T.);
#127=ORIENTED_EDGE('',*,*,#182,.T.);
#128=ORIENTED_EDGE('',*,*,#178,.T.);
#129=ORIENTED_EDGE('',*,*,#193,.F.);
#130=ORIENTED_EDGE('',*,*,#192,.F.);
#131=ORIENTED_EDGE('',*,*,#190,.T.);
#132=ORIENTED_EDGE('',*,*,#187,.T.);
#133=ORIENTED_EDGE('',*,*,#194,.F.);
#134=ORIENTED_EDGE('',*,*,#166,.F.);
#135=ORIENTED_EDGE('',*,*,#165,.T.);
#136=ORIENTED_EDGE('',*,*,#195,.T.);
#137=ORIENTED_EDGE('',*,*,#172,.F.);
#138=ORIENTED_EDGE('',*,*,#196,.T.);
#139=ORIENTED_EDGE('',*,*,#167,.F.);
#140=ORIENTED_EDGE('',*,*,#194,.T.);
#141=ORIENTED_EDGE('',*,*,#197,.F.);
#142=ORIENTED_EDGE('',*,*,#170,.F.);
#143=ORIENTED_EDGE('',*,*,#174,.F.);
#144=ORIENTED_EDGE('',*,*,#198,.T.);
#145=ORIENTED_EDGE('',*,*,#163,.F.);
#146=ORIENTED_EDGE('',*,*,#197,.T.);
#147=ORIENTED_EDGE('',*,*,#169,.T.);
#148=ORIENTED_EDGE('',*,*,#199,.T.);
#149=ORIENTED_EDGE('',*,*,#160,.T.);
#150=ORIENTED_EDGE('',*,*,#161,.F.);
#151=ORIENTED_EDGE('',*,*,#171,.F.);
#152=ORIENTED_EDGE('',*,*,#198,.F.);
#153=ORIENTED_EDGE('',*,*,#173,.F.);
#154=ORIENTED_EDGE('',*,*,#195,.F.);
#155=ORIENTED_EDGE('',*,*,#164,.F.);
#156=ORIENTED_EDGE('',*,*,#196,.F.);
#157=ORIENTED_EDGE('',*,*,#175,.F.);
#158=ORIENTED_EDGE('',*,*,#199,.F.);
#159=ORIENTED_EDGE('',*,*,#168,.F.);
#160=EDGE_CURVE('',#200,#200,#230,.T.);
#161=EDGE_CURVE('',#201,#201,#231,.T.);
#162=EDGE_CURVE('',#202,#202,#232,.T.);
#163=EDGE_CURVE('',#203,#204,#40,.T.);
#164=EDGE_CURVE('',#204,#205,#233,.T.);
#165=EDGE_CURVE('',#206,#205,#41,.T.);
#166=EDGE_CURVE('',#206,#207,#234,.F.);
#167=EDGE_CURVE('',#207,#208,#42,.T.);
#168=EDGE_CURVE('',#208,#209,#235,.T.);
#169=EDGE_CURVE('',#210,#209,#43,.T.);
#170=EDGE_CURVE('',#210,#203,#236,.F.);
#171=EDGE_CURVE('',#211,#211,#237,.T.);
#172=EDGE_CURVE('',#212,#213,#44,.T.);
#173=EDGE_CURVE('',#213,#214,#238,.F.);
#174=EDGE_CURVE('',#214,#215,#45,.T.);
#175=EDGE_CURVE('',#215,#212,#239,.F.);
#176=EDGE_CURVE('',#216,#216,#240,.T.);
#177=EDGE_CURVE('',#217,#217,#241,.T.);
#178=EDGE_CURVE('',#218,#218,#242,.T.);
#179=EDGE_CURVE('',#219,#219,#243,.T.);
#180=EDGE_CURVE('',#220,#220,#244,.T.);
#181=EDGE_CURVE('',#221,#221,#245,.T.);
#182=EDGE_CURVE('',#222,#223,#46,.T.);
#183=EDGE_CURVE('',#224,#222,#47,.T.);
#184=EDGE_CURVE('',#224,#225,#48,.T.);
#185=EDGE_CURVE('',#225,#223,#49,.T.);
#186=EDGE_CURVE('',#226,#222,#50,.T.);
#187=EDGE_CURVE('',#227,#226,#51,.T.);
#188=EDGE_CURVE('',#227,#224,#52,.T.);
#189=EDGE_CURVE('',#225,#228,#53,.T.);
#190=EDGE_CURVE('',#228,#227,#54,.T.);
#191=EDGE_CURVE('',#223,#229,#55,.T.);
#192=EDGE_CURVE('',#228,#229,#56,.T.);
#193=EDGE_CURVE('',#229,#226,#57,.T.);
#194=EDGE_CURVE('',#207,#206,#58,.T.);
#195=EDGE_CURVE('',#205,#213,#22,.T.);
#196=EDGE_CURVE('',#212,#208,#23,.T.);
#197=EDGE_CURVE('',#203,#210,#59,.T.);
#198=EDGE_CURVE('',#214,#204,#24,.T.);
#199=EDGE_CURVE('',#209,#215,#25,.T.);
#200=VERTEX_POINT('',#654);
#201=VERTEX_POINT('',#656);
#202=VERTEX_POINT('',#659);
#203=VERTEX_POINT('',#661);
#204=VERTEX_POINT('',#662);
#205=VERTEX_POINT('',#664);
#206=VERTEX_POINT('',#666);
#207=VERTEX_POINT('',#668);
#208=VERTEX_POINT('',#670);
#209=VERTEX_POINT('',#672);
#210=VERTEX_POINT('',#674);
#211=VERTEX_POINT('',#678);
#212=VERTEX_POINT('',#680);
#213=VERTEX_POINT('',#681);
#214=VERTEX_POINT('',#683);
#215=VERTEX_POINT('',#685);
#216=VERTEX_POINT('',#689);
#217=VERTEX_POINT('',#692);
#218=VERTEX_POINT('',#695);
#219=VERTEX_POINT('',#698);
#220=VERTEX_POINT('',#701);
#221=VERTEX_POINT('',#704);
#222=VERTEX_POINT('',#707);
#223=VERTEX_POINT('',#708);
#224=VERTEX_POINT('',#710);
#225=VERTEX_POINT('',#712);
#226=VERTEX_POINT('',#716);
#227=VERTEX_POINT('',#718);
#228=VERTEX_POINT('',#722);
#229=VERTEX_POINT('',#726);
#230=CIRCLE('',#513,9.3155);
#231=CIRCLE('',#514,9.3155);
#232=CIRCLE('',#516,17.);
#233=CIRCLE('',#517,17.);
#234=CIRCLE('',#518,17.);
#235=CIRCLE('',#519,17.);
#236=CIRCLE('',#520,17.);
#237=CIRCLE('',#522,9.3155);
#238=CIRCLE('',#523,16.5);
#239=CIRCLE('',#524,16.5);
#240=CIRCLE('',#526,9.3155);
#241=CIRCLE('',#528,9.3155);
#242=CIRCLE('',#530,9.3155);
#243=CIRCLE('',#532,9.3155);
#244=CIRCLE('',#534,9.3155);
#245=CIRCLE('',#536,9.3155);
#246=EDGE_LOOP('',(#80));
#247=EDGE_LOOP('',(#81));
#248=EDGE_LOOP('',(#82));
#249=EDGE_LOOP('',(#83,#84,#85,#86,#87,#88,#89,#90));
#250=EDGE_LOOP('',(#91));
#251=EDGE_LOOP('',(#92,#93,#94,#95));
#252=EDGE_LOOP('',(#96));
#253=EDGE_LOOP('',(#97));
#254=EDGE_LOOP('',(#98));
#255=EDGE_LOOP('',(#99));
#256=EDGE_LOOP('',(#100));
#257=EDGE_LOOP('',(#101));
#258=EDGE_LOOP('',(#102));
#259=EDGE_LOOP('',(#103));
#260=EDGE_LOOP('',(#104));
#261=EDGE_LOOP('',(#105));
#262=EDGE_LOOP('',(#106,#107,#108,#109));
#263=EDGE_LOOP('',(#110));
#264=EDGE_LOOP('',(#111,#112,#113,#114));
#265=EDGE_LOOP('',(#115,#116,#117,#118));
#266=EDGE_LOOP('',(#119,#120,#121,#122));
#267=EDGE_LOOP('',(#123));
#268=EDGE_LOOP('',(#124,#125,#126,#127));
#269=EDGE_LOOP('',(#128));
#270=EDGE_LOOP('',(#129,#130,#131,#132));
#271=EDGE_LOOP('',(#133,#134));
#272=EDGE_LOOP('',(#135,#136,#137,#138,#139,#140));
#273=EDGE_LOOP('',(#141,#142));
#274=EDGE_LOOP('',(#143,#144,#145,#146,#147,#148));
#275=EDGE_LOOP('',(#149));
#276=EDGE_LOOP('',(#150));
#277=EDGE_LOOP('',(#151));
#278=EDGE_LOOP('',(#152,#153,#154,#155));
#279=EDGE_LOOP('',(#156,#157,#158,#159));
#280=FACE_BOUND('',#246,.T.);
#281=FACE_BOUND('',#247,.T.);
#282=FACE_BOUND('',#248,.T.);
#283=FACE_BOUND('',#249,.T.);
#284=FACE_BOUND('',#250,.T.);
#285=FACE_BOUND('',#251,.T.);
#286=FACE_BOUND('',#252,.T.);
#287=FACE_BOUND('',#253,.T.);
#288=FACE_BOUND('',#254,.T.);
#289=FACE_BOUND('',#255,.T.);
#290=FACE_BOUND('',#256,.T.);
#291=FACE_BOUND('',#257,.T.);
#292=FACE_BOUND('',#258,.T.);
#293=FACE_BOUND('',#259,.T.);
#294=FACE_BOUND('',#260,.T.);
#295=FACE_BOUND('',#261,.T.);
#296=FACE_BOUND('',#262,.T.);
#297=FACE_BOUND('',#263,.T.);
#298=FACE_BOUND('',#264,.T.);
#299=FACE_BOUND('',#265,.T.);
#300=FACE_BOUND('',#266,.T.);
#301=FACE_BOUND('',#267,.T.);
#302=FACE_BOUND('',#268,.T.);
#303=FACE_BOUND('',#269,.T.);
#304=FACE_BOUND('',#270,.T.);
#305=FACE_BOUND('',#271,.T.);
#306=FACE_BOUND('',#272,.T.);
#307=FACE_BOUND('',#273,.T.);
#308=FACE_BOUND('',#274,.T.);
#309=FACE_BOUND('',#275,.T.);
#310=FACE_BOUND('',#276,.T.);
#311=FACE_BOUND('',#277,.T.);
#312=FACE_BOUND('',#278,.T.);
#313=FACE_BOUND('',#279,.T.);
#314=CYLINDRICAL_SURFACE('',#512,9.3155);
#315=CYLINDRICAL_SURFACE('',#515,17.);
#316=CYLINDRICAL_SURFACE('',#527,9.3155);
#317=CYLINDRICAL_SURFACE('',#529,9.3155);
#318=CYLINDRICAL_SURFACE('',#533,9.3155);
#319=CYLINDRICAL_SURFACE('',#535,9.3155);
#320=CYLINDRICAL_SURFACE('',#548,9.3155);
#321=STYLED_ITEM('',(#344),#484);
#322=STYLED_ITEM('',(#345),#485);
#323=STYLED_ITEM('',(#346),#486);
#324=STYLED_ITEM('',(#347),#487);
#325=STYLED_ITEM('',(#348),#488);
#326=STYLED_ITEM('',(#349),#489);
#327=STYLED_ITEM('',(#350),#490);
#328=STYLED_ITEM('',(#351),#491);
#329=STYLED_ITEM('',(#352),#492);
#330=STYLED_ITEM('',(#353),#493);
#331=STYLED_ITEM('',(#354),#494);
#332=STYLED_ITEM('',(#355),#495);
#333=STYLED_ITEM('',(#356),#496);
#334=STYLED_ITEM('',(#357),#497);
#335=STYLED_ITEM('',(#358),#498);
#336=STYLED_ITEM('',(#359),#499);
#337=STYLED_ITEM('',(#360),#500);
#338=STYLED_ITEM('',(#361),#501);
#339=STYLED_ITEM('',(#362),#502);
#340=STYLED_ITEM('',(#363),#503);
#341=STYLED_ITEM('',(#364),#504);
#342=STYLED_ITEM('',(#365),#505);
#343=STYLED_ITEM('',(#366),#506);
#344=PRESENTATION_STYLE_ASSIGNMENT((#367));
#345=PRESENTATION_STYLE_ASSIGNMENT((#368));
#346=PRESENTATION_STYLE_ASSIGNMENT((#369));
#347=PRESENTATION_STYLE_ASSIGNMENT((#370));
#348=PRESENTATION_STYLE_ASSIGNMENT((#371));
#349=PRESENTATION_STYLE_ASSIGNMENT((#372));
#350=PRESENTATION_STYLE_ASSIGNMENT((#373));
#351=PRESENTATION_STYLE_ASSIGNMENT((#374));
#352=PRESENTATION_STYLE_ASSIGNMENT((#375));
#353=PRESENTATION_STYLE_ASSIGNMENT((#376));
#354=PRESENTATION_STYLE_ASSIGNMENT((#377));
#355=PRESENTATION_STYLE_ASSIGNMENT((#378));
#356=PRESENTATION_STYLE_ASSIGNMENT((#379));
#357=PRESENTATION_STYLE_ASSIGNMENT((#380));
#358=PRESENTATION_STYLE_ASSIGNMENT((#381));
#359=PRESENTATION_STYLE_ASSIGNMENT((#382));
#360=PRESENTATION_STYLE_ASSIGNMENT((#383));
#361=PRESENTATION_STYLE_ASSIGNMENT((#384));
#362=PRESENTATION_STYLE_ASSIGNMENT((#385));
#363=PRESENTATION_STYLE_ASSIGNMENT((#386));
#364=PRESENTATION_STYLE_ASSIGNMENT((#387));
#365=PRESENTATION_STYLE_ASSIGNMENT((#388));
#366=PRESENTATION_STYLE_ASSIGNMENT((#389));
#367=SURFACE_STYLE_USAGE(.BOTH.,#390);
#368=SURFACE_STYLE_USAGE(.BOTH.,#391);
#369=SURFACE_STYLE_USAGE(.BOTH.,#392);
#370=SURFACE_STYLE_USAGE(.BOTH.,#393);
#371=SURFACE_STYLE_USAGE(.BOTH.,#394);
#372=SURFACE_STYLE_USAGE(.BOTH.,#395);
#373=SURFACE_STYLE_USAGE(.BOTH.,#396);
#374=SURFACE_STYLE_USAGE(.BOTH.,#397);
#375=SURFACE_STYLE_USAGE(.BOTH.,#398);
#376=SURFACE_STYLE_USAGE(.BOTH.,#399);
#377=SURFACE_STYLE_USAGE(.BOTH.,#400);
#378=SURFACE_STYLE_USAGE(.BOTH.,#401);
#379=SURFACE_STYLE_USAGE(.BOTH.,#402);
#380=SURFACE_STYLE_USAGE(.BOTH.,#403);
#381=SURFACE_STYLE_USAGE(.BOTH.,#404);
#382=SURFACE_STYLE_USAGE(.BOTH.,#405);
#383=SURFACE_STYLE_USAGE(.BOTH.,#406);
#384=SURFACE_STYLE_USAGE(.BOTH.,#407);
#385=SURFACE_STYLE_USAGE(.BOTH.,#408);
#386=SURFACE_STYLE_USAGE(.BOTH.,#409);
#387=SURFACE_STYLE_USAGE(.BOTH.,#410);
#388=SURFACE_STYLE_USAGE(.BOTH.,#411);
#389=SURFACE_STYLE_USAGE(.BOTH.,#412);
#390=SURFACE_SIDE_STYLE('',(#413));
#391=SURFACE_SIDE_STYLE('',(#414));
#392=SURFACE_SIDE_STYLE('',(#415));
#393=SURFACE_SIDE_STYLE('',(#416));
#394=SURFACE_SIDE_STYLE('',(#417));
#395=SURFACE_SIDE_STYLE('',(#418));
#396=SURFACE_SIDE_STYLE('',(#419));
#397=SURFACE_SIDE_STYLE('',(#420));
#398=SURFACE_SIDE_STYLE('',(#421));
#399=SURFACE_SIDE_STYLE('',(#422));
#400=SURFACE_SIDE_STYLE('',(#423));
#401=SURFACE_SIDE_STYLE('',(#424));
#402=SURFACE_SIDE_STYLE('',(#425));
#403=SURFACE_SIDE_STYLE('',(#426));
#404=SURFACE_SIDE_STYLE('',(#427));
#405=SURFACE_SIDE_STYLE('',(#428));
#406=SURFACE_SIDE_STYLE('',(#429));
#407=SURFACE_SIDE_STYLE('',(#430));
#408=SURFACE_SIDE_STYLE('',(#431));
#409=SURFACE_SIDE_STYLE('',(#432));
#410=SURFACE_SIDE_STYLE('',(#433));
#411=SURFACE_SIDE_STYLE('',(#434));
#412=SURFACE_SIDE_STYLE('',(#435));
#413=SURFACE_STYLE_FILL_AREA(#436);
#414=SURFACE_STYLE_FILL_AREA(#437);
#415=SURFACE_STYLE_FILL_AREA(#438);
#416=SURFACE_STYLE_FILL_AREA(#439);
#417=SURFACE_STYLE_FILL_AREA(#440);
#418=SURFACE_STYLE_FILL_AREA(#441);
#419=SURFACE_STYLE_FILL_AREA(#442);
#420=SURFACE_STYLE_FILL_AREA(#443);
#421=SURFACE_STYLE_FILL_AREA(#444);
#422=SURFACE_STYLE_FILL_AREA(#445);
#423=SURFACE_STYLE_FILL_AREA(#446);
#424=SURFACE_STYLE_FILL_AREA(#447);
#425=SURFACE_STYLE_FILL_AREA(#448);
#426=SURFACE_STYLE_FILL_AREA(#449);
#427=SURFACE_STYLE_FILL_AREA(#450);
#428=SURFACE_STYLE_FILL_AREA(#451);
#429=SURFACE_STYLE_FILL_AREA(#452);
#430=SURFACE_STYLE_FILL_AREA(#453);
#431=SURFACE_STYLE_FILL_AREA(#454);
#432=SURFACE_STYLE_FILL_AREA(#455);
#433=SURFACE_STYLE_FILL_AREA(#456);
#434=SURFACE_STYLE_FILL_AREA(#457);
#435=SURFACE_STYLE_FILL_AREA(#458);
#436=FILL_AREA_STYLE('',(#459));
#437=FILL_AREA_STYLE('',(#460));
#438=FILL_AREA_STYLE('',(#461));
#439=FILL_AREA_STYLE('',(#462));
#440=FILL_AREA_STYLE('',(#463));
#441=FILL_AREA_STYLE('',(#464));
#442=FILL_AREA_STYLE('',(#465));
#443=FILL_AREA_STYLE('',(#466));
#444=FILL_AREA_STYLE('',(#467));
#445=FILL_AREA_STYLE('',(#468));
#446=FILL_AREA_STYLE('',(#469));
#447=FILL_AREA_STYLE('',(#470));
#448=FILL_AREA_STYLE('',(#471));
#449=FILL_AREA_STYLE('',(#472));
#450=FILL_AREA_STYLE('',(#473));
#451=FILL_AREA_STYLE('',(#474));
#452=FILL_AREA_STYLE('',(#475));
#453=FILL_AREA_STYLE('',(#476));
#454=FILL_AREA_STYLE('',(#477));
#455=FILL_AREA_STYLE('',(#478));
#456=FILL_AREA_STYLE('',(#479));
#457=FILL_AREA_STYLE('',(#480));
#458=FILL_AREA_STYLE('',(#481));
#459=FILL_AREA_STYLE_COLOUR('',#482);
#460=FILL_AREA_STYLE_COLOUR('',#482);
#461=FILL_AREA_STYLE_COLOUR('',#482);
#462=FILL_AREA_STYLE_COLOUR('',#482);
#463=FILL_AREA_STYLE_COLOUR('',#482);
#464=FILL_AREA_STYLE_COLOUR('',#483);
#465=FILL_AREA_STYLE_COLOUR('',#482);
#466=FILL_AREA_STYLE_COLOUR('',#482);
#467=FILL_AREA_STYLE_COLOUR('',#483);
#468=FILL_AREA_STYLE_COLOUR('',#482);
#469=FILL_AREA_STYLE_COLOUR('',#482);
#470=FILL_AREA_STYLE_COLOUR('',#482);
#471=FILL_AREA_STYLE_COLOUR('',#482);
#472=FILL_AREA_STYLE_COLOUR('',#482);
#473=FILL_AREA_STYLE_COLOUR('',#482);
#474=FILL_AREA_STYLE_COLOUR('',#482);
#475=FILL_AREA_STYLE_COLOUR('',#482);
#476=FILL_AREA_STYLE_COLOUR('',#482);
#477=FILL_AREA_STYLE_COLOUR('',#482);
#478=FILL_AREA_STYLE_COLOUR('',#482);
#479=FILL_AREA_STYLE_COLOUR('',#483);
#480=FILL_AREA_STYLE_COLOUR('',#482);
#481=FILL_AREA_STYLE_COLOUR('',#482);
#482=COLOUR_RGB('',0.506983280181885,0.531564235687256,0.550000011920929);
#483=COLOUR_RGB('',0.1875,0.75,0.581249892711639);
#484=ADVANCED_FACE('',(#280,#281),#314,.F.);
#485=ADVANCED_FACE('',(#282,#283),#315,.T.);
#486=ADVANCED_FACE('',(#284,#285),#26,.F.);
#487=ADVANCED_FACE('',(#286),#27,.F.);
#488=ADVANCED_FACE('',(#287,#288),#316,.F.);
#489=ADVANCED_FACE('',(#289,#290),#317,.F.);
#490=ADVANCED_FACE('',(#291),#28,.F.);
#491=ADVANCED_FACE('',(#292,#293),#318,.F.);
#492=ADVANCED_FACE('',(#294,#295),#319,.F.);
#493=ADVANCED_FACE('',(#296),#29,.T.);
#494=ADVANCED_FACE('',(#297,#298),#30,.T.);
#495=ADVANCED_FACE('',(#299),#31,.F.);
#496=ADVANCED_FACE('',(#300,#301),#32,.T.);
#497=ADVANCED_FACE('',(#302),#33,.T.);
#498=ADVANCED_FACE('',(#303,#304),#34,.T.);
#499=ADVANCED_FACE('',(#305),#35,.T.);
#500=ADVANCED_FACE('',(#306),#36,.T.);
#501=ADVANCED_FACE('',(#307),#37,.T.);
#502=ADVANCED_FACE('',(#308),#38,.T.);
#503=ADVANCED_FACE('',(#309),#39,.F.);
#504=ADVANCED_FACE('',(#310,#311),#320,.F.);
#505=ADVANCED_FACE('',(#312),#20,.T.);
#506=ADVANCED_FACE('',(#313),#21,.T.);
#507=CLOSED_SHELL('',(#484,#485,#486,#487,#488,#489,#490,#491,#492,#493,
#494,#495,#496,#497,#498,#499,#500,#501,#502,#503,#504,#505,#506));
#508=MANIFOLD_SOLID_BREP('',#507);
#509=SHAPE_DEFINITION_REPRESENTATION(#763,#510);
#510=SHAPE_REPRESENTATION('6.02.12',(#511),#758);
#511=AXIS2_PLACEMENT_3D('',#651,#551,#552);
#512=AXIS2_PLACEMENT_3D('',#652,#553,#554);
#513=AXIS2_PLACEMENT_3D('',#653,#555,#556);
#514=AXIS2_PLACEMENT_3D('',#655,#557,#558);
#515=AXIS2_PLACEMENT_3D('',#657,#559,#560);
#516=AXIS2_PLACEMENT_3D('',#658,#561,#562);
#517=AXIS2_PLACEMENT_3D('',#663,#564,#565);
#518=AXIS2_PLACEMENT_3D('',#667,#567,#568);
#519=AXIS2_PLACEMENT_3D('',#671,#570,#571);
#520=AXIS2_PLACEMENT_3D('',#675,#573,#574);
#521=AXIS2_PLACEMENT_3D('',#676,#575,#576);
#522=AXIS2_PLACEMENT_3D('',#677,#577,#578);
#523=AXIS2_PLACEMENT_3D('',#682,#580,#581);
#524=AXIS2_PLACEMENT_3D('',#686,#583,#584);
#525=AXIS2_PLACEMENT_3D('',#687,#585,#586);
#526=AXIS2_PLACEMENT_3D('',#688,#587,#588);
#527=AXIS2_PLACEMENT_3D('',#690,#589,#590);
#528=AXIS2_PLACEMENT_3D('',#691,#591,#592);
#529=AXIS2_PLACEMENT_3D('',#693,#593,#594);
#530=AXIS2_PLACEMENT_3D('',#694,#595,#596);
#531=AXIS2_PLACEMENT_3D('',#696,#597,#598);
#532=AXIS2_PLACEMENT_3D('',#697,#599,#600);
#533=AXIS2_PLACEMENT_3D('',#699,#601,#602);
#534=AXIS2_PLACEMENT_3D('',#700,#603,#604);
#535=AXIS2_PLACEMENT_3D('',#702,#605,#606);
#536=AXIS2_PLACEMENT_3D('',#703,#607,#608);
#537=AXIS2_PLACEMENT_3D('',#705,#609,#610);
#538=AXIS2_PLACEMENT_3D('',#714,#615,#616);
#539=AXIS2_PLACEMENT_3D('',#720,#620,#621);
#540=AXIS2_PLACEMENT_3D('',#724,#624,#625);
#541=AXIS2_PLACEMENT_3D('',#728,#628,#629);
#542=AXIS2_PLACEMENT_3D('',#730,#631,#632);
#543=AXIS2_PLACEMENT_3D('',#731,#633,#634);
#544=AXIS2_PLACEMENT_3D('',#733,#636,#637);
#545=AXIS2_PLACEMENT_3D('',#742,#638,#639);
#546=AXIS2_PLACEMENT_3D('',#744,#641,#642);
#547=AXIS2_PLACEMENT_3D('',#753,#643,#644);
#548=AXIS2_PLACEMENT_3D('',#754,#645,#646);
#549=AXIS2_PLACEMENT_3D('',#755,#647,#648);
#550=AXIS2_PLACEMENT_3D('',#756,#649,#650);
#551=DIRECTION('',(0.,0.,1.));
#552=DIRECTION('',(1.,0.,0.));
#553=DIRECTION('',(1.,0.,0.));
#554=DIRECTION('',(0.,0.,1.));
#555=DIRECTION('',(-1.,0.,0.));
#556=DIRECTION('',(0.,0.,1.));
#557=DIRECTION('',(-1.,0.,0.));
#558=DIRECTION('',(0.,0.,1.));
#559=DIRECTION('',(1.,0.,0.));
#560=DIRECTION('',(0.,0.,-1.));
#561=DIRECTION('',(1.,0.,0.));
#562=DIRECTION('',(0.,-1.,0.));
#563=DIRECTION('',(-1.,0.,0.));
#564=DIRECTION('',(1.,0.,0.));
#565=DIRECTION('',(0.,0.,-1.));
#566=DIRECTION('',(-1.,0.,0.));
#567=DIRECTION('',(-1.,0.,0.));
#568=DIRECTION('',(0.,0.,1.));
#569=DIRECTION('',(-1.,0.,0.));
#570=DIRECTION('',(1.,0.,0.));
#571=DIRECTION('',(0.,0.,-1.));
#572=DIRECTION('',(-1.,0.,0.));
#573=DIRECTION('',(-1.,0.,0.));
#574=DIRECTION('',(0.,0.,1.));
#575=DIRECTION('',(1.,0.,0.));
#576=DIRECTION('',(0.,0.,-1.));
#577=DIRECTION('',(1.,0.,0.));
#578=DIRECTION('',(0.,0.,1.));
#579=DIRECTION('',(0.,1.,0.));
#580=DIRECTION('',(1.,0.,0.));
#581=DIRECTION('',(0.,0.,-1.));
#582=DIRECTION('',(0.,-1.,0.));
#583=DIRECTION('',(1.,0.,0.));
#584=DIRECTION('',(0.,0.,-1.));
#585=DIRECTION('',(0.,0.,1.));
#586=DIRECTION('',(1.,0.,0.));
#587=DIRECTION('',(0.,0.,-1.));
#588=DIRECTION('',(0.,1.,0.));
#589=DIRECTION('',(0.,0.,1.));
#590=DIRECTION('',(0.,1.,0.));
#591=DIRECTION('',(0.,0.,-1.));
#592=DIRECTION('',(0.,1.,0.));
#593=DIRECTION('',(0.,0.,1.));
#594=DIRECTION('',(0.,1.,0.));
#595=DIRECTION('',(0.,0.,1.));
#596=DIRECTION('',(0.,1.,0.));
#597=DIRECTION('',(-1.,0.,0.));
#598=DIRECTION('',(0.,0.,1.));
#599=DIRECTION('',(1.,0.,0.));
#600=DIRECTION('',(0.,0.,-1.));
#601=DIRECTION('',(-1.,0.,0.));
#602=DIRECTION('',(0.,0.,-1.));
#603=DIRECTION('',(1.,0.,0.));
#604=DIRECTION('',(0.,0.,-1.));
#605=DIRECTION('',(-1.,0.,0.));
#606=DIRECTION('',(0.,0.,-1.));
#607=DIRECTION('',(-1.,0.,0.));
#608=DIRECTION('',(0.,0.,-1.));
#609=DIRECTION('',(0.,0.,1.));
#610=DIRECTION('',(1.,0.,0.));
#611=DIRECTION('',(-1.,0.,0.));
#612=DIRECTION('',(0.,-1.,0.));
#613=DIRECTION('',(-1.,0.,0.));
#614=DIRECTION('',(0.,-1.,0.));
#615=DIRECTION('',(1.,0.,0.));
#616=DIRECTION('',(0.,0.,-1.));
#617=DIRECTION('',(0.,0.,1.));
#618=DIRECTION('',(0.,-1.,0.));
#619=DIRECTION('',(0.,0.,1.));
#620=DIRECTION('',(0.,-1.,0.));
#621=DIRECTION('',(0.,0.,-1.));
#622=DIRECTION('',(0.,0.,-1.));
#623=DIRECTION('',(1.,0.,0.));
#624=DIRECTION('',(-1.,0.,0.));
#625=DIRECTION('',(0.,0.,1.));
#626=DIRECTION('',(0.,0.,-1.));
#627=DIRECTION('',(0.,-1.,0.));
#628=DIRECTION('',(0.,-1.,0.));
#629=DIRECTION('',(0.,0.,-1.));
#630=DIRECTION('',(1.,0.,0.));
#631=DIRECTION('',(0.,0.,-1.));
#632=DIRECTION('',(-1.,0.,0.));
#633=DIRECTION('',(-1.,0.,0.));
#634=DIRECTION('',(0.,0.,1.));
#635=DIRECTION('',(0.,1.,0.));
#636=DIRECTION('',(0.,0.,1.));
#637=DIRECTION('',(1.,0.,0.));
#638=DIRECTION('',(-1.,0.,0.));
#639=DIRECTION('',(0.,0.,1.));
#640=DIRECTION('',(0.,-1.,0.));
#641=DIRECTION('',(0.,0.,-1.));
#642=DIRECTION('',(-1.,0.,0.));
#643=DIRECTION('',(1.,0.,0.));
#644=DIRECTION('',(0.,0.,-1.));
#645=DIRECTION('',(1.,0.,0.));
#646=DIRECTION('',(0.,0.,1.));
#647=DIRECTION('',(1.,0.,0.));
#648=DIRECTION('',(0.,0.,-1.));
#649=DIRECTION('',(1.,0.,0.));
#650=DIRECTION('',(0.,0.,-1.));
#651=CARTESIAN_POINT('',(0.,0.,0.));
#652=CARTESIAN_POINT('',(-36.,18.5,5.));
#653=CARTESIAN_POINT('',(-23.,18.5,5.));
#654=CARTESIAN_POINT('',(-23.,18.5,14.3155));
#655=CARTESIAN_POINT('',(-34.,18.5,5.));
#656=CARTESIAN_POINT('',(-34.,18.5,14.3155));
#657=CARTESIAN_POINT('',(-36.,18.5,5.));
#658=CARTESIAN_POINT('',(-26.,18.5,5.));
#659=CARTESIAN_POINT('',(-26.,1.5,5.));
#660=CARTESIAN_POINT('',(-29.,26.5,-10.));
#661=CARTESIAN_POINT('',(-29.,26.5,-10.));
#662=CARTESIAN_POINT('',(-35.5,26.5,-10.));
#663=CARTESIAN_POINT('',(-35.5,18.5,5.));
#664=CARTESIAN_POINT('',(-35.5,26.5,20.));
#665=CARTESIAN_POINT('',(-29.,26.5,20.));
#666=CARTESIAN_POINT('',(-29.,26.5,20.));
#667=CARTESIAN_POINT('',(-29.,18.5,5.));
#668=CARTESIAN_POINT('',(-29.,10.5,20.));
#669=CARTESIAN_POINT('',(-29.,10.5,20.));
#670=CARTESIAN_POINT('',(-35.5,10.5,20.));
#671=CARTESIAN_POINT('',(-35.5,18.5,5.));
#672=CARTESIAN_POINT('',(-35.5,10.5,-10.));
#673=CARTESIAN_POINT('',(-29.,10.5,-10.));
#674=CARTESIAN_POINT('',(-29.,10.5,-10.));
#675=CARTESIAN_POINT('',(-29.,18.5,5.));
#676=CARTESIAN_POINT('',(-36.,18.5,10.7133864225218));
#677=CARTESIAN_POINT('',(-36.,18.5,5.));
#678=CARTESIAN_POINT('',(-36.,18.5,14.3155));
#679=CARTESIAN_POINT('',(-36.,10.5,20.));
#680=CARTESIAN_POINT('',(-36.,11.6261364575662,20.));
#681=CARTESIAN_POINT('',(-36.,25.3738635424338,20.));
#682=CARTESIAN_POINT('',(-36.,18.5,5.));
#683=CARTESIAN_POINT('',(-36.,25.3738635424338,-10.));
#684=CARTESIAN_POINT('',(-36.,26.5,-10.));
#685=CARTESIAN_POINT('',(-36.,11.6261364575662,-10.));
#686=CARTESIAN_POINT('',(-36.,18.5,5.));
#687=CARTESIAN_POINT('',(-13.,18.5,-13.));
#688=CARTESIAN_POINT('',(-13.,18.5,-13.));
#689=CARTESIAN_POINT('',(-13.,27.8155,-13.));
#690=CARTESIAN_POINT('',(-13.,18.5,-26.));
#691=CARTESIAN_POINT('',(-13.,18.5,-24.));
#692=CARTESIAN_POINT('',(-13.,27.8155,-24.));
#693=CARTESIAN_POINT('',(-13.,18.5,-26.));
#694=CARTESIAN_POINT('',(-13.,18.5,-26.));
#695=CARTESIAN_POINT('',(-13.,27.8155,-26.));
#696=CARTESIAN_POINT('',(13.,18.5,6.));
#697=CARTESIAN_POINT('',(13.,18.5,6.));
#698=CARTESIAN_POINT('',(13.,18.5,-3.3155));
#699=CARTESIAN_POINT('',(26.,18.5,6.));
#700=CARTESIAN_POINT('',(24.,18.5,6.));
#701=CARTESIAN_POINT('',(24.,18.5,-3.3155));
#702=CARTESIAN_POINT('',(26.,18.5,6.));
#703=CARTESIAN_POINT('',(26.,18.5,6.));
#704=CARTESIAN_POINT('',(26.,18.5,-3.3155));
#705=CARTESIAN_POINT('',(26.,37.,26.));
#706=CARTESIAN_POINT('',(26.,0.,26.));
#707=CARTESIAN_POINT('',(26.,0.,26.));
#708=CARTESIAN_POINT('',(-26.,0.,26.));
#709=CARTESIAN_POINT('',(26.,37.,26.));
#710=CARTESIAN_POINT('',(26.,37.,26.));
#711=CARTESIAN_POINT('',(26.,37.,26.));
#712=CARTESIAN_POINT('',(-26.,37.,26.));
#713=CARTESIAN_POINT('',(-26.,37.,26.));
#714=CARTESIAN_POINT('',(26.,37.,-26.));
#715=CARTESIAN_POINT('',(26.,0.,-26.));
#716=CARTESIAN_POINT('',(26.,0.,-26.));
#717=CARTESIAN_POINT('',(26.,37.,-26.));
#718=CARTESIAN_POINT('',(26.,37.,-26.));
#719=CARTESIAN_POINT('',(26.,37.,-26.));
#720=CARTESIAN_POINT('',(0.,37.,0.));
#721=CARTESIAN_POINT('',(-26.,37.,26.));
#722=CARTESIAN_POINT('',(-26.,37.,-26.));
#723=CARTESIAN_POINT('',(-26.,37.,-26.));
#724=CARTESIAN_POINT('',(-26.,37.,26.));
#725=CARTESIAN_POINT('',(-26.,0.,26.));
#726=CARTESIAN_POINT('',(-26.,0.,-26.));
#727=CARTESIAN_POINT('',(-26.,37.,-26.));
#728=CARTESIAN_POINT('',(0.,0.,0.));
#729=CARTESIAN_POINT('',(-26.,0.,-26.));
#730=CARTESIAN_POINT('',(-26.,37.,-26.));
#731=CARTESIAN_POINT('',(-29.,18.5,20.));
#732=CARTESIAN_POINT('',(-29.,10.5,20.));
#733=CARTESIAN_POINT('',(-29.,10.5,20.));
#734=CARTESIAN_POINT('',(-35.5,26.5,20.));
#735=CARTESIAN_POINT('',(-35.6749236484322,26.1282872470815,20.));
#736=CARTESIAN_POINT('',(-35.8420126246083,25.7530959315947,20.));
#737=CARTESIAN_POINT('',(-36.,25.3738635424338,20.));
#738=CARTESIAN_POINT('',(-36.,11.6261364575662,20.));
#739=CARTESIAN_POINT('',(-35.8420126246083,11.2469040684053,20.));
#740=CARTESIAN_POINT('',(-35.6749236484322,10.8717127529185,20.));
#741=CARTESIAN_POINT('',(-35.5,10.5,20.));
#742=CARTESIAN_POINT('',(-29.,18.5,-10.));
#743=CARTESIAN_POINT('',(-29.,26.5,-10.));
#744=CARTESIAN_POINT('',(-29.,26.5,-10.));
#745=CARTESIAN_POINT('',(-36.,25.3738635424338,-10.));
#746=CARTESIAN_POINT('',(-35.8420126246083,25.7530959315947,-10.));
#747=CARTESIAN_POINT('',(-35.6749236484322,26.1282872470815,-10.));
#748=CARTESIAN_POINT('',(-35.5,26.5,-10.));
#749=CARTESIAN_POINT('',(-35.5,10.5,-10.));
#750=CARTESIAN_POINT('',(-35.6749236484322,10.8717127529185,-10.));
#751=CARTESIAN_POINT('',(-35.8420126246083,11.2469040684053,-10.));
#752=CARTESIAN_POINT('',(-36.,11.6261364575662,-10.));
#753=CARTESIAN_POINT('',(-23.,18.5,5.));
#754=CARTESIAN_POINT('',(-36.,18.5,5.));
#755=CARTESIAN_POINT('',(-35.5,18.5,5.));
#756=CARTESIAN_POINT('',(-35.5,18.5,5.));
#757=MECHANICAL_DESIGN_GEOMETRIC_PRESENTATION_REPRESENTATION('',(#321,#322,
#323,#324,#325,#326,#327,#328,#329,#330,#331,#332,#333,#334,#335,#336,#337,
#338,#339,#340,#341,#342,#343),#758);
#758=(
GEOMETRIC_REPRESENTATION_CONTEXT(3)
GLOBAL_UNCERTAINTY_ASSIGNED_CONTEXT((#759))
GLOBAL_UNIT_ASSIGNED_CONTEXT((#762,#761,#760))
REPRESENTATION_CONTEXT('6.02.12','TOP_LEVEL_ASSEMBLY_PART')
);
#759=UNCERTAINTY_MEASURE_WITH_UNIT(LENGTH_MEASURE(0.005),#762,
'DISTANCE_ACCURACY_VALUE','Maximum Tolerance applied to model');
#760=(
NAMED_UNIT(*)
SI_UNIT($,.STERADIAN.)
SOLID_ANGLE_UNIT()
);
#761=(
NAMED_UNIT(*)
PLANE_ANGLE_UNIT()
SI_UNIT($,.RADIAN.)
);
#762=(
LENGTH_UNIT()
NAMED_UNIT(*)
SI_UNIT(.MILLI.,.METRE.)
);
#763=PRODUCT_DEFINITION_SHAPE('','',#764);
#764=PRODUCT_DEFINITION('','',#766,#765);
#765=PRODUCT_DEFINITION_CONTEXT('',#772,'design');
#766=PRODUCT_DEFINITION_FORMATION_WITH_SPECIFIED_SOURCE('','',#768,
 .NOT_KNOWN.);
#767=PRODUCT_RELATED_PRODUCT_CATEGORY('','',(#768));
#768=PRODUCT('6.02.12','6.02.12','6.02.12',(#770));
#769=PRODUCT_CATEGORY('','');
#770=PRODUCT_CONTEXT('',#772,'mechanical');
#771=APPLICATION_PROTOCOL_DEFINITION('international standard',
'automotive_design',2010,#772);
#772=APPLICATION_CONTEXT(
'core data for automotive mechanical design processes');
ENDSEC;
END-ISO-10303-21;
