ISO-10303-21;
HEADER;
/* Generated by software containing ST-Developer
 * from STEP Tools, Inc. (www.steptools.com) 
 */

FILE_DESCRIPTION(
/* description */ ('SCARICO RAPIDO 1/4"'),
/* implementation_level */ '2;1');

FILE_NAME(
/* name */ 'C:\\Users\\maniean1\\Desktop\\6_02_14.stp',
/* time_stamp */ '2017-02-20T15:26:44+01:00',
/* author */ ('maniean1'),
/* organization */ ('Pneumax S.p.A.'),
/* preprocessor_version */ 'ST-DEVELOPER v15.2',
/* originating_system */ 'Autodesk Inventor 2014',
/* authorisation */ '');

FILE_SCHEMA (('AUTOMOTIVE_DESIGN { 1 0 10303 214 3 1 1 }'));
ENDSEC;

DATA;
#10=MECHANICAL_DESIGN_GEOMETRIC_PRESENTATION_REPRESENTATION('',(#284,#285,
#286,#287,#288,#289,#290,#291,#292,#297,#293,#294,#295,#296,#298,#299,#300,
#301,#302,#303,#304),#545);
#11=SHAPE_REPRESENTATION_RELATIONSHIP('SRR','None',#554,#12);
#12=ADVANCED_BREP_SHAPE_REPRESENTATION($,(#326),#544);
#13=CONICAL_SURFACE('',#338,11.75,45.0000000000001);
#14=CONICAL_SURFACE('',#340,11.75,45.0000000000001);
#15=FACE_BOUND('',#65,.T.);
#16=FACE_BOUND('',#69,.T.);
#17=FACE_BOUND('',#71,.T.);
#18=FACE_BOUND('',#74,.T.);
#19=FACE_BOUND('',#77,.T.);
#20=FACE_BOUND('',#82,.T.);
#21=FACE_BOUND('',#83,.T.);
#22=FACE_BOUND('',#84,.T.);
#23=FACE_BOUND('',#85,.T.);
#24=FACE_BOUND('',#86,.T.);
#25=FACE_BOUND('',#87,.T.);
#26=CYLINDRICAL_SURFACE('',#334,12.);
#27=CYLINDRICAL_SURFACE('',#344,5.85);
#28=CYLINDRICAL_SURFACE('',#347,5.85);
#29=CYLINDRICAL_SURFACE('',#351,5.85);
#30=CIRCLE('',#330,12.);
#31=CIRCLE('',#333,12.);
#32=CIRCLE('',#335,12.);
#33=CIRCLE('',#336,12.);
#34=CIRCLE('',#337,12.);
#35=CIRCLE('',#339,11.5);
#36=CIRCLE('',#341,11.5);
#37=CIRCLE('',#343,5.85);
#38=CIRCLE('',#345,5.85);
#39=CIRCLE('',#348,5.85);
#40=CIRCLE('',#349,5.85);
#41=CIRCLE('',#352,5.85);
#42=CIRCLE('',#353,5.85);
#43=FACE_OUTER_BOUND('',#60,.T.);
#44=FACE_OUTER_BOUND('',#61,.T.);
#45=FACE_OUTER_BOUND('',#62,.T.);
#46=FACE_OUTER_BOUND('',#63,.T.);
#47=FACE_OUTER_BOUND('',#64,.T.);
#48=FACE_OUTER_BOUND('',#66,.T.);
#49=FACE_OUTER_BOUND('',#67,.T.);
#50=FACE_OUTER_BOUND('',#68,.T.);
#51=FACE_OUTER_BOUND('',#70,.T.);
#52=FACE_OUTER_BOUND('',#72,.T.);
#53=FACE_OUTER_BOUND('',#73,.T.);
#54=FACE_OUTER_BOUND('',#75,.T.);
#55=FACE_OUTER_BOUND('',#76,.T.);
#56=FACE_OUTER_BOUND('',#78,.T.);
#57=FACE_OUTER_BOUND('',#79,.T.);
#58=FACE_OUTER_BOUND('',#80,.T.);
#59=FACE_OUTER_BOUND('',#81,.T.);
#60=EDGE_LOOP('',(#196,#197,#198,#199,#200,#201));
#61=EDGE_LOOP('',(#202,#203));
#62=EDGE_LOOP('',(#204,#205,#206,#207,#208,#209));
#63=EDGE_LOOP('',(#210,#211));
#64=EDGE_LOOP('',(#212));
#65=EDGE_LOOP('',(#213,#214,#215,#216,#217,#218,#219,#220));
#66=EDGE_LOOP('',(#221,#222,#223,#224));
#67=EDGE_LOOP('',(#225,#226,#227,#228));
#68=EDGE_LOOP('',(#229,#230,#231,#232));
#69=EDGE_LOOP('',(#233));
#70=EDGE_LOOP('',(#234));
#71=EDGE_LOOP('',(#235));
#72=EDGE_LOOP('',(#236));
#73=EDGE_LOOP('',(#237));
#74=EDGE_LOOP('',(#238));
#75=EDGE_LOOP('',(#239));
#76=EDGE_LOOP('',(#240));
#77=EDGE_LOOP('',(#241));
#78=EDGE_LOOP('',(#242));
#79=EDGE_LOOP('',(#243,#244,#245,#246));
#80=EDGE_LOOP('',(#247,#248,#249,#250));
#81=EDGE_LOOP('',(#251,#252,#253,#254));
#82=EDGE_LOOP('',(#255));
#83=EDGE_LOOP('',(#256,#257,#258,#259));
#84=EDGE_LOOP('',(#260));
#85=EDGE_LOOP('',(#261,#262,#263,#264));
#86=EDGE_LOOP('',(#265));
#87=EDGE_LOOP('',(#266,#267,#268,#269));
#88=LINE('',#457,#108);
#89=LINE('',#463,#109);
#90=LINE('',#465,#110);
#91=LINE('',#466,#111);
#92=LINE('',#476,#112);
#93=LINE('',#478,#113);
#94=LINE('',#480,#114);
#95=LINE('',#485,#115);
#96=LINE('',#519,#116);
#97=LINE('',#521,#117);
#98=LINE('',#523,#118);
#99=LINE('',#524,#119);
#100=LINE('',#527,#120);
#101=LINE('',#529,#121);
#102=LINE('',#530,#122);
#103=LINE('',#533,#123);
#104=LINE('',#535,#124);
#105=LINE('',#536,#125);
#106=LINE('',#538,#126);
#107=LINE('',#539,#127);
#108=VECTOR('',#365,11.3578166916005);
#109=VECTOR('',#366,3.50000000000001);
#110=VECTOR('',#367,13.2664991614216);
#111=VECTOR('',#368,3.50000000000001);
#112=VECTOR('',#375,3.50000000000001);
#113=VECTOR('',#376,13.2664991614216);
#114=VECTOR('',#377,3.50000000000001);
#115=VECTOR('',#378,11.3578166916005);
#116=VECTOR('',#427,35.);
#117=VECTOR('',#428,44.);
#118=VECTOR('',#429,35.);
#119=VECTOR('',#430,44.);
#120=VECTOR('',#433,25.);
#121=VECTOR('',#434,44.);
#122=VECTOR('',#435,25.);
#123=VECTOR('',#438,35.);
#124=VECTOR('',#439,44.);
#125=VECTOR('',#440,35.);
#126=VECTOR('',#443,25.);
#127=VECTOR('',#444,25.);
#128=(
BOUNDED_CURVE()
B_SPLINE_CURVE(2,(#453,#454,#455),.UNSPECIFIED.,.F.,.F.)
B_SPLINE_CURVE_WITH_KNOTS((3,3),(0.,0.10774611114594),.UNSPECIFIED.)
CURVE()
GEOMETRIC_REPRESENTATION_ITEM()
RATIONAL_B_SPLINE_CURVE((1.,1.00082561817034,1.))
REPRESENTATION_ITEM('')
);
#129=(
BOUNDED_CURVE()
B_SPLINE_CURVE(2,(#459,#460,#461),.UNSPECIFIED.,.F.,.F.)
B_SPLINE_CURVE_WITH_KNOTS((3,3),(0.,0.10774611114594),.UNSPECIFIED.)
CURVE()
GEOMETRIC_REPRESENTATION_ITEM()
RATIONAL_B_SPLINE_CURVE((1.,1.00082561816883,1.))
REPRESENTATION_ITEM('')
);
#130=(
BOUNDED_CURVE()
B_SPLINE_CURVE(2,(#472,#473,#474),.UNSPECIFIED.,.F.,.F.)
B_SPLINE_CURVE_WITH_KNOTS((3,3),(0.,0.10774611114594),.UNSPECIFIED.)
CURVE()
GEOMETRIC_REPRESENTATION_ITEM()
RATIONAL_B_SPLINE_CURVE((1.,1.00082561817034,1.))
REPRESENTATION_ITEM('')
);
#131=(
BOUNDED_CURVE()
B_SPLINE_CURVE(2,(#482,#483,#484),.UNSPECIFIED.,.F.,.F.)
B_SPLINE_CURVE_WITH_KNOTS((3,3),(0.,0.10774611114594),.UNSPECIFIED.)
CURVE()
GEOMETRIC_REPRESENTATION_ITEM()
RATIONAL_B_SPLINE_CURVE((1.,1.0008256181687,1.))
REPRESENTATION_ITEM('')
);
#132=VERTEX_POINT('',#451);
#133=VERTEX_POINT('',#452);
#134=VERTEX_POINT('',#456);
#135=VERTEX_POINT('',#458);
#136=VERTEX_POINT('',#462);
#137=VERTEX_POINT('',#464);
#138=VERTEX_POINT('',#470);
#139=VERTEX_POINT('',#471);
#140=VERTEX_POINT('',#475);
#141=VERTEX_POINT('',#477);
#142=VERTEX_POINT('',#479);
#143=VERTEX_POINT('',#481);
#144=VERTEX_POINT('',#489);
#145=VERTEX_POINT('',#498);
#146=VERTEX_POINT('',#501);
#147=VERTEX_POINT('',#505);
#148=VERTEX_POINT('',#507);
#149=VERTEX_POINT('',#511);
#150=VERTEX_POINT('',#513);
#151=VERTEX_POINT('',#517);
#152=VERTEX_POINT('',#518);
#153=VERTEX_POINT('',#520);
#154=VERTEX_POINT('',#522);
#155=VERTEX_POINT('',#526);
#156=VERTEX_POINT('',#528);
#157=VERTEX_POINT('',#532);
#158=VERTEX_POINT('',#534);
#159=EDGE_CURVE('',#132,#133,#128,.T.);
#160=EDGE_CURVE('',#134,#132,#88,.T.);
#161=EDGE_CURVE('',#135,#134,#129,.T.);
#162=EDGE_CURVE('',#136,#135,#89,.T.);
#163=EDGE_CURVE('',#136,#137,#90,.T.);
#164=EDGE_CURVE('',#133,#137,#91,.T.);
#165=EDGE_CURVE('',#137,#136,#30,.T.);
#166=EDGE_CURVE('',#138,#139,#130,.T.);
#167=EDGE_CURVE('',#140,#138,#92,.T.);
#168=EDGE_CURVE('',#140,#141,#93,.T.);
#169=EDGE_CURVE('',#142,#141,#94,.T.);
#170=EDGE_CURVE('',#143,#142,#131,.T.);
#171=EDGE_CURVE('',#139,#143,#95,.T.);
#172=EDGE_CURVE('',#141,#140,#31,.T.);
#173=EDGE_CURVE('',#144,#144,#32,.T.);
#174=EDGE_CURVE('',#142,#135,#33,.T.);
#175=EDGE_CURVE('',#133,#138,#34,.T.);
#176=EDGE_CURVE('',#134,#143,#35,.T.);
#177=EDGE_CURVE('',#139,#132,#36,.T.);
#178=EDGE_CURVE('',#145,#145,#37,.T.);
#179=EDGE_CURVE('',#146,#146,#38,.T.);
#180=EDGE_CURVE('',#147,#147,#39,.T.);
#181=EDGE_CURVE('',#148,#148,#40,.T.);
#182=EDGE_CURVE('',#149,#149,#41,.T.);
#183=EDGE_CURVE('',#150,#150,#42,.T.);
#184=EDGE_CURVE('',#151,#152,#96,.T.);
#185=EDGE_CURVE('',#153,#152,#97,.T.);
#186=EDGE_CURVE('',#154,#153,#98,.T.);
#187=EDGE_CURVE('',#154,#151,#99,.T.);
#188=EDGE_CURVE('',#152,#155,#100,.T.);
#189=EDGE_CURVE('',#156,#155,#101,.T.);
#190=EDGE_CURVE('',#153,#156,#102,.T.);
#191=EDGE_CURVE('',#155,#157,#103,.T.);
#192=EDGE_CURVE('',#158,#157,#104,.T.);
#193=EDGE_CURVE('',#156,#158,#105,.T.);
#194=EDGE_CURVE('',#157,#151,#106,.T.);
#195=EDGE_CURVE('',#158,#154,#107,.T.);
#196=ORIENTED_EDGE('',*,*,#159,.F.);
#197=ORIENTED_EDGE('',*,*,#160,.F.);
#198=ORIENTED_EDGE('',*,*,#161,.F.);
#199=ORIENTED_EDGE('',*,*,#162,.F.);
#200=ORIENTED_EDGE('',*,*,#163,.T.);
#201=ORIENTED_EDGE('',*,*,#164,.F.);
#202=ORIENTED_EDGE('',*,*,#165,.F.);
#203=ORIENTED_EDGE('',*,*,#163,.F.);
#204=ORIENTED_EDGE('',*,*,#166,.F.);
#205=ORIENTED_EDGE('',*,*,#167,.F.);
#206=ORIENTED_EDGE('',*,*,#168,.T.);
#207=ORIENTED_EDGE('',*,*,#169,.F.);
#208=ORIENTED_EDGE('',*,*,#170,.F.);
#209=ORIENTED_EDGE('',*,*,#171,.F.);
#210=ORIENTED_EDGE('',*,*,#168,.F.);
#211=ORIENTED_EDGE('',*,*,#172,.F.);
#212=ORIENTED_EDGE('',*,*,#173,.F.);
#213=ORIENTED_EDGE('',*,*,#164,.T.);
#214=ORIENTED_EDGE('',*,*,#165,.T.);
#215=ORIENTED_EDGE('',*,*,#162,.T.);
#216=ORIENTED_EDGE('',*,*,#174,.F.);
#217=ORIENTED_EDGE('',*,*,#169,.T.);
#218=ORIENTED_EDGE('',*,*,#172,.T.);
#219=ORIENTED_EDGE('',*,*,#167,.T.);
#220=ORIENTED_EDGE('',*,*,#175,.F.);
#221=ORIENTED_EDGE('',*,*,#161,.T.);
#222=ORIENTED_EDGE('',*,*,#176,.T.);
#223=ORIENTED_EDGE('',*,*,#170,.T.);
#224=ORIENTED_EDGE('',*,*,#174,.T.);
#225=ORIENTED_EDGE('',*,*,#159,.T.);
#226=ORIENTED_EDGE('',*,*,#175,.T.);
#227=ORIENTED_EDGE('',*,*,#166,.T.);
#228=ORIENTED_EDGE('',*,*,#177,.T.);
#229=ORIENTED_EDGE('',*,*,#160,.T.);
#230=ORIENTED_EDGE('',*,*,#177,.F.);
#231=ORIENTED_EDGE('',*,*,#171,.T.);
#232=ORIENTED_EDGE('',*,*,#176,.F.);
#233=ORIENTED_EDGE('',*,*,#178,.T.);
#234=ORIENTED_EDGE('',*,*,#178,.F.);
#235=ORIENTED_EDGE('',*,*,#179,.F.);
#236=ORIENTED_EDGE('',*,*,#179,.T.);
#237=ORIENTED_EDGE('',*,*,#180,.F.);
#238=ORIENTED_EDGE('',*,*,#181,.F.);
#239=ORIENTED_EDGE('',*,*,#181,.T.);
#240=ORIENTED_EDGE('',*,*,#182,.F.);
#241=ORIENTED_EDGE('',*,*,#183,.F.);
#242=ORIENTED_EDGE('',*,*,#183,.T.);
#243=ORIENTED_EDGE('',*,*,#184,.T.);
#244=ORIENTED_EDGE('',*,*,#185,.F.);
#245=ORIENTED_EDGE('',*,*,#186,.F.);
#246=ORIENTED_EDGE('',*,*,#187,.T.);
#247=ORIENTED_EDGE('',*,*,#188,.T.);
#248=ORIENTED_EDGE('',*,*,#189,.F.);
#249=ORIENTED_EDGE('',*,*,#190,.F.);
#250=ORIENTED_EDGE('',*,*,#185,.T.);
#251=ORIENTED_EDGE('',*,*,#191,.T.);
#252=ORIENTED_EDGE('',*,*,#192,.F.);
#253=ORIENTED_EDGE('',*,*,#193,.F.);
#254=ORIENTED_EDGE('',*,*,#189,.T.);
#255=ORIENTED_EDGE('',*,*,#180,.T.);
#256=ORIENTED_EDGE('',*,*,#194,.T.);
#257=ORIENTED_EDGE('',*,*,#187,.F.);
#258=ORIENTED_EDGE('',*,*,#195,.F.);
#259=ORIENTED_EDGE('',*,*,#192,.T.);
#260=ORIENTED_EDGE('',*,*,#173,.T.);
#261=ORIENTED_EDGE('',*,*,#184,.F.);
#262=ORIENTED_EDGE('',*,*,#194,.F.);
#263=ORIENTED_EDGE('',*,*,#191,.F.);
#264=ORIENTED_EDGE('',*,*,#188,.F.);
#265=ORIENTED_EDGE('',*,*,#182,.T.);
#266=ORIENTED_EDGE('',*,*,#195,.T.);
#267=ORIENTED_EDGE('',*,*,#186,.T.);
#268=ORIENTED_EDGE('',*,*,#190,.T.);
#269=ORIENTED_EDGE('',*,*,#193,.T.);
#270=PLANE('',#328);
#271=PLANE('',#329);
#272=PLANE('',#331);
#273=PLANE('',#332);
#274=PLANE('',#342);
#275=PLANE('',#346);
#276=PLANE('',#350);
#277=PLANE('',#354);
#278=PLANE('',#355);
#279=PLANE('',#356);
#280=PLANE('',#357);
#281=PLANE('',#358);
#282=PLANE('',#359);
#283=PLANE('',#360);
#284=STYLED_ITEM('',(#563),#305);
#285=STYLED_ITEM('',(#563),#306);
#286=STYLED_ITEM('',(#563),#307);
#287=STYLED_ITEM('',(#563),#308);
#288=STYLED_ITEM('',(#565),#309);
#289=STYLED_ITEM('',(#565),#310);
#290=STYLED_ITEM('',(#565),#311);
#291=STYLED_ITEM('',(#565),#312);
#292=STYLED_ITEM('',(#566),#313);
#293=STYLED_ITEM('',(#566),#314);
#294=STYLED_ITEM('',(#564),#315);
#295=STYLED_ITEM('',(#564),#316);
#296=STYLED_ITEM('',(#564),#317);
#297=STYLED_ITEM('',(#564),#318);
#298=STYLED_ITEM('',(#564),#319);
#299=STYLED_ITEM('',(#564),#320);
#300=STYLED_ITEM('',(#564),#321);
#301=STYLED_ITEM('',(#564),#322);
#302=STYLED_ITEM('',(#564),#323);
#303=STYLED_ITEM('',(#564),#324);
#304=STYLED_ITEM('',(#563),#326);
#305=ADVANCED_FACE('',(#43),#270,.F.);
#306=ADVANCED_FACE('',(#44),#271,.T.);
#307=ADVANCED_FACE('',(#45),#272,.F.);
#308=ADVANCED_FACE('',(#46),#273,.T.);
#309=ADVANCED_FACE('',(#47,#15),#26,.T.);
#310=ADVANCED_FACE('',(#48),#13,.T.);
#311=ADVANCED_FACE('',(#49),#14,.T.);
#312=ADVANCED_FACE('',(#50,#16),#274,.F.);
#313=ADVANCED_FACE('',(#51,#17),#27,.F.);
#314=ADVANCED_FACE('',(#52),#275,.T.);
#315=ADVANCED_FACE('',(#53,#18),#28,.F.);
#316=ADVANCED_FACE('',(#54),#276,.T.);
#317=ADVANCED_FACE('',(#55,#19),#29,.F.);
#318=ADVANCED_FACE('',(#56),#277,.T.);
#319=ADVANCED_FACE('',(#57),#278,.T.);
#320=ADVANCED_FACE('',(#58),#279,.T.);
#321=ADVANCED_FACE('',(#59),#280,.T.);
#322=ADVANCED_FACE('',(#20,#21),#281,.T.);
#323=ADVANCED_FACE('',(#22,#23),#282,.T.);
#324=ADVANCED_FACE('',(#24,#25),#283,.F.);
#325=CLOSED_SHELL('',(#305,#306,#307,#308,#309,#310,#311,#312,#313,#314,
#315,#316,#317,#318,#319,#320,#321,#322,#323,#324));
#326=MANIFOLD_SOLID_BREP('Solido1',#325);
#327=AXIS2_PLACEMENT_3D('placement',#449,#361,#362);
#328=AXIS2_PLACEMENT_3D('',#450,#363,#364);
#329=AXIS2_PLACEMENT_3D('',#467,#369,#370);
#330=AXIS2_PLACEMENT_3D('',#468,#371,#372);
#331=AXIS2_PLACEMENT_3D('',#469,#373,#374);
#332=AXIS2_PLACEMENT_3D('',#486,#379,#380);
#333=AXIS2_PLACEMENT_3D('',#487,#381,#382);
#334=AXIS2_PLACEMENT_3D('',#488,#383,#384);
#335=AXIS2_PLACEMENT_3D('',#490,#385,#386);
#336=AXIS2_PLACEMENT_3D('',#491,#387,#388);
#337=AXIS2_PLACEMENT_3D('',#492,#389,#390);
#338=AXIS2_PLACEMENT_3D('',#493,#391,#392);
#339=AXIS2_PLACEMENT_3D('',#494,#393,#394);
#340=AXIS2_PLACEMENT_3D('',#495,#395,#396);
#341=AXIS2_PLACEMENT_3D('',#496,#397,#398);
#342=AXIS2_PLACEMENT_3D('',#497,#399,#400);
#343=AXIS2_PLACEMENT_3D('',#499,#401,#402);
#344=AXIS2_PLACEMENT_3D('',#500,#403,#404);
#345=AXIS2_PLACEMENT_3D('',#502,#405,#406);
#346=AXIS2_PLACEMENT_3D('',#503,#407,#408);
#347=AXIS2_PLACEMENT_3D('',#504,#409,#410);
#348=AXIS2_PLACEMENT_3D('',#506,#411,#412);
#349=AXIS2_PLACEMENT_3D('',#508,#413,#414);
#350=AXIS2_PLACEMENT_3D('',#509,#415,#416);
#351=AXIS2_PLACEMENT_3D('',#510,#417,#418);
#352=AXIS2_PLACEMENT_3D('',#512,#419,#420);
#353=AXIS2_PLACEMENT_3D('',#514,#421,#422);
#354=AXIS2_PLACEMENT_3D('',#515,#423,#424);
#355=AXIS2_PLACEMENT_3D('',#516,#425,#426);
#356=AXIS2_PLACEMENT_3D('',#525,#431,#432);
#357=AXIS2_PLACEMENT_3D('',#531,#436,#437);
#358=AXIS2_PLACEMENT_3D('',#537,#441,#442);
#359=AXIS2_PLACEMENT_3D('',#540,#445,#446);
#360=AXIS2_PLACEMENT_3D('',#541,#447,#448);
#361=DIRECTION('axis',(0.,0.,1.));
#362=DIRECTION('refdir',(1.,0.,0.));
#363=DIRECTION('center_axis',(1.,-8.36862092339806E-017,0.));
#364=DIRECTION('ref_axis',(0.,-1.,0.));
#365=DIRECTION('',(-8.36862092339806E-017,-1.,0.));
#366=DIRECTION('',(0.,0.,1.));
#367=DIRECTION('',(-8.36862092339806E-017,-1.,0.));
#368=DIRECTION('',(0.,0.,-1.));
#369=DIRECTION('center_axis',(0.,0.,1.));
#370=DIRECTION('ref_axis',(1.,0.,0.));
#371=DIRECTION('center_axis',(0.,0.,-1.));
#372=DIRECTION('ref_axis',(-1.,0.,0.));
#373=DIRECTION('center_axis',(-1.,-8.36862092339806E-017,0.));
#374=DIRECTION('ref_axis',(0.,1.,0.));
#375=DIRECTION('',(0.,0.,1.));
#376=DIRECTION('',(-8.36862092339806E-017,1.,0.));
#377=DIRECTION('',(0.,0.,-1.));
#378=DIRECTION('',(-8.36862092339806E-017,1.,0.));
#379=DIRECTION('center_axis',(0.,0.,1.));
#380=DIRECTION('ref_axis',(1.,0.,0.));
#381=DIRECTION('center_axis',(0.,0.,-1.));
#382=DIRECTION('ref_axis',(-1.,0.,0.));
#383=DIRECTION('center_axis',(0.,0.,1.));
#384=DIRECTION('ref_axis',(-1.,0.,0.));
#385=DIRECTION('center_axis',(0.,0.,-1.));
#386=DIRECTION('ref_axis',(-1.,0.,0.));
#387=DIRECTION('center_axis',(0.,0.,1.));
#388=DIRECTION('ref_axis',(-1.,0.,0.));
#389=DIRECTION('center_axis',(0.,0.,1.));
#390=DIRECTION('ref_axis',(-1.,0.,0.));
#391=DIRECTION('center_axis',(0.,0.,-1.));
#392=DIRECTION('ref_axis',(-1.,0.,0.));
#393=DIRECTION('center_axis',(0.,0.,-1.));
#394=DIRECTION('ref_axis',(-1.,0.,0.));
#395=DIRECTION('center_axis',(0.,0.,-1.));
#396=DIRECTION('ref_axis',(-1.,0.,0.));
#397=DIRECTION('center_axis',(0.,0.,-1.));
#398=DIRECTION('ref_axis',(-1.,0.,0.));
#399=DIRECTION('center_axis',(0.,0.,-1.));
#400=DIRECTION('ref_axis',(-1.,0.,0.));
#401=DIRECTION('center_axis',(0.,0.,-1.));
#402=DIRECTION('ref_axis',(1.,0.,0.));
#403=DIRECTION('center_axis',(0.,0.,1.));
#404=DIRECTION('ref_axis',(1.,0.,0.));
#405=DIRECTION('center_axis',(0.,0.,1.));
#406=DIRECTION('ref_axis',(1.,0.,0.));
#407=DIRECTION('center_axis',(0.,0.,1.));
#408=DIRECTION('ref_axis',(1.,0.,0.));
#409=DIRECTION('center_axis',(-3.5527136788005E-016,1.,0.));
#410=DIRECTION('ref_axis',(1.,3.5527136788005E-016,0.));
#411=DIRECTION('center_axis',(3.5527136788005E-016,-1.,0.));
#412=DIRECTION('ref_axis',(1.,3.5527136788005E-016,0.));
#413=DIRECTION('center_axis',(-3.5527136788005E-016,1.,0.));
#414=DIRECTION('ref_axis',(1.,3.5527136788005E-016,0.));
#415=DIRECTION('center_axis',(-3.5527136788005E-016,1.,0.));
#416=DIRECTION('ref_axis',(1.,3.5527136788005E-016,0.));
#417=DIRECTION('center_axis',(0.,0.,-1.));
#418=DIRECTION('ref_axis',(-1.,0.,0.));
#419=DIRECTION('center_axis',(0.,0.,1.));
#420=DIRECTION('ref_axis',(-1.,0.,0.));
#421=DIRECTION('center_axis',(0.,0.,-1.));
#422=DIRECTION('ref_axis',(-1.,0.,0.));
#423=DIRECTION('center_axis',(0.,0.,-1.));
#424=DIRECTION('ref_axis',(-1.,0.,0.));
#425=DIRECTION('center_axis',(1.,0.,0.));
#426=DIRECTION('ref_axis',(0.,0.,-1.));
#427=DIRECTION('',(0.,-1.,0.));
#428=DIRECTION('',(0.,0.,1.));
#429=DIRECTION('',(0.,-1.,0.));
#430=DIRECTION('',(0.,0.,1.));
#431=DIRECTION('center_axis',(-3.5527136788005E-016,-1.,0.));
#432=DIRECTION('ref_axis',(0.,0.,-1.));
#433=DIRECTION('',(-1.,3.5527136788005E-016,0.));
#434=DIRECTION('',(0.,0.,1.));
#435=DIRECTION('',(-1.,3.5527136788005E-016,0.));
#436=DIRECTION('center_axis',(-1.,0.,0.));
#437=DIRECTION('ref_axis',(0.,0.,1.));
#438=DIRECTION('',(0.,1.,0.));
#439=DIRECTION('',(0.,0.,1.));
#440=DIRECTION('',(0.,1.,0.));
#441=DIRECTION('center_axis',(-3.5527136788005E-016,1.,0.));
#442=DIRECTION('ref_axis',(0.,0.,1.));
#443=DIRECTION('',(1.,3.5527136788005E-016,0.));
#444=DIRECTION('',(1.,3.5527136788005E-016,0.));
#445=DIRECTION('center_axis',(0.,0.,1.));
#446=DIRECTION('ref_axis',(1.,0.,0.));
#447=DIRECTION('center_axis',(0.,0.,1.));
#448=DIRECTION('ref_axis',(1.,0.,0.));
#449=CARTESIAN_POINT('',(0.,0.,0.));
#450=CARTESIAN_POINT('Origin',(-10.,1.6332495807108,50.));
#451=CARTESIAN_POINT('',(-10.,-10.6789083458003,50.));
#452=CARTESIAN_POINT('',(-10.,-11.6332495807108,49.5));
#453=CARTESIAN_POINT('Ctrl Pts',(-10.,-10.6789083458003,50.));
#454=CARTESIAN_POINT('Ctrl Pts',(-10.,-11.1459263969267,49.7693780253755));
#455=CARTESIAN_POINT('Ctrl Pts',(-10.,-11.6332495807108,49.5));
#456=CARTESIAN_POINT('',(-10.,0.678908345800261,50.));
#457=CARTESIAN_POINT('',(-10.,-1.6833752096446,50.));
#458=CARTESIAN_POINT('',(-10.,1.6332495807108,49.5));
#459=CARTESIAN_POINT('Ctrl Pts',(-10.,1.63324958071079,49.5));
#460=CARTESIAN_POINT('Ctrl Pts',(-10.,1.14592639692671,49.7693780253755));
#461=CARTESIAN_POINT('Ctrl Pts',(-10.,0.678908345800261,50.));
#462=CARTESIAN_POINT('',(-10.,1.6332495807108,46.));
#463=CARTESIAN_POINT('',(-10.,1.6332495807108,44.));
#464=CARTESIAN_POINT('',(-10.,-11.6332495807108,46.));
#465=CARTESIAN_POINT('',(-10.,-11.6332495807108,46.));
#466=CARTESIAN_POINT('',(-10.,-11.6332495807108,44.));
#467=CARTESIAN_POINT('Origin',(-10.5869716591988,-5.00000000000001,46.));
#468=CARTESIAN_POINT('Origin',(0.,-5.00000000000001,46.));
#469=CARTESIAN_POINT('Origin',(10.,-11.6332495807108,50.));
#470=CARTESIAN_POINT('',(10.,-11.6332495807108,49.5));
#471=CARTESIAN_POINT('',(10.,-10.6789083458003,50.));
#472=CARTESIAN_POINT('Ctrl Pts',(10.,-11.6332495807108,49.5));
#473=CARTESIAN_POINT('Ctrl Pts',(10.,-11.1459263969267,49.7693780253755));
#474=CARTESIAN_POINT('Ctrl Pts',(10.,-10.6789083458003,50.));
#475=CARTESIAN_POINT('',(10.,-11.6332495807108,46.));
#476=CARTESIAN_POINT('',(10.,-11.6332495807108,44.));
#477=CARTESIAN_POINT('',(10.,1.6332495807108,46.));
#478=CARTESIAN_POINT('',(10.,1.6332495807108,46.));
#479=CARTESIAN_POINT('',(10.,1.6332495807108,49.5));
#480=CARTESIAN_POINT('',(10.,1.6332495807108,44.));
#481=CARTESIAN_POINT('',(10.,0.678908345800266,50.));
#482=CARTESIAN_POINT('Ctrl Pts',(10.,0.678908345800261,50.));
#483=CARTESIAN_POINT('Ctrl Pts',(10.,1.14592639692671,49.7693780253755));
#484=CARTESIAN_POINT('Ctrl Pts',(10.,1.63324958071079,49.5));
#485=CARTESIAN_POINT('',(10.,-8.31662479035541,50.));
#486=CARTESIAN_POINT('Origin',(10.5869716591988,-5.,46.));
#487=CARTESIAN_POINT('Origin',(0.,-5.00000000000001,46.));
#488=CARTESIAN_POINT('Origin',(0.,-5.00000000000001,44.));
#489=CARTESIAN_POINT('',(12.,-5.00000000000001,44.));
#490=CARTESIAN_POINT('Origin',(0.,-5.00000000000001,44.));
#491=CARTESIAN_POINT('Origin',(0.,-5.00000000000001,49.5));
#492=CARTESIAN_POINT('Origin',(0.,-5.00000000000001,49.5));
#493=CARTESIAN_POINT('Origin',(0.,-5.00000000000001,49.75));
#494=CARTESIAN_POINT('Origin',(0.,-5.00000000000001,50.));
#495=CARTESIAN_POINT('Origin',(0.,-5.00000000000001,49.75));
#496=CARTESIAN_POINT('Origin',(0.,-5.00000000000001,50.));
#497=CARTESIAN_POINT('Origin',(0.,-5.00000000000001,50.));
#498=CARTESIAN_POINT('',(5.85,-5.00000000000001,50.));
#499=CARTESIAN_POINT('Origin',(0.,-5.00000000000001,50.));
#500=CARTESIAN_POINT('Origin',(0.,-5.00000000000001,44.5));
#501=CARTESIAN_POINT('',(5.85,-5.00000000000001,39.));
#502=CARTESIAN_POINT('Origin',(0.,-5.00000000000001,39.));
#503=CARTESIAN_POINT('Origin',(0.,-5.00000000000001,39.));
#504=CARTESIAN_POINT('Origin',(-2.48689957516035E-015,12.,33.5));
#505=CARTESIAN_POINT('',(5.85,17.5,33.5));
#506=CARTESIAN_POINT('Origin',(-4.44089209850063E-015,17.5,33.5));
#507=CARTESIAN_POINT('',(5.85,6.50000000000001,33.5));
#508=CARTESIAN_POINT('Origin',(-5.32907051820075E-016,6.5,33.5));
#509=CARTESIAN_POINT('Origin',(-5.32907051820075E-016,6.5,33.5));
#510=CARTESIAN_POINT('Origin',(0.,-5.00000000000001,5.5));
#511=CARTESIAN_POINT('',(-5.85,-5.00000000000001,0.));
#512=CARTESIAN_POINT('Origin',(0.,-5.00000000000001,0.));
#513=CARTESIAN_POINT('',(-5.85,-5.00000000000001,11.));
#514=CARTESIAN_POINT('Origin',(0.,-5.00000000000001,11.));
#515=CARTESIAN_POINT('Origin',(0.,-5.00000000000001,11.));
#516=CARTESIAN_POINT('Origin',(12.5,17.5,0.));
#517=CARTESIAN_POINT('',(12.5,17.5,44.));
#518=CARTESIAN_POINT('',(12.5,-17.5,44.));
#519=CARTESIAN_POINT('',(12.5,17.5,44.));
#520=CARTESIAN_POINT('',(12.5,-17.5,0.));
#521=CARTESIAN_POINT('',(12.5,-17.5,0.));
#522=CARTESIAN_POINT('',(12.5,17.5,0.));
#523=CARTESIAN_POINT('',(12.5,17.5,0.));
#524=CARTESIAN_POINT('',(12.5,17.5,0.));
#525=CARTESIAN_POINT('Origin',(12.5,-17.5,0.));
#526=CARTESIAN_POINT('',(-12.5,-17.5,44.));
#527=CARTESIAN_POINT('',(12.5,-17.5,44.));
#528=CARTESIAN_POINT('',(-12.5,-17.5,0.));
#529=CARTESIAN_POINT('',(-12.5,-17.5,0.));
#530=CARTESIAN_POINT('',(12.5,-17.5,0.));
#531=CARTESIAN_POINT('Origin',(-12.5,-17.5,0.));
#532=CARTESIAN_POINT('',(-12.5,17.5,44.));
#533=CARTESIAN_POINT('',(-12.5,-17.5,44.));
#534=CARTESIAN_POINT('',(-12.5,17.5,0.));
#535=CARTESIAN_POINT('',(-12.5,17.5,0.));
#536=CARTESIAN_POINT('',(-12.5,-17.5,0.));
#537=CARTESIAN_POINT('Origin',(-12.5,17.5,0.));
#538=CARTESIAN_POINT('',(-12.5,17.5,44.));
#539=CARTESIAN_POINT('',(-12.5,17.5,0.));
#540=CARTESIAN_POINT('Origin',(-1.66533453693773E-015,-1.46347580518771E-015,
44.));
#541=CARTESIAN_POINT('Origin',(-1.66533453693773E-015,-1.46347580518771E-015,
0.));
#542=UNCERTAINTY_MEASURE_WITH_UNIT(LENGTH_MEASURE(0.01),#546,
'DISTANCE_ACCURACY_VALUE',
'Maximum model space distance between geometric entities at asserted c
onnectivities');
#543=UNCERTAINTY_MEASURE_WITH_UNIT(LENGTH_MEASURE(1.E-006),#546,
'DISTANCE_ACCURACY_VALUE',
'Maximum model space distance between geometric entities at asserted c
onnectivities');
#544=(
GEOMETRIC_REPRESENTATION_CONTEXT(3)
GLOBAL_UNCERTAINTY_ASSIGNED_CONTEXT((#542))
GLOBAL_UNIT_ASSIGNED_CONTEXT((#546,#549,#547))
REPRESENTATION_CONTEXT('','3D')
);
#545=(
GEOMETRIC_REPRESENTATION_CONTEXT(3)
GLOBAL_UNCERTAINTY_ASSIGNED_CONTEXT((#543))
GLOBAL_UNIT_ASSIGNED_CONTEXT((#546,#549,#547))
REPRESENTATION_CONTEXT('','3D')
);
#546=(
LENGTH_UNIT()
NAMED_UNIT(*)
SI_UNIT(.MILLI.,.METRE.)
);
#547=(
NAMED_UNIT(*)
SI_UNIT($,.STERADIAN.)
SOLID_ANGLE_UNIT()
);
#548=DIMENSIONAL_EXPONENTS(0.,0.,0.,0.,0.,0.,0.);
#549=(
CONVERSION_BASED_UNIT('degree',#551)
NAMED_UNIT(#548)
PLANE_ANGLE_UNIT()
);
#550=(
NAMED_UNIT(*)
PLANE_ANGLE_UNIT()
SI_UNIT($,.RADIAN.)
);
#551=PLANE_ANGLE_MEASURE_WITH_UNIT(PLANE_ANGLE_MEASURE(0.01745329252),#550);
#552=SHAPE_DEFINITION_REPRESENTATION(#553,#554);
#553=PRODUCT_DEFINITION_SHAPE('',$,#556);
#554=SHAPE_REPRESENTATION('',(#327),#544);
#555=PRODUCT_DEFINITION_CONTEXT('part definition',#560,'design');
#556=PRODUCT_DEFINITION('6_02_14','6_02_14',#557,#555);
#557=PRODUCT_DEFINITION_FORMATION('',$,#562);
#558=PRODUCT_RELATED_PRODUCT_CATEGORY('6_02_14','6_02_14',(#562));
#559=APPLICATION_PROTOCOL_DEFINITION('international standard',
'automotive_design',2009,#560);
#560=APPLICATION_CONTEXT(
'Core Data for Automotive Mechanical Design Process');
#561=PRODUCT_CONTEXT('part definition',#560,'mechanical');
#562=PRODUCT('6_02_14','6_02_14',$,(#561));
#563=PRESENTATION_STYLE_ASSIGNMENT((#567));
#564=PRESENTATION_STYLE_ASSIGNMENT((#568));
#565=PRESENTATION_STYLE_ASSIGNMENT((#569));
#566=PRESENTATION_STYLE_ASSIGNMENT((#570));
#567=SURFACE_STYLE_USAGE(.BOTH.,#571);
#568=SURFACE_STYLE_USAGE(.BOTH.,#572);
#569=SURFACE_STYLE_USAGE(.BOTH.,#573);
#570=SURFACE_STYLE_USAGE(.BOTH.,#574);
#571=SURFACE_SIDE_STYLE($,(#575));
#572=SURFACE_SIDE_STYLE($,(#576));
#573=SURFACE_SIDE_STYLE($,(#577));
#574=SURFACE_SIDE_STYLE($,(#578));
#575=SURFACE_STYLE_FILL_AREA(#579);
#576=SURFACE_STYLE_FILL_AREA(#580);
#577=SURFACE_STYLE_FILL_AREA(#581);
#578=SURFACE_STYLE_FILL_AREA(#582);
#579=FILL_AREA_STYLE($,(#583));
#580=FILL_AREA_STYLE($,(#584));
#581=FILL_AREA_STYLE($,(#585));
#582=FILL_AREA_STYLE($,(#586));
#583=FILL_AREA_STYLE_COLOUR($,#587);
#584=FILL_AREA_STYLE_COLOUR($,#588);
#585=FILL_AREA_STYLE_COLOUR($,#589);
#586=FILL_AREA_STYLE_COLOUR($,#590);
#587=COLOUR_RGB('',0.403921568627451,0.403921568627451,0.403921568627451);
#588=COLOUR_RGB('',0.780392156862745,0.568627450980392,0.113725490196078);
#589=COLOUR_RGB('',1.,1.,1.);
#590=COLOUR_RGB('',0.850980392156863,0.850980392156863,0.866666666666667);
ENDSEC;
END-ISO-10303-21;
