ISO-10303-21;
HEADER;
/* Generated by software containing ST-Developer
 * from STEP Tools, Inc. (www.steptools.com) 
 */
/* OPTION: strings as raw bytes, not using required /X/ escapes */

FILE_DESCRIPTION(
/* description */ ('Unknown'),
/* implementation_level */ '2;1');

FILE_NAME(
/* name */ '6.04.18;1',
/* time_stamp */ '2018-09-06T10:29:17-04:00',
/* author */ ('Unknown'),
/* organization */ ('Unknown'),
/* preprocessor_version */ 'ST-DEVELOPER v16.7',
/* originating_system */ 'DEX',
/* authorisation */ $);

FILE_SCHEMA (('AUTOMOTIVE_DESIGN {1 0 10303 214 3 1 1}'));
ENDSEC;

DATA;
#10=PROPERTY_DEFINITION_REPRESENTATION(#14,#12);
#11=PROPERTY_DEFINITION_REPRESENTATION(#15,#13);
#12=REPRESENTATION('',(#16),#762);
#13=REPRESENTATION('',(#17),#762);
#14=PROPERTY_DEFINITION('pmi validation property','',#767);
#15=PROPERTY_DEFINITION('pmi validation property','',#767);
#16=VALUE_REPRESENTATION_ITEM('number of annotations',COUNT_MEASURE(0.));
#17=VALUE_REPRESENTATION_ITEM('number of views',COUNT_MEASURE(0.));
#18=SHAPE_REPRESENTATION_RELATIONSHIP('','',#519,#19);
#19=ADVANCED_BREP_SHAPE_REPRESENTATION('',(#517),#762);
#20=CONICAL_SURFACE('',#554,7.85,0.785398163397448);
#21=CONICAL_SURFACE('',#555,7.85,0.785398163397448);
#22=LINE('',#687,#34);
#23=LINE('',#690,#35);
#24=LINE('',#692,#36);
#25=LINE('',#694,#37);
#26=LINE('',#696,#38);
#27=LINE('',#698,#39);
#28=LINE('',#700,#40);
#29=LINE('',#702,#41);
#30=LINE('',#704,#42);
#31=LINE('',#706,#43);
#32=LINE('',#712,#44);
#33=LINE('',#713,#45);
#34=VECTOR('',#585,1000.);
#35=VECTOR('',#586,1000.);
#36=VECTOR('',#587,1000.);
#37=VECTOR('',#588,1000.);
#38=VECTOR('',#591,1000.);
#39=VECTOR('',#592,1000.);
#40=VECTOR('',#593,1000.);
#41=VECTOR('',#596,1000.);
#42=VECTOR('',#597,1000.);
#43=VECTOR('',#598,1000.);
#44=VECTOR('',#605,1000.);
#45=VECTOR('',#606,1000.);
#46=PLANE('',#527);
#47=PLANE('',#529);
#48=PLANE('',#530);
#49=PLANE('',#532);
#50=PLANE('',#534);
#51=PLANE('',#537);
#52=PLANE('',#542);
#53=PLANE('',#547);
#54=PLANE('',#550);
#55=PLANE('',#552);
#56=PLANE('',#556);
#57=PLANE('',#560);
#58=ORIENTED_EDGE('',*,*,#124,.F.);
#59=ORIENTED_EDGE('',*,*,#125,.T.);
#60=ORIENTED_EDGE('',*,*,#126,.F.);
#61=ORIENTED_EDGE('',*,*,#127,.T.);
#62=ORIENTED_EDGE('',*,*,#128,.T.);
#63=ORIENTED_EDGE('',*,*,#129,.F.);
#64=ORIENTED_EDGE('',*,*,#130,.F.);
#65=ORIENTED_EDGE('',*,*,#131,.T.);
#66=ORIENTED_EDGE('',*,*,#132,.T.);
#67=ORIENTED_EDGE('',*,*,#133,.F.);
#68=ORIENTED_EDGE('',*,*,#132,.F.);
#69=ORIENTED_EDGE('',*,*,#134,.T.);
#70=ORIENTED_EDGE('',*,*,#135,.T.);
#71=ORIENTED_EDGE('',*,*,#136,.F.);
#72=ORIENTED_EDGE('',*,*,#135,.F.);
#73=ORIENTED_EDGE('',*,*,#137,.T.);
#74=ORIENTED_EDGE('',*,*,#138,.T.);
#75=ORIENTED_EDGE('',*,*,#139,.T.);
#76=ORIENTED_EDGE('',*,*,#140,.T.);
#77=ORIENTED_EDGE('',*,*,#141,.F.);
#78=ORIENTED_EDGE('',*,*,#138,.F.);
#79=ORIENTED_EDGE('',*,*,#142,.T.);
#80=ORIENTED_EDGE('',*,*,#130,.T.);
#81=ORIENTED_EDGE('',*,*,#143,.T.);
#82=ORIENTED_EDGE('',*,*,#144,.T.);
#83=ORIENTED_EDGE('',*,*,#131,.F.);
#84=ORIENTED_EDGE('',*,*,#142,.F.);
#85=ORIENTED_EDGE('',*,*,#137,.F.);
#86=ORIENTED_EDGE('',*,*,#134,.F.);
#87=ORIENTED_EDGE('',*,*,#145,.T.);
#88=ORIENTED_EDGE('',*,*,#146,.T.);
#89=ORIENTED_EDGE('',*,*,#129,.T.);
#90=ORIENTED_EDGE('',*,*,#133,.T.);
#91=ORIENTED_EDGE('',*,*,#136,.T.);
#92=ORIENTED_EDGE('',*,*,#141,.T.);
#93=ORIENTED_EDGE('',*,*,#147,.T.);
#94=ORIENTED_EDGE('',*,*,#139,.F.);
#95=ORIENTED_EDGE('',*,*,#148,.T.);
#96=ORIENTED_EDGE('',*,*,#149,.T.);
#97=ORIENTED_EDGE('',*,*,#150,.T.);
#98=ORIENTED_EDGE('',*,*,#128,.F.);
#99=ORIENTED_EDGE('',*,*,#151,.T.);
#100=ORIENTED_EDGE('',*,*,#152,.T.);
#101=ORIENTED_EDGE('',*,*,#126,.T.);
#102=ORIENTED_EDGE('',*,*,#127,.F.);
#103=ORIENTED_EDGE('',*,*,#149,.F.);
#104=ORIENTED_EDGE('',*,*,#124,.T.);
#105=ORIENTED_EDGE('',*,*,#125,.F.);
#106=ORIENTED_EDGE('',*,*,#152,.F.);
#107=ORIENTED_EDGE('',*,*,#151,.F.);
#108=ORIENTED_EDGE('',*,*,#150,.F.);
#109=ORIENTED_EDGE('',*,*,#148,.F.);
#110=ORIENTED_EDGE('',*,*,#147,.F.);
#111=ORIENTED_EDGE('',*,*,#153,.F.);
#112=ORIENTED_EDGE('',*,*,#154,.F.);
#113=ORIENTED_EDGE('',*,*,#153,.T.);
#114=ORIENTED_EDGE('',*,*,#140,.F.);
#115=ORIENTED_EDGE('',*,*,#155,.T.);
#116=ORIENTED_EDGE('',*,*,#155,.F.);
#117=ORIENTED_EDGE('',*,*,#156,.T.);
#118=ORIENTED_EDGE('',*,*,#154,.T.);
#119=ORIENTED_EDGE('',*,*,#156,.F.);
#120=ORIENTED_EDGE('',*,*,#144,.F.);
#121=ORIENTED_EDGE('',*,*,#146,.F.);
#122=ORIENTED_EDGE('',*,*,#143,.F.);
#123=ORIENTED_EDGE('',*,*,#145,.F.);
#124=EDGE_CURVE('',#157,#157,#186,.T.);
#125=EDGE_CURVE('',#158,#158,#187,.T.);
#126=EDGE_CURVE('',#159,#159,#188,.T.);
#127=EDGE_CURVE('',#160,#160,#189,.T.);
#128=EDGE_CURVE('',#161,#161,#190,.T.);
#129=EDGE_CURVE('',#162,#163,#22,.T.);
#130=EDGE_CURVE('',#164,#162,#23,.T.);
#131=EDGE_CURVE('',#164,#165,#24,.T.);
#132=EDGE_CURVE('',#165,#163,#25,.T.);
#133=EDGE_CURVE('',#163,#166,#26,.T.);
#134=EDGE_CURVE('',#165,#167,#27,.T.);
#135=EDGE_CURVE('',#167,#166,#28,.T.);
#136=EDGE_CURVE('',#166,#168,#29,.T.);
#137=EDGE_CURVE('',#167,#169,#30,.T.);
#138=EDGE_CURVE('',#169,#168,#31,.T.);
#139=EDGE_CURVE('',#170,#170,#191,.T.);
#140=EDGE_CURVE('',#171,#171,#192,.T.);
#141=EDGE_CURVE('',#168,#162,#32,.T.);
#142=EDGE_CURVE('',#169,#164,#33,.T.);
#143=EDGE_CURVE('',#172,#172,#193,.T.);
#144=EDGE_CURVE('',#173,#173,#194,.T.);
#145=EDGE_CURVE('',#174,#174,#195,.T.);
#146=EDGE_CURVE('',#175,#175,#196,.T.);
#147=EDGE_CURVE('',#176,#176,#197,.T.);
#148=EDGE_CURVE('',#177,#177,#198,.F.);
#149=EDGE_CURVE('',#178,#178,#199,.T.);
#150=EDGE_CURVE('',#179,#179,#200,.T.);
#151=EDGE_CURVE('',#180,#180,#201,.F.);
#152=EDGE_CURVE('',#181,#181,#202,.T.);
#153=EDGE_CURVE('',#182,#182,#203,.T.);
#154=EDGE_CURVE('',#183,#183,#204,.F.);
#155=EDGE_CURVE('',#184,#184,#205,.T.);
#156=EDGE_CURVE('',#185,#185,#206,.T.);
#157=VERTEX_POINT('',#676);
#158=VERTEX_POINT('',#678);
#159=VERTEX_POINT('',#681);
#160=VERTEX_POINT('',#683);
#161=VERTEX_POINT('',#686);
#162=VERTEX_POINT('',#688);
#163=VERTEX_POINT('',#689);
#164=VERTEX_POINT('',#691);
#165=VERTEX_POINT('',#693);
#166=VERTEX_POINT('',#697);
#167=VERTEX_POINT('',#699);
#168=VERTEX_POINT('',#703);
#169=VERTEX_POINT('',#705);
#170=VERTEX_POINT('',#708);
#171=VERTEX_POINT('',#711);
#172=VERTEX_POINT('',#716);
#173=VERTEX_POINT('',#718);
#174=VERTEX_POINT('',#721);
#175=VERTEX_POINT('',#723);
#176=VERTEX_POINT('',#726);
#177=VERTEX_POINT('',#729);
#178=VERTEX_POINT('',#731);
#179=VERTEX_POINT('',#734);
#180=VERTEX_POINT('',#737);
#181=VERTEX_POINT('',#739);
#182=VERTEX_POINT('',#748);
#183=VERTEX_POINT('',#750);
#184=VERTEX_POINT('',#754);
#185=VERTEX_POINT('',#757);
#186=CIRCLE('',#522,4.283);
#187=CIRCLE('',#523,4.283);
#188=CIRCLE('',#525,4.283);
#189=CIRCLE('',#526,4.283);
#190=CIRCLE('',#528,7.85);
#191=CIRCLE('',#531,7.85);
#192=CIRCLE('',#533,6.8);
#193=CIRCLE('',#535,2.15);
#194=CIRCLE('',#536,2.15);
#195=CIRCLE('',#538,2.15);
#196=CIRCLE('',#539,2.15);
#197=CIRCLE('',#541,7.85);
#198=CIRCLE('',#543,7.6);
#199=CIRCLE('',#544,4.283);
#200=CIRCLE('',#546,7.85);
#201=CIRCLE('',#548,7.6);
#202=CIRCLE('',#549,4.283);
#203=CIRCLE('',#557,6.8);
#204=CIRCLE('',#558,4.283);
#205=CIRCLE('',#561,4.283);
#206=CIRCLE('',#563,4.283);
#207=EDGE_LOOP('',(#58));
#208=EDGE_LOOP('',(#59));
#209=EDGE_LOOP('',(#60));
#210=EDGE_LOOP('',(#61));
#211=EDGE_LOOP('',(#62));
#212=EDGE_LOOP('',(#63,#64,#65,#66));
#213=EDGE_LOOP('',(#67,#68,#69,#70));
#214=EDGE_LOOP('',(#71,#72,#73,#74));
#215=EDGE_LOOP('',(#75));
#216=EDGE_LOOP('',(#76));
#217=EDGE_LOOP('',(#77,#78,#79,#80));
#218=EDGE_LOOP('',(#81));
#219=EDGE_LOOP('',(#82));
#220=EDGE_LOOP('',(#83,#84,#85,#86));
#221=EDGE_LOOP('',(#87));
#222=EDGE_LOOP('',(#88));
#223=EDGE_LOOP('',(#89,#90,#91,#92));
#224=EDGE_LOOP('',(#93));
#225=EDGE_LOOP('',(#94));
#226=EDGE_LOOP('',(#95));
#227=EDGE_LOOP('',(#96));
#228=EDGE_LOOP('',(#97));
#229=EDGE_LOOP('',(#98));
#230=EDGE_LOOP('',(#99));
#231=EDGE_LOOP('',(#100));
#232=EDGE_LOOP('',(#101));
#233=EDGE_LOOP('',(#102));
#234=EDGE_LOOP('',(#103));
#235=EDGE_LOOP('',(#104));
#236=EDGE_LOOP('',(#105));
#237=EDGE_LOOP('',(#106));
#238=EDGE_LOOP('',(#107));
#239=EDGE_LOOP('',(#108));
#240=EDGE_LOOP('',(#109));
#241=EDGE_LOOP('',(#110));
#242=EDGE_LOOP('',(#111));
#243=EDGE_LOOP('',(#112));
#244=EDGE_LOOP('',(#113));
#245=EDGE_LOOP('',(#114));
#246=EDGE_LOOP('',(#115));
#247=EDGE_LOOP('',(#116));
#248=EDGE_LOOP('',(#117));
#249=EDGE_LOOP('',(#118));
#250=EDGE_LOOP('',(#119));
#251=EDGE_LOOP('',(#120));
#252=EDGE_LOOP('',(#121));
#253=EDGE_LOOP('',(#122));
#254=EDGE_LOOP('',(#123));
#255=FACE_BOUND('',#207,.T.);
#256=FACE_BOUND('',#208,.T.);
#257=FACE_BOUND('',#209,.T.);
#258=FACE_BOUND('',#210,.T.);
#259=FACE_BOUND('',#211,.T.);
#260=FACE_BOUND('',#212,.T.);
#261=FACE_BOUND('',#213,.T.);
#262=FACE_BOUND('',#214,.T.);
#263=FACE_BOUND('',#215,.T.);
#264=FACE_BOUND('',#216,.T.);
#265=FACE_BOUND('',#217,.T.);
#266=FACE_BOUND('',#218,.T.);
#267=FACE_BOUND('',#219,.T.);
#268=FACE_BOUND('',#220,.T.);
#269=FACE_BOUND('',#221,.T.);
#270=FACE_BOUND('',#222,.T.);
#271=FACE_BOUND('',#223,.T.);
#272=FACE_BOUND('',#224,.T.);
#273=FACE_BOUND('',#225,.T.);
#274=FACE_BOUND('',#226,.T.);
#275=FACE_BOUND('',#227,.T.);
#276=FACE_BOUND('',#228,.T.);
#277=FACE_BOUND('',#229,.T.);
#278=FACE_BOUND('',#230,.T.);
#279=FACE_BOUND('',#231,.T.);
#280=FACE_BOUND('',#232,.T.);
#281=FACE_BOUND('',#233,.T.);
#282=FACE_BOUND('',#234,.T.);
#283=FACE_BOUND('',#235,.T.);
#284=FACE_BOUND('',#236,.T.);
#285=FACE_BOUND('',#237,.T.);
#286=FACE_BOUND('',#238,.T.);
#287=FACE_BOUND('',#239,.T.);
#288=FACE_BOUND('',#240,.T.);
#289=FACE_BOUND('',#241,.T.);
#290=FACE_BOUND('',#242,.T.);
#291=FACE_BOUND('',#243,.T.);
#292=FACE_BOUND('',#244,.T.);
#293=FACE_BOUND('',#245,.T.);
#294=FACE_BOUND('',#246,.T.);
#295=FACE_BOUND('',#247,.T.);
#296=FACE_BOUND('',#248,.T.);
#297=FACE_BOUND('',#249,.T.);
#298=FACE_BOUND('',#250,.T.);
#299=FACE_BOUND('',#251,.T.);
#300=FACE_BOUND('',#252,.T.);
#301=FACE_BOUND('',#253,.T.);
#302=FACE_BOUND('',#254,.T.);
#303=CYLINDRICAL_SURFACE('',#521,4.283);
#304=CYLINDRICAL_SURFACE('',#524,4.283);
#305=CYLINDRICAL_SURFACE('',#540,7.85);
#306=CYLINDRICAL_SURFACE('',#545,7.85);
#307=CYLINDRICAL_SURFACE('',#551,4.283);
#308=CYLINDRICAL_SURFACE('',#553,4.283);
#309=CYLINDRICAL_SURFACE('',#559,6.8);
#310=CYLINDRICAL_SURFACE('',#562,4.283);
#311=CYLINDRICAL_SURFACE('',#564,4.283);
#312=CYLINDRICAL_SURFACE('',#565,2.15);
#313=CYLINDRICAL_SURFACE('',#566,2.15);
#314=STYLED_ITEM('',(#339),#491);
#315=STYLED_ITEM('',(#340),#492);
#316=STYLED_ITEM('',(#341),#493);
#317=STYLED_ITEM('',(#342),#494);
#318=STYLED_ITEM('',(#343),#495);
#319=STYLED_ITEM('',(#344),#496);
#320=STYLED_ITEM('',(#345),#497);
#321=STYLED_ITEM('',(#346),#498);
#322=STYLED_ITEM('',(#347),#499);
#323=STYLED_ITEM('',(#348),#500);
#324=STYLED_ITEM('',(#349),#501);
#325=STYLED_ITEM('',(#350),#502);
#326=STYLED_ITEM('',(#351),#503);
#327=STYLED_ITEM('',(#352),#504);
#328=STYLED_ITEM('',(#353),#505);
#329=STYLED_ITEM('',(#354),#506);
#330=STYLED_ITEM('',(#355),#507);
#331=STYLED_ITEM('',(#356),#508);
#332=STYLED_ITEM('',(#357),#509);
#333=STYLED_ITEM('',(#358),#510);
#334=STYLED_ITEM('',(#359),#511);
#335=STYLED_ITEM('',(#360),#512);
#336=STYLED_ITEM('',(#361),#513);
#337=STYLED_ITEM('',(#362),#514);
#338=STYLED_ITEM('',(#363),#515);
#339=PRESENTATION_STYLE_ASSIGNMENT((#364));
#340=PRESENTATION_STYLE_ASSIGNMENT((#365));
#341=PRESENTATION_STYLE_ASSIGNMENT((#366));
#342=PRESENTATION_STYLE_ASSIGNMENT((#367));
#343=PRESENTATION_STYLE_ASSIGNMENT((#368));
#344=PRESENTATION_STYLE_ASSIGNMENT((#369));
#345=PRESENTATION_STYLE_ASSIGNMENT((#370));
#346=PRESENTATION_STYLE_ASSIGNMENT((#371));
#347=PRESENTATION_STYLE_ASSIGNMENT((#372));
#348=PRESENTATION_STYLE_ASSIGNMENT((#373));
#349=PRESENTATION_STYLE_ASSIGNMENT((#374));
#350=PRESENTATION_STYLE_ASSIGNMENT((#375));
#351=PRESENTATION_STYLE_ASSIGNMENT((#376));
#352=PRESENTATION_STYLE_ASSIGNMENT((#377));
#353=PRESENTATION_STYLE_ASSIGNMENT((#378));
#354=PRESENTATION_STYLE_ASSIGNMENT((#379));
#355=PRESENTATION_STYLE_ASSIGNMENT((#380));
#356=PRESENTATION_STYLE_ASSIGNMENT((#381));
#357=PRESENTATION_STYLE_ASSIGNMENT((#382));
#358=PRESENTATION_STYLE_ASSIGNMENT((#383));
#359=PRESENTATION_STYLE_ASSIGNMENT((#384));
#360=PRESENTATION_STYLE_ASSIGNMENT((#385));
#361=PRESENTATION_STYLE_ASSIGNMENT((#386));
#362=PRESENTATION_STYLE_ASSIGNMENT((#387));
#363=PRESENTATION_STYLE_ASSIGNMENT((#388));
#364=SURFACE_STYLE_USAGE(.BOTH.,#389);
#365=SURFACE_STYLE_USAGE(.BOTH.,#390);
#366=SURFACE_STYLE_USAGE(.BOTH.,#391);
#367=SURFACE_STYLE_USAGE(.BOTH.,#392);
#368=SURFACE_STYLE_USAGE(.BOTH.,#393);
#369=SURFACE_STYLE_USAGE(.BOTH.,#394);
#370=SURFACE_STYLE_USAGE(.BOTH.,#395);
#371=SURFACE_STYLE_USAGE(.BOTH.,#396);
#372=SURFACE_STYLE_USAGE(.BOTH.,#397);
#373=SURFACE_STYLE_USAGE(.BOTH.,#398);
#374=SURFACE_STYLE_USAGE(.BOTH.,#399);
#375=SURFACE_STYLE_USAGE(.BOTH.,#400);
#376=SURFACE_STYLE_USAGE(.BOTH.,#401);
#377=SURFACE_STYLE_USAGE(.BOTH.,#402);
#378=SURFACE_STYLE_USAGE(.BOTH.,#403);
#379=SURFACE_STYLE_USAGE(.BOTH.,#404);
#380=SURFACE_STYLE_USAGE(.BOTH.,#405);
#381=SURFACE_STYLE_USAGE(.BOTH.,#406);
#382=SURFACE_STYLE_USAGE(.BOTH.,#407);
#383=SURFACE_STYLE_USAGE(.BOTH.,#408);
#384=SURFACE_STYLE_USAGE(.BOTH.,#409);
#385=SURFACE_STYLE_USAGE(.BOTH.,#410);
#386=SURFACE_STYLE_USAGE(.BOTH.,#411);
#387=SURFACE_STYLE_USAGE(.BOTH.,#412);
#388=SURFACE_STYLE_USAGE(.BOTH.,#413);
#389=SURFACE_SIDE_STYLE('',(#414));
#390=SURFACE_SIDE_STYLE('',(#415));
#391=SURFACE_SIDE_STYLE('',(#416));
#392=SURFACE_SIDE_STYLE('',(#417));
#393=SURFACE_SIDE_STYLE('',(#418));
#394=SURFACE_SIDE_STYLE('',(#419));
#395=SURFACE_SIDE_STYLE('',(#420));
#396=SURFACE_SIDE_STYLE('',(#421));
#397=SURFACE_SIDE_STYLE('',(#422));
#398=SURFACE_SIDE_STYLE('',(#423));
#399=SURFACE_SIDE_STYLE('',(#424));
#400=SURFACE_SIDE_STYLE('',(#425));
#401=SURFACE_SIDE_STYLE('',(#426));
#402=SURFACE_SIDE_STYLE('',(#427));
#403=SURFACE_SIDE_STYLE('',(#428));
#404=SURFACE_SIDE_STYLE('',(#429));
#405=SURFACE_SIDE_STYLE('',(#430));
#406=SURFACE_SIDE_STYLE('',(#431));
#407=SURFACE_SIDE_STYLE('',(#432));
#408=SURFACE_SIDE_STYLE('',(#433));
#409=SURFACE_SIDE_STYLE('',(#434));
#410=SURFACE_SIDE_STYLE('',(#435));
#411=SURFACE_SIDE_STYLE('',(#436));
#412=SURFACE_SIDE_STYLE('',(#437));
#413=SURFACE_SIDE_STYLE('',(#438));
#414=SURFACE_STYLE_FILL_AREA(#439);
#415=SURFACE_STYLE_FILL_AREA(#440);
#416=SURFACE_STYLE_FILL_AREA(#441);
#417=SURFACE_STYLE_FILL_AREA(#442);
#418=SURFACE_STYLE_FILL_AREA(#443);
#419=SURFACE_STYLE_FILL_AREA(#444);
#420=SURFACE_STYLE_FILL_AREA(#445);
#421=SURFACE_STYLE_FILL_AREA(#446);
#422=SURFACE_STYLE_FILL_AREA(#447);
#423=SURFACE_STYLE_FILL_AREA(#448);
#424=SURFACE_STYLE_FILL_AREA(#449);
#425=SURFACE_STYLE_FILL_AREA(#450);
#426=SURFACE_STYLE_FILL_AREA(#451);
#427=SURFACE_STYLE_FILL_AREA(#452);
#428=SURFACE_STYLE_FILL_AREA(#453);
#429=SURFACE_STYLE_FILL_AREA(#454);
#430=SURFACE_STYLE_FILL_AREA(#455);
#431=SURFACE_STYLE_FILL_AREA(#456);
#432=SURFACE_STYLE_FILL_AREA(#457);
#433=SURFACE_STYLE_FILL_AREA(#458);
#434=SURFACE_STYLE_FILL_AREA(#459);
#435=SURFACE_STYLE_FILL_AREA(#460);
#436=SURFACE_STYLE_FILL_AREA(#461);
#437=SURFACE_STYLE_FILL_AREA(#462);
#438=SURFACE_STYLE_FILL_AREA(#463);
#439=FILL_AREA_STYLE('',(#464));
#440=FILL_AREA_STYLE('',(#465));
#441=FILL_AREA_STYLE('',(#466));
#442=FILL_AREA_STYLE('',(#467));
#443=FILL_AREA_STYLE('',(#468));
#444=FILL_AREA_STYLE('',(#469));
#445=FILL_AREA_STYLE('',(#470));
#446=FILL_AREA_STYLE('',(#471));
#447=FILL_AREA_STYLE('',(#472));
#448=FILL_AREA_STYLE('',(#473));
#449=FILL_AREA_STYLE('',(#474));
#450=FILL_AREA_STYLE('',(#475));
#451=FILL_AREA_STYLE('',(#476));
#452=FILL_AREA_STYLE('',(#477));
#453=FILL_AREA_STYLE('',(#478));
#454=FILL_AREA_STYLE('',(#479));
#455=FILL_AREA_STYLE('',(#480));
#456=FILL_AREA_STYLE('',(#481));
#457=FILL_AREA_STYLE('',(#482));
#458=FILL_AREA_STYLE('',(#483));
#459=FILL_AREA_STYLE('',(#484));
#460=FILL_AREA_STYLE('',(#485));
#461=FILL_AREA_STYLE('',(#486));
#462=FILL_AREA_STYLE('',(#487));
#463=FILL_AREA_STYLE('',(#488));
#464=FILL_AREA_STYLE_COLOUR('',#489);
#465=FILL_AREA_STYLE_COLOUR('',#489);
#466=FILL_AREA_STYLE_COLOUR('',#489);
#467=FILL_AREA_STYLE_COLOUR('',#489);
#468=FILL_AREA_STYLE_COLOUR('',#489);
#469=FILL_AREA_STYLE_COLOUR('',#489);
#470=FILL_AREA_STYLE_COLOUR('',#489);
#471=FILL_AREA_STYLE_COLOUR('',#489);
#472=FILL_AREA_STYLE_COLOUR('',#489);
#473=FILL_AREA_STYLE_COLOUR('',#489);
#474=FILL_AREA_STYLE_COLOUR('',#489);
#475=FILL_AREA_STYLE_COLOUR('',#489);
#476=FILL_AREA_STYLE_COLOUR('',#489);
#477=FILL_AREA_STYLE_COLOUR('',#490);
#478=FILL_AREA_STYLE_COLOUR('',#489);
#479=FILL_AREA_STYLE_COLOUR('',#490);
#480=FILL_AREA_STYLE_COLOUR('',#489);
#481=FILL_AREA_STYLE_COLOUR('',#489);
#482=FILL_AREA_STYLE_COLOUR('',#489);
#483=FILL_AREA_STYLE_COLOUR('',#489);
#484=FILL_AREA_STYLE_COLOUR('',#489);
#485=FILL_AREA_STYLE_COLOUR('',#489);
#486=FILL_AREA_STYLE_COLOUR('',#490);
#487=FILL_AREA_STYLE_COLOUR('',#489);
#488=FILL_AREA_STYLE_COLOUR('',#489);
#489=COLOUR_RGB('',0.819999992847443,0.819999992847443,0.819999992847443);
#490=COLOUR_RGB('',0.1875,0.75,0.581249892711639);
#491=ADVANCED_FACE('',(#255,#256),#303,.F.);
#492=ADVANCED_FACE('',(#257,#258),#304,.F.);
#493=ADVANCED_FACE('',(#259,#260),#46,.T.);
#494=ADVANCED_FACE('',(#261),#47,.T.);
#495=ADVANCED_FACE('',(#262,#263),#48,.T.);
#496=ADVANCED_FACE('',(#264,#265),#49,.T.);
#497=ADVANCED_FACE('',(#266,#267,#268),#50,.F.);
#498=ADVANCED_FACE('',(#269,#270,#271),#51,.T.);
#499=ADVANCED_FACE('',(#272,#273),#305,.T.);
#500=ADVANCED_FACE('',(#274,#275),#52,.F.);
#501=ADVANCED_FACE('',(#276,#277),#306,.T.);
#502=ADVANCED_FACE('',(#278,#279),#53,.F.);
#503=ADVANCED_FACE('',(#280),#54,.F.);
#504=ADVANCED_FACE('',(#281,#282),#307,.F.);
#505=ADVANCED_FACE('',(#283),#55,.F.);
#506=ADVANCED_FACE('',(#284,#285),#308,.F.);
#507=ADVANCED_FACE('',(#286,#287),#20,.T.);
#508=ADVANCED_FACE('',(#288,#289),#21,.T.);
#509=ADVANCED_FACE('',(#290,#291),#56,.F.);
#510=ADVANCED_FACE('',(#292,#293),#309,.F.);
#511=ADVANCED_FACE('',(#294),#57,.F.);
#512=ADVANCED_FACE('',(#295,#296),#310,.F.);
#513=ADVANCED_FACE('',(#297,#298),#311,.F.);
#514=ADVANCED_FACE('',(#299,#300),#312,.F.);
#515=ADVANCED_FACE('',(#301,#302),#313,.F.);
#516=CLOSED_SHELL('',(#491,#492,#493,#494,#495,#496,#497,#498,#499,#500,
#501,#502,#503,#504,#505,#506,#507,#508,#509,#510,#511,#512,#513,#514,#515));
#517=MANIFOLD_SOLID_BREP('',#516);
#518=SHAPE_DEFINITION_REPRESENTATION(#767,#519);
#519=SHAPE_REPRESENTATION('6.04.18',(#520),#762);
#520=AXIS2_PLACEMENT_3D('',#673,#567,#568);
#521=AXIS2_PLACEMENT_3D('',#674,#569,#570);
#522=AXIS2_PLACEMENT_3D('',#675,#571,#572);
#523=AXIS2_PLACEMENT_3D('',#677,#573,#574);
#524=AXIS2_PLACEMENT_3D('',#679,#575,#576);
#525=AXIS2_PLACEMENT_3D('',#680,#577,#578);
#526=AXIS2_PLACEMENT_3D('',#682,#579,#580);
#527=AXIS2_PLACEMENT_3D('',#684,#581,#582);
#528=AXIS2_PLACEMENT_3D('',#685,#583,#584);
#529=AXIS2_PLACEMENT_3D('',#695,#589,#590);
#530=AXIS2_PLACEMENT_3D('',#701,#594,#595);
#531=AXIS2_PLACEMENT_3D('',#707,#599,#600);
#532=AXIS2_PLACEMENT_3D('',#709,#601,#602);
#533=AXIS2_PLACEMENT_3D('',#710,#603,#604);
#534=AXIS2_PLACEMENT_3D('',#714,#607,#608);
#535=AXIS2_PLACEMENT_3D('',#715,#609,#610);
#536=AXIS2_PLACEMENT_3D('',#717,#611,#612);
#537=AXIS2_PLACEMENT_3D('',#719,#613,#614);
#538=AXIS2_PLACEMENT_3D('',#720,#615,#616);
#539=AXIS2_PLACEMENT_3D('',#722,#617,#618);
#540=AXIS2_PLACEMENT_3D('',#724,#619,#620);
#541=AXIS2_PLACEMENT_3D('',#725,#621,#622);
#542=AXIS2_PLACEMENT_3D('',#727,#623,#624);
#543=AXIS2_PLACEMENT_3D('',#728,#625,#626);
#544=AXIS2_PLACEMENT_3D('',#730,#627,#628);
#545=AXIS2_PLACEMENT_3D('',#732,#629,#630);
#546=AXIS2_PLACEMENT_3D('',#733,#631,#632);
#547=AXIS2_PLACEMENT_3D('',#735,#633,#634);
#548=AXIS2_PLACEMENT_3D('',#736,#635,#636);
#549=AXIS2_PLACEMENT_3D('',#738,#637,#638);
#550=AXIS2_PLACEMENT_3D('',#740,#639,#640);
#551=AXIS2_PLACEMENT_3D('',#741,#641,#642);
#552=AXIS2_PLACEMENT_3D('',#742,#643,#644);
#553=AXIS2_PLACEMENT_3D('',#743,#645,#646);
#554=AXIS2_PLACEMENT_3D('',#744,#647,#648);
#555=AXIS2_PLACEMENT_3D('',#745,#649,#650);
#556=AXIS2_PLACEMENT_3D('',#746,#651,#652);
#557=AXIS2_PLACEMENT_3D('',#747,#653,#654);
#558=AXIS2_PLACEMENT_3D('',#749,#655,#656);
#559=AXIS2_PLACEMENT_3D('',#751,#657,#658);
#560=AXIS2_PLACEMENT_3D('',#752,#659,#660);
#561=AXIS2_PLACEMENT_3D('',#753,#661,#662);
#562=AXIS2_PLACEMENT_3D('',#755,#663,#664);
#563=AXIS2_PLACEMENT_3D('',#756,#665,#666);
#564=AXIS2_PLACEMENT_3D('',#758,#667,#668);
#565=AXIS2_PLACEMENT_3D('',#759,#669,#670);
#566=AXIS2_PLACEMENT_3D('',#760,#671,#672);
#567=DIRECTION('',(0.,0.,1.));
#568=DIRECTION('',(1.,0.,0.));
#569=DIRECTION('',(1.,0.,0.));
#570=DIRECTION('',(0.,0.,1.));
#571=DIRECTION('',(-1.,0.,0.));
#572=DIRECTION('',(0.,0.,1.));
#573=DIRECTION('',(-1.,0.,0.));
#574=DIRECTION('',(0.,0.,1.));
#575=DIRECTION('',(-1.,0.,0.));
#576=DIRECTION('',(0.,0.,-1.));
#577=DIRECTION('',(1.,0.,0.));
#578=DIRECTION('',(0.,0.,-1.));
#579=DIRECTION('',(1.,0.,0.));
#580=DIRECTION('',(0.,0.,-1.));
#581=DIRECTION('',(-1.,0.,0.));
#582=DIRECTION('',(0.,0.,1.));
#583=DIRECTION('',(1.,0.,0.));
#584=DIRECTION('',(0.,-1.,0.));
#585=DIRECTION('',(0.,0.,-1.));
#586=DIRECTION('',(0.,-1.,0.));
#587=DIRECTION('',(0.,0.,-1.));
#588=DIRECTION('',(0.,-1.,0.));
#589=DIRECTION('',(0.,0.,-1.));
#590=DIRECTION('',(-1.,0.,0.));
#591=DIRECTION('',(1.,0.,0.));
#592=DIRECTION('',(1.,0.,0.));
#593=DIRECTION('',(0.,-1.,0.));
#594=DIRECTION('',(1.,0.,0.));
#595=DIRECTION('',(0.,0.,-1.));
#596=DIRECTION('',(0.,0.,1.));
#597=DIRECTION('',(0.,0.,1.));
#598=DIRECTION('',(0.,-1.,0.));
#599=DIRECTION('',(-1.,0.,0.));
#600=DIRECTION('',(0.,1.,0.));
#601=DIRECTION('',(0.,0.,1.));
#602=DIRECTION('',(1.,0.,0.));
#603=DIRECTION('',(0.,0.,-1.));
#604=DIRECTION('',(1.,0.,0.));
#605=DIRECTION('',(-1.,0.,0.));
#606=DIRECTION('',(-1.,0.,0.));
#607=DIRECTION('',(0.,-1.,0.));
#608=DIRECTION('',(0.,0.,-1.));
#609=DIRECTION('',(0.,-1.,0.));
#610=DIRECTION('',(0.,0.,-1.));
#611=DIRECTION('',(0.,-1.,0.));
#612=DIRECTION('',(0.,0.,-1.));
#613=DIRECTION('',(0.,-1.,0.));
#614=DIRECTION('',(0.,0.,-1.));
#615=DIRECTION('',(0.,1.,0.));
#616=DIRECTION('',(0.,0.,-1.));
#617=DIRECTION('',(0.,1.,0.));
#618=DIRECTION('',(0.,0.,-1.));
#619=DIRECTION('',(-1.,0.,0.));
#620=DIRECTION('',(0.,0.,1.));
#621=DIRECTION('',(-1.,0.,0.));
#622=DIRECTION('',(0.,0.,1.));
#623=DIRECTION('',(-1.,0.,0.));
#624=DIRECTION('',(0.,0.,1.));
#625=DIRECTION('',(-1.,0.,0.));
#626=DIRECTION('',(0.,0.,1.));
#627=DIRECTION('',(-1.,0.,0.));
#628=DIRECTION('',(0.,0.,-1.));
#629=DIRECTION('',(1.,0.,0.));
#630=DIRECTION('',(0.,0.,-1.));
#631=DIRECTION('',(1.,0.,0.));
#632=DIRECTION('',(0.,0.,-1.));
#633=DIRECTION('',(1.,0.,0.));
#634=DIRECTION('',(0.,0.,-1.));
#635=DIRECTION('',(1.,0.,0.));
#636=DIRECTION('',(0.,0.,-1.));
#637=DIRECTION('',(1.,0.,0.));
#638=DIRECTION('',(0.,0.,1.));
#639=DIRECTION('',(-1.,0.,0.));
#640=DIRECTION('',(0.,0.,1.));
#641=DIRECTION('',(-1.,0.,0.));
#642=DIRECTION('',(0.,0.,-1.));
#643=DIRECTION('',(1.,0.,0.));
#644=DIRECTION('',(0.,0.,-1.));
#645=DIRECTION('',(1.,0.,0.));
#646=DIRECTION('',(0.,0.,1.));
#647=DIRECTION('',(1.,0.,0.));
#648=DIRECTION('',(0.,0.,-1.));
#649=DIRECTION('',(-1.,0.,0.));
#650=DIRECTION('',(0.,0.,1.));
#651=DIRECTION('',(0.,0.,-1.));
#652=DIRECTION('',(-1.,0.,0.));
#653=DIRECTION('',(0.,0.,-1.));
#654=DIRECTION('',(1.,0.,0.));
#655=DIRECTION('',(0.,0.,-1.));
#656=DIRECTION('',(-1.,0.,0.));
#657=DIRECTION('',(0.,0.,1.));
#658=DIRECTION('',(1.,0.,0.));
#659=DIRECTION('',(0.,0.,-1.));
#660=DIRECTION('',(-1.,0.,0.));
#661=DIRECTION('',(0.,0.,1.));
#662=DIRECTION('',(0.,-1.,0.));
#663=DIRECTION('',(0.,0.,-1.));
#664=DIRECTION('',(0.,-1.,0.));
#665=DIRECTION('',(0.,0.,1.));
#666=DIRECTION('',(0.,-1.,0.));
#667=DIRECTION('',(0.,0.,-1.));
#668=DIRECTION('',(0.,-1.,0.));
#669=DIRECTION('',(0.,1.,0.));
#670=DIRECTION('',(0.,0.,-1.));
#671=DIRECTION('',(0.,1.,0.));
#672=DIRECTION('',(0.,0.,-1.));
#673=CARTESIAN_POINT('',(0.,0.,0.));
#674=CARTESIAN_POINT('',(-22.,8.,-4.5));
#675=CARTESIAN_POINT('',(-13.,8.,-4.5));
#676=CARTESIAN_POINT('',(-13.,8.,-0.217));
#677=CARTESIAN_POINT('',(-20.,8.,-4.5));
#678=CARTESIAN_POINT('',(-20.,8.,-0.217));
#679=CARTESIAN_POINT('',(22.,8.,-4.5));
#680=CARTESIAN_POINT('',(13.,8.,-4.5));
#681=CARTESIAN_POINT('',(13.,8.,-8.783));
#682=CARTESIAN_POINT('',(20.,8.,-4.5));
#683=CARTESIAN_POINT('',(20.,8.,-8.783));
#684=CARTESIAN_POINT('',(-17.,16.,12.5));
#685=CARTESIAN_POINT('',(-17.,8.,-4.5));
#686=CARTESIAN_POINT('',(-17.,0.150000000000001,-4.5));
#687=CARTESIAN_POINT('',(-17.,0.,12.5));
#688=CARTESIAN_POINT('',(-17.,0.,12.5));
#689=CARTESIAN_POINT('',(-17.,0.,-12.5));
#690=CARTESIAN_POINT('',(-17.,16.,12.5));
#691=CARTESIAN_POINT('',(-17.,16.,12.5));
#692=CARTESIAN_POINT('',(-17.,16.,12.5));
#693=CARTESIAN_POINT('',(-17.,16.,-12.5));
#694=CARTESIAN_POINT('',(-17.,16.,-12.5));
#695=CARTESIAN_POINT('',(-17.,16.,-12.5));
#696=CARTESIAN_POINT('',(-17.,0.,-12.5));
#697=CARTESIAN_POINT('',(17.,0.,-12.5));
#698=CARTESIAN_POINT('',(-17.,16.,-12.5));
#699=CARTESIAN_POINT('',(17.,16.,-12.5));
#700=CARTESIAN_POINT('',(17.,16.,-12.5));
#701=CARTESIAN_POINT('',(17.,16.,-12.5));
#702=CARTESIAN_POINT('',(17.,0.,-12.5));
#703=CARTESIAN_POINT('',(17.,0.,12.5));
#704=CARTESIAN_POINT('',(17.,16.,-12.5));
#705=CARTESIAN_POINT('',(17.,16.,12.5));
#706=CARTESIAN_POINT('',(17.,16.,12.5));
#707=CARTESIAN_POINT('',(17.,8.,-4.5));
#708=CARTESIAN_POINT('',(17.,15.85,-4.5));
#709=CARTESIAN_POINT('',(17.,16.,12.5));
#710=CARTESIAN_POINT('',(0.,8.,12.5));
#711=CARTESIAN_POINT('',(6.8,8.,12.5));
#712=CARTESIAN_POINT('',(17.,0.,12.5));
#713=CARTESIAN_POINT('',(17.,16.,12.5));
#714=CARTESIAN_POINT('',(0.,16.,0.));
#715=CARTESIAN_POINT('',(-12.7,16.,8.2));
#716=CARTESIAN_POINT('',(-12.7,16.,6.05));
#717=CARTESIAN_POINT('',(12.7,16.,8.2));
#718=CARTESIAN_POINT('',(12.7,16.,6.05));
#719=CARTESIAN_POINT('',(0.,0.,0.));
#720=CARTESIAN_POINT('',(-12.7,0.,8.2));
#721=CARTESIAN_POINT('',(-12.7,0.,6.05));
#722=CARTESIAN_POINT('',(12.7,0.,8.2));
#723=CARTESIAN_POINT('',(12.7,0.,6.05));
#724=CARTESIAN_POINT('',(22.,8.,-4.5));
#725=CARTESIAN_POINT('',(21.75,8.,-4.5));
#726=CARTESIAN_POINT('',(21.75,8.,3.35));
#727=CARTESIAN_POINT('',(22.,8.,-8.53150114424764));
#728=CARTESIAN_POINT('',(22.,8.,-4.5));
#729=CARTESIAN_POINT('',(22.,8.,3.1));
#730=CARTESIAN_POINT('',(22.,8.,-4.5));
#731=CARTESIAN_POINT('',(22.,8.,-8.783));
#732=CARTESIAN_POINT('',(-22.,8.,-4.5));
#733=CARTESIAN_POINT('',(-21.75,8.,-4.5));
#734=CARTESIAN_POINT('',(-21.75,8.,-12.35));
#735=CARTESIAN_POINT('',(-22.,8.,-4.5));
#736=CARTESIAN_POINT('',(-22.,8.,-4.5));
#737=CARTESIAN_POINT('',(-22.,8.,-12.1));
#738=CARTESIAN_POINT('',(-22.,8.,-4.5));
#739=CARTESIAN_POINT('',(-22.,8.,-0.217));
#740=CARTESIAN_POINT('',(13.,8.,-4.5));
#741=CARTESIAN_POINT('',(22.,8.,-4.5));
#742=CARTESIAN_POINT('',(-13.,8.,-4.5));
#743=CARTESIAN_POINT('',(-22.,8.,-4.5));
#744=CARTESIAN_POINT('',(-21.75,8.,-4.5));
#745=CARTESIAN_POINT('',(21.75,8.,-4.5));
#746=CARTESIAN_POINT('',(0.,8.,12.1));
#747=CARTESIAN_POINT('',(0.,8.,12.1));
#748=CARTESIAN_POINT('',(6.8,8.,12.1));
#749=CARTESIAN_POINT('',(0.,8.,12.1));
#750=CARTESIAN_POINT('',(-4.283,8.,12.1));
#751=CARTESIAN_POINT('',(0.,8.,12.1));
#752=CARTESIAN_POINT('',(0.,8.,3.1));
#753=CARTESIAN_POINT('',(0.,8.,3.1));
#754=CARTESIAN_POINT('',(0.,3.717,3.1));
#755=CARTESIAN_POINT('',(0.,8.,12.1));
#756=CARTESIAN_POINT('',(0.,8.,10.1));
#757=CARTESIAN_POINT('',(0.,3.717,10.1));
#758=CARTESIAN_POINT('',(0.,8.,12.1));
#759=CARTESIAN_POINT('',(12.7,0.,8.2));
#760=CARTESIAN_POINT('',(-12.7,0.,8.2));
#761=MECHANICAL_DESIGN_GEOMETRIC_PRESENTATION_REPRESENTATION('',(#314,#315,
#316,#317,#318,#319,#320,#321,#322,#323,#324,#325,#326,#327,#328,#329,#330,
#331,#332,#333,#334,#335,#336,#337,#338),#762);
#762=(
GEOMETRIC_REPRESENTATION_CONTEXT(3)
GLOBAL_UNCERTAINTY_ASSIGNED_CONTEXT((#763))
GLOBAL_UNIT_ASSIGNED_CONTEXT((#766,#765,#764))
REPRESENTATION_CONTEXT('6.04.18','TOP_LEVEL_ASSEMBLY_PART')
);
#763=UNCERTAINTY_MEASURE_WITH_UNIT(LENGTH_MEASURE(0.005),#766,
'DISTANCE_ACCURACY_VALUE','Maximum Tolerance applied to model');
#764=(
NAMED_UNIT(*)
SI_UNIT($,.STERADIAN.)
SOLID_ANGLE_UNIT()
);
#765=(
NAMED_UNIT(*)
PLANE_ANGLE_UNIT()
SI_UNIT($,.RADIAN.)
);
#766=(
LENGTH_UNIT()
NAMED_UNIT(*)
SI_UNIT(.MILLI.,.METRE.)
);
#767=PRODUCT_DEFINITION_SHAPE('','',#768);
#768=PRODUCT_DEFINITION('','',#770,#769);
#769=PRODUCT_DEFINITION_CONTEXT('',#776,'design');
#770=PRODUCT_DEFINITION_FORMATION_WITH_SPECIFIED_SOURCE('','',#772,
 .NOT_KNOWN.);
#771=PRODUCT_RELATED_PRODUCT_CATEGORY('','',(#772));
#772=PRODUCT('6.04.18','6.04.18','6.04.18',(#774));
#773=PRODUCT_CATEGORY('','');
#774=PRODUCT_CONTEXT('',#776,'mechanical');
#775=APPLICATION_PROTOCOL_DEFINITION('international standard',
'automotive_design',2010,#776);
#776=APPLICATION_CONTEXT(
'core data for automotive mechanical design processes');
ENDSEC;
END-ISO-10303-21;
