ISO-10303-21;
HEADER;
/* Generated by software containing ST-Developer
 * from STEP Tools, Inc. (www.steptools.com) 
 */
/* OPTION: strings as raw bytes, not using required /X/ escapes */

FILE_DESCRIPTION(
/* description */ ('Unknown'),
/* implementation_level */ '2;1');

FILE_NAME(
/* name */ '6.06.34',
/* time_stamp */ '2021-01-05T10:56:44-05:00',
/* author */ ('Unknown'),
/* organization */ ('Unknown'),
/* preprocessor_version */ 'ST-DEVELOPER v16.7',
/* originating_system */ 'Solid Edge',
/* authorisation */ 'Unknown');

FILE_SCHEMA (('AUTOMOTIVE_DESIGN {1 0 10303 214 3 1 1}'));
ENDSEC;

DATA;
#10=PROPERTY_DEFINITION_REPRESENTATION(#14,#12);
#11=PROPERTY_DEFINITION_REPRESENTATION(#15,#13);
#12=REPRESENTATION('',(#16),#368);
#13=REPRESENTATION('',(#17),#368);
#14=PROPERTY_DEFINITION('pmi validation property','',#373);
#15=PROPERTY_DEFINITION('pmi validation property','',#373);
#16=VALUE_REPRESENTATION_ITEM('number of annotations',COUNT_MEASURE(0.));
#17=VALUE_REPRESENTATION_ITEM('number of views',COUNT_MEASURE(0.));
#18=SHAPE_REPRESENTATION_RELATIONSHIP('','',#250,#19);
#19=ADVANCED_BREP_SHAPE_REPRESENTATION('',(#248),#368);
#20=CONICAL_SURFACE('',#260,14.95,0.0681811894910886);
#21=CONICAL_SURFACE('',#275,13.45,0.785398163397448);
#22=CONICAL_SURFACE('',#276,11.,0.785398163397449);
#23=PLANE('',#258);
#24=PLANE('',#262);
#25=PLANE('',#264);
#26=PLANE('',#267);
#27=PLANE('',#274);
#28=ORIENTED_EDGE('',*,*,#52,.T.);
#29=ORIENTED_EDGE('',*,*,#53,.T.);
#30=ORIENTED_EDGE('',*,*,#54,.F.);
#31=ORIENTED_EDGE('',*,*,#55,.T.);
#32=ORIENTED_EDGE('',*,*,#56,.T.);
#33=ORIENTED_EDGE('',*,*,#55,.F.);
#34=ORIENTED_EDGE('',*,*,#57,.F.);
#35=ORIENTED_EDGE('',*,*,#54,.T.);
#36=ORIENTED_EDGE('',*,*,#57,.T.);
#37=ORIENTED_EDGE('',*,*,#53,.F.);
#38=ORIENTED_EDGE('',*,*,#56,.F.);
#39=ORIENTED_EDGE('',*,*,#58,.T.);
#40=ORIENTED_EDGE('',*,*,#59,.T.);
#41=ORIENTED_EDGE('',*,*,#60,.T.);
#42=ORIENTED_EDGE('',*,*,#61,.T.);
#43=ORIENTED_EDGE('',*,*,#61,.F.);
#44=ORIENTED_EDGE('',*,*,#59,.F.);
#45=ORIENTED_EDGE('',*,*,#62,.T.);
#46=ORIENTED_EDGE('',*,*,#63,.T.);
#47=ORIENTED_EDGE('',*,*,#63,.F.);
#48=ORIENTED_EDGE('',*,*,#58,.F.);
#49=ORIENTED_EDGE('',*,*,#52,.F.);
#50=ORIENTED_EDGE('',*,*,#62,.F.);
#51=ORIENTED_EDGE('',*,*,#60,.F.);
#52=EDGE_CURVE('',#64,#64,#76,.T.);
#53=EDGE_CURVE('',#65,#65,#77,.T.);
#54=EDGE_CURVE('',#66,#66,#78,.T.);
#55=EDGE_CURVE('',#67,#67,#79,.T.);
#56=EDGE_CURVE('',#68,#68,#80,.T.);
#57=EDGE_CURVE('',#69,#69,#81,.F.);
#58=EDGE_CURVE('',#70,#70,#82,.F.);
#59=EDGE_CURVE('',#71,#71,#83,.T.);
#60=EDGE_CURVE('',#72,#72,#84,.T.);
#61=EDGE_CURVE('',#73,#73,#85,.T.);
#62=EDGE_CURVE('',#74,#74,#86,.F.);
#63=EDGE_CURVE('',#75,#75,#87,.T.);
#64=VERTEX_POINT('',#332);
#65=VERTEX_POINT('',#334);
#66=VERTEX_POINT('',#337);
#67=VERTEX_POINT('',#339);
#68=VERTEX_POINT('',#342);
#69=VERTEX_POINT('',#345);
#70=VERTEX_POINT('',#350);
#71=VERTEX_POINT('',#352);
#72=VERTEX_POINT('',#355);
#73=VERTEX_POINT('',#357);
#74=VERTEX_POINT('',#361);
#75=VERTEX_POINT('',#363);
#76=CIRCLE('',#253,13.45);
#77=CIRCLE('',#254,13.45);
#78=CIRCLE('',#256,14.95);
#79=CIRCLE('',#257,14.95);
#80=CIRCLE('',#259,13.45);
#81=CIRCLE('',#261,12.);
#82=CIRCLE('',#265,12.95);
#83=CIRCLE('',#266,11.1);
#84=CIRCLE('',#268,11.);
#85=CIRCLE('',#269,11.1);
#86=CIRCLE('',#272,10.);
#87=CIRCLE('',#273,10.);
#88=EDGE_LOOP('',(#28));
#89=EDGE_LOOP('',(#29));
#90=EDGE_LOOP('',(#30));
#91=EDGE_LOOP('',(#31));
#92=EDGE_LOOP('',(#32));
#93=EDGE_LOOP('',(#33));
#94=EDGE_LOOP('',(#34));
#95=EDGE_LOOP('',(#35));
#96=EDGE_LOOP('',(#36));
#97=EDGE_LOOP('',(#37));
#98=EDGE_LOOP('',(#38));
#99=EDGE_LOOP('',(#39));
#100=EDGE_LOOP('',(#40));
#101=EDGE_LOOP('',(#41));
#102=EDGE_LOOP('',(#42));
#103=EDGE_LOOP('',(#43));
#104=EDGE_LOOP('',(#44));
#105=EDGE_LOOP('',(#45));
#106=EDGE_LOOP('',(#46));
#107=EDGE_LOOP('',(#47));
#108=EDGE_LOOP('',(#48));
#109=EDGE_LOOP('',(#49));
#110=EDGE_LOOP('',(#50));
#111=EDGE_LOOP('',(#51));
#112=FACE_BOUND('',#88,.T.);
#113=FACE_BOUND('',#89,.T.);
#114=FACE_BOUND('',#90,.T.);
#115=FACE_BOUND('',#91,.T.);
#116=FACE_BOUND('',#92,.T.);
#117=FACE_BOUND('',#93,.T.);
#118=FACE_BOUND('',#94,.T.);
#119=FACE_BOUND('',#95,.T.);
#120=FACE_BOUND('',#96,.T.);
#121=FACE_BOUND('',#97,.T.);
#122=FACE_BOUND('',#98,.T.);
#123=FACE_BOUND('',#99,.T.);
#124=FACE_BOUND('',#100,.T.);
#125=FACE_BOUND('',#101,.T.);
#126=FACE_BOUND('',#102,.T.);
#127=FACE_BOUND('',#103,.T.);
#128=FACE_BOUND('',#104,.T.);
#129=FACE_BOUND('',#105,.T.);
#130=FACE_BOUND('',#106,.T.);
#131=FACE_BOUND('',#107,.T.);
#132=FACE_BOUND('',#108,.T.);
#133=FACE_BOUND('',#109,.T.);
#134=FACE_BOUND('',#110,.T.);
#135=FACE_BOUND('',#111,.T.);
#136=CYLINDRICAL_SURFACE('',#252,13.45);
#137=CYLINDRICAL_SURFACE('',#255,14.95);
#138=CYLINDRICAL_SURFACE('',#263,13.45);
#139=CYLINDRICAL_SURFACE('',#270,11.1);
#140=CYLINDRICAL_SURFACE('',#271,10.);
#141=STYLED_ITEM('',(#154),#234);
#142=STYLED_ITEM('',(#155),#235);
#143=STYLED_ITEM('',(#156),#236);
#144=STYLED_ITEM('',(#157),#237);
#145=STYLED_ITEM('',(#158),#238);
#146=STYLED_ITEM('',(#159),#239);
#147=STYLED_ITEM('',(#160),#240);
#148=STYLED_ITEM('',(#161),#241);
#149=STYLED_ITEM('',(#162),#242);
#150=STYLED_ITEM('',(#163),#243);
#151=STYLED_ITEM('',(#164),#244);
#152=STYLED_ITEM('',(#165),#245);
#153=STYLED_ITEM('',(#166),#246);
#154=PRESENTATION_STYLE_ASSIGNMENT((#167));
#155=PRESENTATION_STYLE_ASSIGNMENT((#168));
#156=PRESENTATION_STYLE_ASSIGNMENT((#169));
#157=PRESENTATION_STYLE_ASSIGNMENT((#170));
#158=PRESENTATION_STYLE_ASSIGNMENT((#171));
#159=PRESENTATION_STYLE_ASSIGNMENT((#172));
#160=PRESENTATION_STYLE_ASSIGNMENT((#173));
#161=PRESENTATION_STYLE_ASSIGNMENT((#174));
#162=PRESENTATION_STYLE_ASSIGNMENT((#175));
#163=PRESENTATION_STYLE_ASSIGNMENT((#176));
#164=PRESENTATION_STYLE_ASSIGNMENT((#177));
#165=PRESENTATION_STYLE_ASSIGNMENT((#178));
#166=PRESENTATION_STYLE_ASSIGNMENT((#179));
#167=SURFACE_STYLE_USAGE(.BOTH.,#180);
#168=SURFACE_STYLE_USAGE(.BOTH.,#181);
#169=SURFACE_STYLE_USAGE(.BOTH.,#182);
#170=SURFACE_STYLE_USAGE(.BOTH.,#183);
#171=SURFACE_STYLE_USAGE(.BOTH.,#184);
#172=SURFACE_STYLE_USAGE(.BOTH.,#185);
#173=SURFACE_STYLE_USAGE(.BOTH.,#186);
#174=SURFACE_STYLE_USAGE(.BOTH.,#187);
#175=SURFACE_STYLE_USAGE(.BOTH.,#188);
#176=SURFACE_STYLE_USAGE(.BOTH.,#189);
#177=SURFACE_STYLE_USAGE(.BOTH.,#190);
#178=SURFACE_STYLE_USAGE(.BOTH.,#191);
#179=SURFACE_STYLE_USAGE(.BOTH.,#192);
#180=SURFACE_SIDE_STYLE('',(#193));
#181=SURFACE_SIDE_STYLE('',(#194));
#182=SURFACE_SIDE_STYLE('',(#195));
#183=SURFACE_SIDE_STYLE('',(#196));
#184=SURFACE_SIDE_STYLE('',(#197));
#185=SURFACE_SIDE_STYLE('',(#198));
#186=SURFACE_SIDE_STYLE('',(#199));
#187=SURFACE_SIDE_STYLE('',(#200));
#188=SURFACE_SIDE_STYLE('',(#201));
#189=SURFACE_SIDE_STYLE('',(#202));
#190=SURFACE_SIDE_STYLE('',(#203));
#191=SURFACE_SIDE_STYLE('',(#204));
#192=SURFACE_SIDE_STYLE('',(#205));
#193=SURFACE_STYLE_FILL_AREA(#206);
#194=SURFACE_STYLE_FILL_AREA(#207);
#195=SURFACE_STYLE_FILL_AREA(#208);
#196=SURFACE_STYLE_FILL_AREA(#209);
#197=SURFACE_STYLE_FILL_AREA(#210);
#198=SURFACE_STYLE_FILL_AREA(#211);
#199=SURFACE_STYLE_FILL_AREA(#212);
#200=SURFACE_STYLE_FILL_AREA(#213);
#201=SURFACE_STYLE_FILL_AREA(#214);
#202=SURFACE_STYLE_FILL_AREA(#215);
#203=SURFACE_STYLE_FILL_AREA(#216);
#204=SURFACE_STYLE_FILL_AREA(#217);
#205=SURFACE_STYLE_FILL_AREA(#218);
#206=FILL_AREA_STYLE('',(#219));
#207=FILL_AREA_STYLE('',(#220));
#208=FILL_AREA_STYLE('',(#221));
#209=FILL_AREA_STYLE('',(#222));
#210=FILL_AREA_STYLE('',(#223));
#211=FILL_AREA_STYLE('',(#224));
#212=FILL_AREA_STYLE('',(#225));
#213=FILL_AREA_STYLE('',(#226));
#214=FILL_AREA_STYLE('',(#227));
#215=FILL_AREA_STYLE('',(#228));
#216=FILL_AREA_STYLE('',(#229));
#217=FILL_AREA_STYLE('',(#230));
#218=FILL_AREA_STYLE('',(#231));
#219=FILL_AREA_STYLE_COLOUR('',#232);
#220=FILL_AREA_STYLE_COLOUR('',#233);
#221=FILL_AREA_STYLE_COLOUR('',#233);
#222=FILL_AREA_STYLE_COLOUR('',#233);
#223=FILL_AREA_STYLE_COLOUR('',#233);
#224=FILL_AREA_STYLE_COLOUR('',#233);
#225=FILL_AREA_STYLE_COLOUR('',#233);
#226=FILL_AREA_STYLE_COLOUR('',#233);
#227=FILL_AREA_STYLE_COLOUR('',#233);
#228=FILL_AREA_STYLE_COLOUR('',#233);
#229=FILL_AREA_STYLE_COLOUR('',#233);
#230=FILL_AREA_STYLE_COLOUR('',#233);
#231=FILL_AREA_STYLE_COLOUR('',#233);
#232=COLOUR_RGB('',0.1875,0.75,0.581249892711639);
#233=COLOUR_RGB('',0.506983280181885,0.531564235687256,0.550000011920929);
#234=ADVANCED_FACE('',(#112,#113),#136,.T.);
#235=ADVANCED_FACE('',(#114,#115),#137,.T.);
#236=ADVANCED_FACE('',(#116,#117),#23,.F.);
#237=ADVANCED_FACE('',(#118,#119),#20,.T.);
#238=ADVANCED_FACE('',(#120),#24,.F.);
#239=ADVANCED_FACE('',(#121,#122),#138,.T.);
#240=ADVANCED_FACE('',(#123,#124),#25,.F.);
#241=ADVANCED_FACE('',(#125,#126),#26,.F.);
#242=ADVANCED_FACE('',(#127,#128),#139,.F.);
#243=ADVANCED_FACE('',(#129,#130),#140,.F.);
#244=ADVANCED_FACE('',(#131),#27,.F.);
#245=ADVANCED_FACE('',(#132,#133),#21,.T.);
#246=ADVANCED_FACE('',(#134,#135),#22,.F.);
#247=CLOSED_SHELL('',(#234,#235,#236,#237,#238,#239,#240,#241,#242,#243,
#244,#245,#246));
#248=MANIFOLD_SOLID_BREP('',#247);
#249=SHAPE_DEFINITION_REPRESENTATION(#373,#250);
#250=SHAPE_REPRESENTATION('6.06.34',(#251),#368);
#251=AXIS2_PLACEMENT_3D('',#329,#277,#278);
#252=AXIS2_PLACEMENT_3D('',#330,#279,#280);
#253=AXIS2_PLACEMENT_3D('',#331,#281,#282);
#254=AXIS2_PLACEMENT_3D('',#333,#283,#284);
#255=AXIS2_PLACEMENT_3D('',#335,#285,#286);
#256=AXIS2_PLACEMENT_3D('',#336,#287,#288);
#257=AXIS2_PLACEMENT_3D('',#338,#289,#290);
#258=AXIS2_PLACEMENT_3D('',#340,#291,#292);
#259=AXIS2_PLACEMENT_3D('',#341,#293,#294);
#260=AXIS2_PLACEMENT_3D('',#343,#295,#296);
#261=AXIS2_PLACEMENT_3D('',#344,#297,#298);
#262=AXIS2_PLACEMENT_3D('',#346,#299,#300);
#263=AXIS2_PLACEMENT_3D('',#347,#301,#302);
#264=AXIS2_PLACEMENT_3D('',#348,#303,#304);
#265=AXIS2_PLACEMENT_3D('',#349,#305,#306);
#266=AXIS2_PLACEMENT_3D('',#351,#307,#308);
#267=AXIS2_PLACEMENT_3D('',#353,#309,#310);
#268=AXIS2_PLACEMENT_3D('',#354,#311,#312);
#269=AXIS2_PLACEMENT_3D('',#356,#313,#314);
#270=AXIS2_PLACEMENT_3D('',#358,#315,#316);
#271=AXIS2_PLACEMENT_3D('',#359,#317,#318);
#272=AXIS2_PLACEMENT_3D('',#360,#319,#320);
#273=AXIS2_PLACEMENT_3D('',#362,#321,#322);
#274=AXIS2_PLACEMENT_3D('',#364,#323,#324);
#275=AXIS2_PLACEMENT_3D('',#365,#325,#326);
#276=AXIS2_PLACEMENT_3D('',#366,#327,#328);
#277=DIRECTION('',(0.,0.,1.));
#278=DIRECTION('',(1.,0.,0.));
#279=DIRECTION('',(0.,-1.,0.));
#280=DIRECTION('',(0.,0.,-1.));
#281=DIRECTION('',(0.,-1.,0.));
#282=DIRECTION('',(0.,0.,-1.));
#283=DIRECTION('',(0.,1.,0.));
#284=DIRECTION('',(0.,0.,-1.));
#285=DIRECTION('',(0.,1.,0.));
#286=DIRECTION('',(0.,0.,1.));
#287=DIRECTION('',(0.,-1.,0.));
#288=DIRECTION('',(1.,0.,0.));
#289=DIRECTION('',(0.,-1.,0.));
#290=DIRECTION('',(1.,0.,0.));
#291=DIRECTION('',(0.,-1.,0.));
#292=DIRECTION('',(0.,0.,-1.));
#293=DIRECTION('',(0.,-1.,0.));
#294=DIRECTION('',(0.,0.,-1.));
#295=DIRECTION('',(0.,1.,0.));
#296=DIRECTION('',(0.,0.,1.));
#297=DIRECTION('',(0.,1.,0.));
#298=DIRECTION('',(1.,0.,0.));
#299=DIRECTION('',(0.,1.,0.));
#300=DIRECTION('',(0.,0.,1.));
#301=DIRECTION('',(0.,-1.,0.));
#302=DIRECTION('',(0.,0.,-1.));
#303=DIRECTION('',(1.22464679914735E-16,-1.,0.));
#304=DIRECTION('',(1.,1.22464679914735E-16,0.));
#305=DIRECTION('',(1.22464679914735E-16,-1.,0.));
#306=DIRECTION('',(1.,1.22464679914735E-16,0.));
#307=DIRECTION('',(1.22464679914735E-16,-1.,0.));
#308=DIRECTION('',(-1.,-1.22464679914735E-16,0.));
#309=DIRECTION('',(1.22464679914735E-16,-1.,0.));
#310=DIRECTION('',(1.,1.22464679914735E-16,0.));
#311=DIRECTION('',(1.22464679914735E-16,-1.,0.));
#312=DIRECTION('',(1.,1.22464679914735E-16,0.));
#313=DIRECTION('',(-1.22464679914735E-16,1.,0.));
#314=DIRECTION('',(-1.,-1.22464679914735E-16,0.));
#315=DIRECTION('',(1.22464679914735E-16,-1.,0.));
#316=DIRECTION('',(-1.,-1.22464679914735E-16,0.));
#317=DIRECTION('',(-1.22464679914735E-16,1.,0.));
#318=DIRECTION('',(-1.,-1.22464679914735E-16,0.));
#319=DIRECTION('',(1.22464679914735E-16,-1.,0.));
#320=DIRECTION('',(1.,1.22464679914735E-16,0.));
#321=DIRECTION('',(1.56281394232145E-16,-1.,0.));
#322=DIRECTION('',(-1.,-1.56281394232145E-16,0.));
#323=DIRECTION('',(1.56281394232145E-16,-1.,0.));
#324=DIRECTION('',(1.,1.56281394232145E-16,0.));
#325=DIRECTION('',(0.,-1.,0.));
#326=DIRECTION('',(0.,0.,-1.));
#327=DIRECTION('',(-1.22464679914735E-16,1.,0.));
#328=DIRECTION('',(-1.,-1.22464679914735E-16,0.));
#329=CARTESIAN_POINT('',(0.,0.,0.));
#330=CARTESIAN_POINT('',(0.,9.4,0.));
#331=CARTESIAN_POINT('',(0.,8.9,0.));
#332=CARTESIAN_POINT('',(0.,8.9,-13.45));
#333=CARTESIAN_POINT('',(0.,1.4,0.));
#334=CARTESIAN_POINT('',(0.,1.4,-13.45));
#335=CARTESIAN_POINT('',(0.,-2.1,0.));
#336=CARTESIAN_POINT('',(0.,-2.1,0.));
#337=CARTESIAN_POINT('',(14.95,-2.1,0.));
#338=CARTESIAN_POINT('',(0.,0.,0.));
#339=CARTESIAN_POINT('',(14.95,0.,0.));
#340=CARTESIAN_POINT('',(0.,0.,0.));
#341=CARTESIAN_POINT('',(0.,0.,0.));
#342=CARTESIAN_POINT('',(0.,0.,-13.45));
#343=CARTESIAN_POINT('',(0.,-2.1,0.));
#344=CARTESIAN_POINT('',(0.,-45.3,0.));
#345=CARTESIAN_POINT('',(12.,-45.3,0.));
#346=CARTESIAN_POINT('',(0.,-45.3,0.));
#347=CARTESIAN_POINT('',(0.,9.4,0.));
#348=CARTESIAN_POINT('',(0.,9.4,0.));
#349=CARTESIAN_POINT('',(0.,9.4,0.));
#350=CARTESIAN_POINT('',(12.95,9.4,0.));
#351=CARTESIAN_POINT('',(0.,9.4,0.));
#352=CARTESIAN_POINT('',(-11.1,9.4,0.));
#353=CARTESIAN_POINT('',(2.93915231795365E-15,-14.6,0.));
#354=CARTESIAN_POINT('',(2.93915231795365E-15,-14.6,0.));
#355=CARTESIAN_POINT('',(11.,-14.6,0.));
#356=CARTESIAN_POINT('',(2.93915231795365E-15,-14.6,0.));
#357=CARTESIAN_POINT('',(-11.1,-14.6,0.));
#358=CARTESIAN_POINT('',(0.,9.4,0.));
#359=CARTESIAN_POINT('',(6.36816335556624E-15,-42.6,0.));
#360=CARTESIAN_POINT('',(3.06161699786838E-15,-15.6,0.));
#361=CARTESIAN_POINT('',(10.,-15.6,0.));
#362=CARTESIAN_POINT('',(6.36816335556624E-15,-42.6,0.));
#363=CARTESIAN_POINT('',(-9.99999999999999,-42.6,0.));
#364=CARTESIAN_POINT('',(6.36816335556624E-15,-42.6,0.));
#365=CARTESIAN_POINT('',(0.,8.9,0.));
#366=CARTESIAN_POINT('',(2.93915231795365E-15,-14.6,0.));
#367=MECHANICAL_DESIGN_GEOMETRIC_PRESENTATION_REPRESENTATION('',(#141,#142,
#143,#144,#145,#146,#147,#148,#149,#150,#151,#152,#153),#368);
#368=(
GEOMETRIC_REPRESENTATION_CONTEXT(3)
GLOBAL_UNCERTAINTY_ASSIGNED_CONTEXT((#369))
GLOBAL_UNIT_ASSIGNED_CONTEXT((#372,#371,#370))
REPRESENTATION_CONTEXT('6.06.34','TOP_LEVEL_ASSEMBLY_PART')
);
#369=UNCERTAINTY_MEASURE_WITH_UNIT(LENGTH_MEASURE(0.005),#372,
'DISTANCE_ACCURACY_VALUE','Maximum Tolerance applied to model');
#370=(
NAMED_UNIT(*)
SI_UNIT($,.STERADIAN.)
SOLID_ANGLE_UNIT()
);
#371=(
NAMED_UNIT(*)
PLANE_ANGLE_UNIT()
SI_UNIT($,.RADIAN.)
);
#372=(
LENGTH_UNIT()
NAMED_UNIT(*)
SI_UNIT(.MILLI.,.METRE.)
);
#373=PRODUCT_DEFINITION_SHAPE('','',#374);
#374=PRODUCT_DEFINITION('','',#376,#375);
#375=PRODUCT_DEFINITION_CONTEXT('',#382,'design');
#376=PRODUCT_DEFINITION_FORMATION_WITH_SPECIFIED_SOURCE('','',#378,
 .NOT_KNOWN.);
#377=PRODUCT_RELATED_PRODUCT_CATEGORY('','',(#378));
#378=PRODUCT('6.06.34','6.06.34','6.06.34',(#380));
#379=PRODUCT_CATEGORY('','');
#380=PRODUCT_CONTEXT('',#382,'mechanical');
#381=APPLICATION_PROTOCOL_DEFINITION('international standard',
'automotive_design',2010,#382);
#382=APPLICATION_CONTEXT(
'core data for automotive mechanical design processes');
ENDSEC;
END-ISO-10303-21;
