ISO-10303-21;
HEADER;
/* Generated by software containing ST-Developer
 * from STEP Tools, Inc. (www.steptools.com) 
 */
/* OPTION: strings as raw bytes, not using required /X/ escapes */

FILE_DESCRIPTION(
/* description */ ('Unknown'),
/* implementation_level */ '2;1');

FILE_NAME(
/* name */ '6.07.12',
/* time_stamp */ '2018-09-06T10:49:50-04:00',
/* author */ ('Unknown'),
/* organization */ ('Unknown'),
/* preprocessor_version */ 'ST-DEVELOPER v16.7',
/* originating_system */ 'DEX',
/* authorisation */ $);

FILE_SCHEMA (('AUTOMOTIVE_DESIGN {1 0 10303 214 3 1 1}'));
ENDSEC;

DATA;
#10=PROPERTY_DEFINITION_REPRESENTATION(#14,#12);
#11=PROPERTY_DEFINITION_REPRESENTATION(#15,#13);
#12=REPRESENTATION('',(#16),#463);
#13=REPRESENTATION('',(#17),#463);
#14=PROPERTY_DEFINITION('pmi validation property','',#468);
#15=PROPERTY_DEFINITION('pmi validation property','',#468);
#16=VALUE_REPRESENTATION_ITEM('number of annotations',COUNT_MEASURE(0.));
#17=VALUE_REPRESENTATION_ITEM('number of views',COUNT_MEASURE(0.));
#18=SHAPE_REPRESENTATION_RELATIONSHIP('','',#323,#19);
#19=ADVANCED_BREP_SHAPE_REPRESENTATION('',(#321),#463);
#20=LINE('',#417,#38);
#21=LINE('',#420,#39);
#22=LINE('',#422,#40);
#23=LINE('',#424,#41);
#24=LINE('',#426,#42);
#25=LINE('',#428,#43);
#26=LINE('',#430,#44);
#27=LINE('',#432,#45);
#28=LINE('',#434,#46);
#29=LINE('',#436,#47);
#30=LINE('',#438,#48);
#31=LINE('',#440,#49);
#32=LINE('',#442,#50);
#33=LINE('',#444,#51);
#34=LINE('',#446,#52);
#35=LINE('',#448,#53);
#36=LINE('',#450,#54);
#37=LINE('',#451,#55);
#38=VECTOR('',#361,1000.);
#39=VECTOR('',#362,1000.);
#40=VECTOR('',#363,1000.);
#41=VECTOR('',#364,1000.);
#42=VECTOR('',#367,1000.);
#43=VECTOR('',#368,1000.);
#44=VECTOR('',#369,1000.);
#45=VECTOR('',#372,1000.);
#46=VECTOR('',#373,1000.);
#47=VECTOR('',#374,1000.);
#48=VECTOR('',#377,1000.);
#49=VECTOR('',#378,1000.);
#50=VECTOR('',#379,1000.);
#51=VECTOR('',#382,1000.);
#52=VECTOR('',#383,1000.);
#53=VECTOR('',#384,1000.);
#54=VECTOR('',#387,1000.);
#55=VECTOR('',#388,1000.);
#56=PLANE('',#331);
#57=PLANE('',#332);
#58=PLANE('',#333);
#59=PLANE('',#334);
#60=PLANE('',#335);
#61=PLANE('',#336);
#62=PLANE('',#337);
#63=PLANE('',#339);
#64=PLANE('',#341);
#65=PLANE('',#343);
#66=ORIENTED_EDGE('',*,*,#114,.F.);
#67=ORIENTED_EDGE('',*,*,#115,.T.);
#68=ORIENTED_EDGE('',*,*,#116,.F.);
#69=ORIENTED_EDGE('',*,*,#117,.T.);
#70=ORIENTED_EDGE('',*,*,#118,.T.);
#71=ORIENTED_EDGE('',*,*,#119,.F.);
#72=ORIENTED_EDGE('',*,*,#120,.F.);
#73=ORIENTED_EDGE('',*,*,#121,.T.);
#74=ORIENTED_EDGE('',*,*,#122,.T.);
#75=ORIENTED_EDGE('',*,*,#123,.F.);
#76=ORIENTED_EDGE('',*,*,#124,.F.);
#77=ORIENTED_EDGE('',*,*,#119,.T.);
#78=ORIENTED_EDGE('',*,*,#125,.T.);
#79=ORIENTED_EDGE('',*,*,#126,.F.);
#80=ORIENTED_EDGE('',*,*,#127,.F.);
#81=ORIENTED_EDGE('',*,*,#123,.T.);
#82=ORIENTED_EDGE('',*,*,#128,.T.);
#83=ORIENTED_EDGE('',*,*,#129,.F.);
#84=ORIENTED_EDGE('',*,*,#130,.F.);
#85=ORIENTED_EDGE('',*,*,#126,.T.);
#86=ORIENTED_EDGE('',*,*,#131,.T.);
#87=ORIENTED_EDGE('',*,*,#132,.F.);
#88=ORIENTED_EDGE('',*,*,#133,.F.);
#89=ORIENTED_EDGE('',*,*,#129,.T.);
#90=ORIENTED_EDGE('',*,*,#134,.T.);
#91=ORIENTED_EDGE('',*,*,#121,.F.);
#92=ORIENTED_EDGE('',*,*,#135,.F.);
#93=ORIENTED_EDGE('',*,*,#132,.T.);
#94=ORIENTED_EDGE('',*,*,#136,.T.);
#95=ORIENTED_EDGE('',*,*,#120,.T.);
#96=ORIENTED_EDGE('',*,*,#124,.T.);
#97=ORIENTED_EDGE('',*,*,#127,.T.);
#98=ORIENTED_EDGE('',*,*,#130,.T.);
#99=ORIENTED_EDGE('',*,*,#133,.T.);
#100=ORIENTED_EDGE('',*,*,#135,.T.);
#101=ORIENTED_EDGE('',*,*,#137,.T.);
#102=ORIENTED_EDGE('',*,*,#118,.F.);
#103=ORIENTED_EDGE('',*,*,#134,.F.);
#104=ORIENTED_EDGE('',*,*,#131,.F.);
#105=ORIENTED_EDGE('',*,*,#128,.F.);
#106=ORIENTED_EDGE('',*,*,#125,.F.);
#107=ORIENTED_EDGE('',*,*,#122,.F.);
#108=ORIENTED_EDGE('',*,*,#116,.T.);
#109=ORIENTED_EDGE('',*,*,#117,.F.);
#110=ORIENTED_EDGE('',*,*,#137,.F.);
#111=ORIENTED_EDGE('',*,*,#114,.T.);
#112=ORIENTED_EDGE('',*,*,#115,.F.);
#113=ORIENTED_EDGE('',*,*,#136,.F.);
#114=EDGE_CURVE('',#138,#138,#156,.T.);
#115=EDGE_CURVE('',#139,#139,#157,.T.);
#116=EDGE_CURVE('',#140,#140,#158,.T.);
#117=EDGE_CURVE('',#141,#141,#159,.T.);
#118=EDGE_CURVE('',#142,#143,#20,.T.);
#119=EDGE_CURVE('',#144,#143,#21,.T.);
#120=EDGE_CURVE('',#145,#144,#22,.T.);
#121=EDGE_CURVE('',#145,#142,#23,.T.);
#122=EDGE_CURVE('',#143,#146,#24,.T.);
#123=EDGE_CURVE('',#147,#146,#25,.T.);
#124=EDGE_CURVE('',#144,#147,#26,.T.);
#125=EDGE_CURVE('',#146,#148,#27,.T.);
#126=EDGE_CURVE('',#149,#148,#28,.T.);
#127=EDGE_CURVE('',#147,#149,#29,.T.);
#128=EDGE_CURVE('',#148,#150,#30,.T.);
#129=EDGE_CURVE('',#151,#150,#31,.T.);
#130=EDGE_CURVE('',#149,#151,#32,.T.);
#131=EDGE_CURVE('',#150,#152,#33,.T.);
#132=EDGE_CURVE('',#153,#152,#34,.T.);
#133=EDGE_CURVE('',#151,#153,#35,.T.);
#134=EDGE_CURVE('',#152,#142,#36,.T.);
#135=EDGE_CURVE('',#153,#145,#37,.T.);
#136=EDGE_CURVE('',#154,#154,#160,.T.);
#137=EDGE_CURVE('',#155,#155,#161,.T.);
#138=VERTEX_POINT('',#408);
#139=VERTEX_POINT('',#410);
#140=VERTEX_POINT('',#413);
#141=VERTEX_POINT('',#415);
#142=VERTEX_POINT('',#418);
#143=VERTEX_POINT('',#419);
#144=VERTEX_POINT('',#421);
#145=VERTEX_POINT('',#423);
#146=VERTEX_POINT('',#427);
#147=VERTEX_POINT('',#429);
#148=VERTEX_POINT('',#433);
#149=VERTEX_POINT('',#435);
#150=VERTEX_POINT('',#439);
#151=VERTEX_POINT('',#441);
#152=VERTEX_POINT('',#445);
#153=VERTEX_POINT('',#447);
#154=VERTEX_POINT('',#454);
#155=VERTEX_POINT('',#457);
#156=CIRCLE('',#326,9.3155);
#157=CIRCLE('',#327,9.3155);
#158=CIRCLE('',#329,9.3155);
#159=CIRCLE('',#330,9.3155);
#160=CIRCLE('',#338,9.3155);
#161=CIRCLE('',#340,9.3155);
#162=EDGE_LOOP('',(#66));
#163=EDGE_LOOP('',(#67));
#164=EDGE_LOOP('',(#68));
#165=EDGE_LOOP('',(#69));
#166=EDGE_LOOP('',(#70,#71,#72,#73));
#167=EDGE_LOOP('',(#74,#75,#76,#77));
#168=EDGE_LOOP('',(#78,#79,#80,#81));
#169=EDGE_LOOP('',(#82,#83,#84,#85));
#170=EDGE_LOOP('',(#86,#87,#88,#89));
#171=EDGE_LOOP('',(#90,#91,#92,#93));
#172=EDGE_LOOP('',(#94));
#173=EDGE_LOOP('',(#95,#96,#97,#98,#99,#100));
#174=EDGE_LOOP('',(#101));
#175=EDGE_LOOP('',(#102,#103,#104,#105,#106,#107));
#176=EDGE_LOOP('',(#108));
#177=EDGE_LOOP('',(#109));
#178=EDGE_LOOP('',(#110));
#179=EDGE_LOOP('',(#111));
#180=EDGE_LOOP('',(#112));
#181=EDGE_LOOP('',(#113));
#182=FACE_BOUND('',#162,.T.);
#183=FACE_BOUND('',#163,.T.);
#184=FACE_BOUND('',#164,.T.);
#185=FACE_BOUND('',#165,.T.);
#186=FACE_BOUND('',#166,.T.);
#187=FACE_BOUND('',#167,.T.);
#188=FACE_BOUND('',#168,.T.);
#189=FACE_BOUND('',#169,.T.);
#190=FACE_BOUND('',#170,.T.);
#191=FACE_BOUND('',#171,.T.);
#192=FACE_BOUND('',#172,.T.);
#193=FACE_BOUND('',#173,.T.);
#194=FACE_BOUND('',#174,.T.);
#195=FACE_BOUND('',#175,.T.);
#196=FACE_BOUND('',#176,.T.);
#197=FACE_BOUND('',#177,.T.);
#198=FACE_BOUND('',#178,.T.);
#199=FACE_BOUND('',#179,.T.);
#200=FACE_BOUND('',#180,.T.);
#201=FACE_BOUND('',#181,.T.);
#202=CYLINDRICAL_SURFACE('',#325,9.3155);
#203=CYLINDRICAL_SURFACE('',#328,9.3155);
#204=CYLINDRICAL_SURFACE('',#342,9.3155);
#205=CYLINDRICAL_SURFACE('',#344,9.3155);
#206=STYLED_ITEM('',(#220),#306);
#207=STYLED_ITEM('',(#221),#307);
#208=STYLED_ITEM('',(#222),#308);
#209=STYLED_ITEM('',(#223),#309);
#210=STYLED_ITEM('',(#224),#310);
#211=STYLED_ITEM('',(#225),#311);
#212=STYLED_ITEM('',(#226),#312);
#213=STYLED_ITEM('',(#227),#313);
#214=STYLED_ITEM('',(#228),#314);
#215=STYLED_ITEM('',(#229),#315);
#216=STYLED_ITEM('',(#230),#316);
#217=STYLED_ITEM('',(#231),#317);
#218=STYLED_ITEM('',(#232),#318);
#219=STYLED_ITEM('',(#233),#319);
#220=PRESENTATION_STYLE_ASSIGNMENT((#234));
#221=PRESENTATION_STYLE_ASSIGNMENT((#235));
#222=PRESENTATION_STYLE_ASSIGNMENT((#236));
#223=PRESENTATION_STYLE_ASSIGNMENT((#237));
#224=PRESENTATION_STYLE_ASSIGNMENT((#238));
#225=PRESENTATION_STYLE_ASSIGNMENT((#239));
#226=PRESENTATION_STYLE_ASSIGNMENT((#240));
#227=PRESENTATION_STYLE_ASSIGNMENT((#241));
#228=PRESENTATION_STYLE_ASSIGNMENT((#242));
#229=PRESENTATION_STYLE_ASSIGNMENT((#243));
#230=PRESENTATION_STYLE_ASSIGNMENT((#244));
#231=PRESENTATION_STYLE_ASSIGNMENT((#245));
#232=PRESENTATION_STYLE_ASSIGNMENT((#246));
#233=PRESENTATION_STYLE_ASSIGNMENT((#247));
#234=SURFACE_STYLE_USAGE(.BOTH.,#248);
#235=SURFACE_STYLE_USAGE(.BOTH.,#249);
#236=SURFACE_STYLE_USAGE(.BOTH.,#250);
#237=SURFACE_STYLE_USAGE(.BOTH.,#251);
#238=SURFACE_STYLE_USAGE(.BOTH.,#252);
#239=SURFACE_STYLE_USAGE(.BOTH.,#253);
#240=SURFACE_STYLE_USAGE(.BOTH.,#254);
#241=SURFACE_STYLE_USAGE(.BOTH.,#255);
#242=SURFACE_STYLE_USAGE(.BOTH.,#256);
#243=SURFACE_STYLE_USAGE(.BOTH.,#257);
#244=SURFACE_STYLE_USAGE(.BOTH.,#258);
#245=SURFACE_STYLE_USAGE(.BOTH.,#259);
#246=SURFACE_STYLE_USAGE(.BOTH.,#260);
#247=SURFACE_STYLE_USAGE(.BOTH.,#261);
#248=SURFACE_SIDE_STYLE('',(#262));
#249=SURFACE_SIDE_STYLE('',(#263));
#250=SURFACE_SIDE_STYLE('',(#264));
#251=SURFACE_SIDE_STYLE('',(#265));
#252=SURFACE_SIDE_STYLE('',(#266));
#253=SURFACE_SIDE_STYLE('',(#267));
#254=SURFACE_SIDE_STYLE('',(#268));
#255=SURFACE_SIDE_STYLE('',(#269));
#256=SURFACE_SIDE_STYLE('',(#270));
#257=SURFACE_SIDE_STYLE('',(#271));
#258=SURFACE_SIDE_STYLE('',(#272));
#259=SURFACE_SIDE_STYLE('',(#273));
#260=SURFACE_SIDE_STYLE('',(#274));
#261=SURFACE_SIDE_STYLE('',(#275));
#262=SURFACE_STYLE_FILL_AREA(#276);
#263=SURFACE_STYLE_FILL_AREA(#277);
#264=SURFACE_STYLE_FILL_AREA(#278);
#265=SURFACE_STYLE_FILL_AREA(#279);
#266=SURFACE_STYLE_FILL_AREA(#280);
#267=SURFACE_STYLE_FILL_AREA(#281);
#268=SURFACE_STYLE_FILL_AREA(#282);
#269=SURFACE_STYLE_FILL_AREA(#283);
#270=SURFACE_STYLE_FILL_AREA(#284);
#271=SURFACE_STYLE_FILL_AREA(#285);
#272=SURFACE_STYLE_FILL_AREA(#286);
#273=SURFACE_STYLE_FILL_AREA(#287);
#274=SURFACE_STYLE_FILL_AREA(#288);
#275=SURFACE_STYLE_FILL_AREA(#289);
#276=FILL_AREA_STYLE('',(#290));
#277=FILL_AREA_STYLE('',(#291));
#278=FILL_AREA_STYLE('',(#292));
#279=FILL_AREA_STYLE('',(#293));
#280=FILL_AREA_STYLE('',(#294));
#281=FILL_AREA_STYLE('',(#295));
#282=FILL_AREA_STYLE('',(#296));
#283=FILL_AREA_STYLE('',(#297));
#284=FILL_AREA_STYLE('',(#298));
#285=FILL_AREA_STYLE('',(#299));
#286=FILL_AREA_STYLE('',(#300));
#287=FILL_AREA_STYLE('',(#301));
#288=FILL_AREA_STYLE('',(#302));
#289=FILL_AREA_STYLE('',(#303));
#290=FILL_AREA_STYLE_COLOUR('',#304);
#291=FILL_AREA_STYLE_COLOUR('',#304);
#292=FILL_AREA_STYLE_COLOUR('',#304);
#293=FILL_AREA_STYLE_COLOUR('',#304);
#294=FILL_AREA_STYLE_COLOUR('',#304);
#295=FILL_AREA_STYLE_COLOUR('',#304);
#296=FILL_AREA_STYLE_COLOUR('',#304);
#297=FILL_AREA_STYLE_COLOUR('',#304);
#298=FILL_AREA_STYLE_COLOUR('',#304);
#299=FILL_AREA_STYLE_COLOUR('',#304);
#300=FILL_AREA_STYLE_COLOUR('',#304);
#301=FILL_AREA_STYLE_COLOUR('',#305);
#302=FILL_AREA_STYLE_COLOUR('',#304);
#303=FILL_AREA_STYLE_COLOUR('',#305);
#304=COLOUR_RGB('',0.506983280181885,0.531564235687256,0.550000011920929);
#305=COLOUR_RGB('',0.1875,0.75,0.581249892711639);
#306=ADVANCED_FACE('',(#182,#183),#202,.F.);
#307=ADVANCED_FACE('',(#184,#185),#203,.F.);
#308=ADVANCED_FACE('',(#186),#56,.F.);
#309=ADVANCED_FACE('',(#187),#57,.F.);
#310=ADVANCED_FACE('',(#188),#58,.F.);
#311=ADVANCED_FACE('',(#189),#59,.F.);
#312=ADVANCED_FACE('',(#190),#60,.F.);
#313=ADVANCED_FACE('',(#191),#61,.F.);
#314=ADVANCED_FACE('',(#192,#193),#62,.T.);
#315=ADVANCED_FACE('',(#194,#195),#63,.F.);
#316=ADVANCED_FACE('',(#196),#64,.F.);
#317=ADVANCED_FACE('',(#197,#198),#204,.F.);
#318=ADVANCED_FACE('',(#199),#65,.F.);
#319=ADVANCED_FACE('',(#200,#201),#205,.F.);
#320=CLOSED_SHELL('',(#306,#307,#308,#309,#310,#311,#312,#313,#314,#315,
#316,#317,#318,#319));
#321=MANIFOLD_SOLID_BREP('',#320);
#322=SHAPE_DEFINITION_REPRESENTATION(#468,#323);
#323=SHAPE_REPRESENTATION('6.07.12',(#324),#463);
#324=AXIS2_PLACEMENT_3D('',#405,#345,#346);
#325=AXIS2_PLACEMENT_3D('',#406,#347,#348);
#326=AXIS2_PLACEMENT_3D('',#407,#349,#350);
#327=AXIS2_PLACEMENT_3D('',#409,#351,#352);
#328=AXIS2_PLACEMENT_3D('',#411,#353,#354);
#329=AXIS2_PLACEMENT_3D('',#412,#355,#356);
#330=AXIS2_PLACEMENT_3D('',#414,#357,#358);
#331=AXIS2_PLACEMENT_3D('',#416,#359,#360);
#332=AXIS2_PLACEMENT_3D('',#425,#365,#366);
#333=AXIS2_PLACEMENT_3D('',#431,#370,#371);
#334=AXIS2_PLACEMENT_3D('',#437,#375,#376);
#335=AXIS2_PLACEMENT_3D('',#443,#380,#381);
#336=AXIS2_PLACEMENT_3D('',#449,#385,#386);
#337=AXIS2_PLACEMENT_3D('',#452,#389,#390);
#338=AXIS2_PLACEMENT_3D('',#453,#391,#392);
#339=AXIS2_PLACEMENT_3D('',#455,#393,#394);
#340=AXIS2_PLACEMENT_3D('',#456,#395,#396);
#341=AXIS2_PLACEMENT_3D('',#458,#397,#398);
#342=AXIS2_PLACEMENT_3D('',#459,#399,#400);
#343=AXIS2_PLACEMENT_3D('',#460,#401,#402);
#344=AXIS2_PLACEMENT_3D('',#461,#403,#404);
#345=DIRECTION('',(0.,0.,1.));
#346=DIRECTION('',(1.,0.,0.));
#347=DIRECTION('',(0.,-1.,0.));
#348=DIRECTION('',(0.,0.,1.));
#349=DIRECTION('',(0.,1.,0.));
#350=DIRECTION('',(0.,0.,1.));
#351=DIRECTION('',(0.,1.,0.));
#352=DIRECTION('',(0.,0.,1.));
#353=DIRECTION('',(0.,1.,0.));
#354=DIRECTION('',(0.,0.,-1.));
#355=DIRECTION('',(0.,-1.,0.));
#356=DIRECTION('',(0.,0.,-1.));
#357=DIRECTION('',(0.,-1.,0.));
#358=DIRECTION('',(0.,0.,-1.));
#359=DIRECTION('',(1.,0.,-1.56240718268665E-15));
#360=DIRECTION('',(-1.56240718268665E-15,0.,-1.));
#361=DIRECTION('',(1.56240718268665E-15,0.,1.));
#362=DIRECTION('',(0.,-1.,0.));
#363=DIRECTION('',(1.56240718268665E-15,0.,1.));
#364=DIRECTION('',(0.,-1.,0.));
#365=DIRECTION('',(0.499999999999998,0.,-0.86602540378444));
#366=DIRECTION('',(-0.86602540378444,0.,-0.499999999999998));
#367=DIRECTION('',(0.86602540378444,0.,0.499999999999998));
#368=DIRECTION('',(0.,-1.,0.));
#369=DIRECTION('',(0.86602540378444,0.,0.499999999999998));
#370=DIRECTION('',(-0.500000000000002,0.,-0.866025403784437));
#371=DIRECTION('',(-0.866025403784437,0.,0.500000000000002));
#372=DIRECTION('',(0.866025403784437,0.,-0.500000000000002));
#373=DIRECTION('',(0.,-1.,0.));
#374=DIRECTION('',(0.866025403784437,0.,-0.500000000000002));
#375=DIRECTION('',(-1.,0.,3.24499953327226E-15));
#376=DIRECTION('',(3.24499953327226E-15,0.,1.));
#377=DIRECTION('',(-3.24499953327226E-15,0.,-1.));
#378=DIRECTION('',(0.,-1.,0.));
#379=DIRECTION('',(-3.24499953327226E-15,0.,-1.));
#380=DIRECTION('',(-0.499999999999998,0.,0.86602540378444));
#381=DIRECTION('',(0.86602540378444,0.,0.499999999999998));
#382=DIRECTION('',(-0.86602540378444,0.,-0.499999999999998));
#383=DIRECTION('',(0.,-1.,0.));
#384=DIRECTION('',(-0.86602540378444,0.,-0.499999999999998));
#385=DIRECTION('',(0.500000000000001,0.,0.866025403784438));
#386=DIRECTION('',(0.866025403784438,0.,-0.500000000000001));
#387=DIRECTION('',(-0.866025403784438,0.,0.500000000000001));
#388=DIRECTION('',(-0.866025403784438,0.,0.500000000000001));
#389=DIRECTION('',(0.,1.,0.));
#390=DIRECTION('',(0.,0.,1.));
#391=DIRECTION('',(0.,-1.,0.));
#392=DIRECTION('',(0.,0.,1.));
#393=DIRECTION('',(0.,1.,0.));
#394=DIRECTION('',(0.,0.,1.));
#395=DIRECTION('',(0.,1.,0.));
#396=DIRECTION('',(0.,0.,-1.));
#397=DIRECTION('',(0.,1.,0.));
#398=DIRECTION('',(0.,0.,1.));
#399=DIRECTION('',(0.,1.,0.));
#400=DIRECTION('',(0.,0.,-1.));
#401=DIRECTION('',(0.,-1.,0.));
#402=DIRECTION('',(0.,0.,-1.));
#403=DIRECTION('',(0.,-1.,0.));
#404=DIRECTION('',(0.,0.,1.));
#405=CARTESIAN_POINT('',(0.,0.,0.));
#406=CARTESIAN_POINT('',(0.,60.,0.));
#407=CARTESIAN_POINT('',(0.,42.8,0.));
#408=CARTESIAN_POINT('',(0.,42.8,9.3155));
#409=CARTESIAN_POINT('',(0.,58.,0.));
#410=CARTESIAN_POINT('',(0.,58.,9.3155));
#411=CARTESIAN_POINT('',(0.,0.,0.));
#412=CARTESIAN_POINT('',(0.,17.2,0.));
#413=CARTESIAN_POINT('',(0.,17.2,-9.3155));
#414=CARTESIAN_POINT('',(0.,2.,0.));
#415=CARTESIAN_POINT('',(0.,2.,-9.3155));
#416=CARTESIAN_POINT('',(-12.5,60.,-7.21687836487031));
#417=CARTESIAN_POINT('',(-12.5,0.,-7.21687836487031));
#418=CARTESIAN_POINT('',(-12.5,0.,-7.21687836487031));
#419=CARTESIAN_POINT('',(-12.5,0.,7.21687836487033));
#420=CARTESIAN_POINT('',(-12.5,60.,7.21687836487033));
#421=CARTESIAN_POINT('',(-12.5,60.,7.21687836487033));
#422=CARTESIAN_POINT('',(-12.5,60.,-7.21687836487031));
#423=CARTESIAN_POINT('',(-12.5,60.,-7.21687836487031));
#424=CARTESIAN_POINT('',(-12.5,60.,-7.21687836487031));
#425=CARTESIAN_POINT('',(-12.5,60.,7.21687836487033));
#426=CARTESIAN_POINT('',(-12.5,0.,7.21687836487033));
#427=CARTESIAN_POINT('',(4.16333634234434E-14,0.,14.4337567297406));
#428=CARTESIAN_POINT('',(4.16333634234434E-14,60.,14.4337567297406));
#429=CARTESIAN_POINT('',(4.16333634234434E-14,60.,14.4337567297406));
#430=CARTESIAN_POINT('',(-12.5,60.,7.21687836487033));
#431=CARTESIAN_POINT('',(4.16333634234434E-14,60.,14.4337567297406));
#432=CARTESIAN_POINT('',(4.16333634234434E-14,0.,14.4337567297406));
#433=CARTESIAN_POINT('',(12.5,0.,7.21687836487027));
#434=CARTESIAN_POINT('',(12.5,60.,7.21687836487027));
#435=CARTESIAN_POINT('',(12.5,60.,7.21687836487027));
#436=CARTESIAN_POINT('',(4.16333634234434E-14,60.,14.4337567297406));
#437=CARTESIAN_POINT('',(12.5,60.,7.21687836487027));
#438=CARTESIAN_POINT('',(12.5,0.,7.21687836487027));
#439=CARTESIAN_POINT('',(12.5,0.,-7.21687836487037));
#440=CARTESIAN_POINT('',(12.5,60.,-7.21687836487037));
#441=CARTESIAN_POINT('',(12.5,60.,-7.21687836487037));
#442=CARTESIAN_POINT('',(12.5,60.,7.21687836487027));
#443=CARTESIAN_POINT('',(12.5,60.,-7.21687836487037));
#444=CARTESIAN_POINT('',(12.5,0.,-7.21687836487037));
#445=CARTESIAN_POINT('',(0.,0.,-14.4337567297406));
#446=CARTESIAN_POINT('',(0.,60.,-14.4337567297406));
#447=CARTESIAN_POINT('',(0.,60.,-14.4337567297406));
#448=CARTESIAN_POINT('',(12.5,60.,-7.21687836487037));
#449=CARTESIAN_POINT('',(0.,60.,-14.4337567297406));
#450=CARTESIAN_POINT('',(0.,0.,-14.4337567297406));
#451=CARTESIAN_POINT('',(0.,60.,-14.4337567297406));
#452=CARTESIAN_POINT('',(0.,60.,0.));
#453=CARTESIAN_POINT('',(0.,60.,0.));
#454=CARTESIAN_POINT('',(0.,60.,9.3155));
#455=CARTESIAN_POINT('',(0.,0.,0.));
#456=CARTESIAN_POINT('',(0.,0.,0.));
#457=CARTESIAN_POINT('',(0.,0.,-9.3155));
#458=CARTESIAN_POINT('',(0.,17.2,0.));
#459=CARTESIAN_POINT('',(0.,0.,0.));
#460=CARTESIAN_POINT('',(0.,42.8,0.));
#461=CARTESIAN_POINT('',(0.,60.,0.));
#462=MECHANICAL_DESIGN_GEOMETRIC_PRESENTATION_REPRESENTATION('',(#206,#207,
#208,#209,#210,#211,#212,#213,#214,#215,#216,#217,#218,#219),#463);
#463=(
GEOMETRIC_REPRESENTATION_CONTEXT(3)
GLOBAL_UNCERTAINTY_ASSIGNED_CONTEXT((#464))
GLOBAL_UNIT_ASSIGNED_CONTEXT((#467,#466,#465))
REPRESENTATION_CONTEXT('6.07.12','TOP_LEVEL_ASSEMBLY_PART')
);
#464=UNCERTAINTY_MEASURE_WITH_UNIT(LENGTH_MEASURE(0.005),#467,
'DISTANCE_ACCURACY_VALUE','Maximum Tolerance applied to model');
#465=(
NAMED_UNIT(*)
SI_UNIT($,.STERADIAN.)
SOLID_ANGLE_UNIT()
);
#466=(
NAMED_UNIT(*)
PLANE_ANGLE_UNIT()
SI_UNIT($,.RADIAN.)
);
#467=(
LENGTH_UNIT()
NAMED_UNIT(*)
SI_UNIT(.MILLI.,.METRE.)
);
#468=PRODUCT_DEFINITION_SHAPE('','',#469);
#469=PRODUCT_DEFINITION('','',#471,#470);
#470=PRODUCT_DEFINITION_CONTEXT('',#477,'design');
#471=PRODUCT_DEFINITION_FORMATION_WITH_SPECIFIED_SOURCE('','',#473,
 .NOT_KNOWN.);
#472=PRODUCT_RELATED_PRODUCT_CATEGORY('','',(#473));
#473=PRODUCT('6.07.12','6.07.12','6.07.12',(#475));
#474=PRODUCT_CATEGORY('','');
#475=PRODUCT_CONTEXT('',#477,'mechanical');
#476=APPLICATION_PROTOCOL_DEFINITION('international standard',
'automotive_design',2010,#477);
#477=APPLICATION_CONTEXT(
'core data for automotive mechanical design processes');
ENDSEC;
END-ISO-10303-21;
