ISO-10303-21;
HEADER;
/* Generated by software containing ST-Developer
 * from STEP Tools, Inc. (www.steptools.com) 
 */
/* OPTION: strings as raw bytes, not using required /X/ escapes */

FILE_DESCRIPTION(
/* description */ ('Unknown'),
/* implementation_level */ '2;1');

FILE_NAME(
/* name */ '6.08.12;8',
/* time_stamp */ '2019-09-19T08:39:38-04:00',
/* author */ ('Unknown'),
/* organization */ ('Unknown'),
/* preprocessor_version */ 'ST-DEVELOPER v16.7',
/* originating_system */ 'DEX',
/* authorisation */ $);

FILE_SCHEMA (('AUTOMOTIVE_DESIGN {1 0 10303 214 3 1 1}'));
ENDSEC;

DATA;
#10=PROPERTY_DEFINITION_REPRESENTATION(#14,#12);
#11=PROPERTY_DEFINITION_REPRESENTATION(#15,#13);
#12=REPRESENTATION('',(#16),#715);
#13=REPRESENTATION('',(#17),#715);
#14=PROPERTY_DEFINITION('pmi validation property','',#720);
#15=PROPERTY_DEFINITION('pmi validation property','',#720);
#16=VALUE_REPRESENTATION_ITEM('number of annotations',COUNT_MEASURE(0.));
#17=VALUE_REPRESENTATION_ITEM('number of views',COUNT_MEASURE(0.));
#18=SHAPE_REPRESENTATION_RELATIONSHIP('','',#423,#19);
#19=ADVANCED_BREP_SHAPE_REPRESENTATION('',(#421),#715);
#20=LINE('',#648,#32);
#21=LINE('',#651,#33);
#22=LINE('',#653,#34);
#23=LINE('',#655,#35);
#24=LINE('',#659,#36);
#25=LINE('',#661,#37);
#26=LINE('',#663,#38);
#27=LINE('',#673,#39);
#28=LINE('',#675,#40);
#29=LINE('',#677,#41);
#30=LINE('',#679,#42);
#31=LINE('',#680,#43);
#32=VECTOR('',#532,1000.);
#33=VECTOR('',#533,1000.);
#34=VECTOR('',#534,1000.);
#35=VECTOR('',#535,1000.);
#36=VECTOR('',#540,1000.);
#37=VECTOR('',#541,1000.);
#38=VECTOR('',#542,1000.);
#39=VECTOR('',#553,1000.);
#40=VECTOR('',#554,1000.);
#41=VECTOR('',#555,1000.);
#42=VECTOR('',#558,1000.);
#43=VECTOR('',#559,1000.);
#44=PLANE('',#444);
#45=PLANE('',#449);
#46=PLANE('',#451);
#47=PLANE('',#456);
#48=PLANE('',#457);
#49=PLANE('',#462);
#50=CIRCLE('',#443,9.5);
#51=CIRCLE('',#445,9.5);
#52=CIRCLE('',#446,9.5);
#53=CIRCLE('',#447,9.5);
#54=CIRCLE('',#448,9.5);
#55=CIRCLE('',#450,9.5);
#56=CIRCLE('',#452,9.5);
#57=CIRCLE('',#453,9.5);
#58=CIRCLE('',#454,9.5);
#59=CIRCLE('',#455,9.5);
#60=CIRCLE('',#458,2.75);
#61=CIRCLE('',#459,2.75);
#62=CIRCLE('',#460,2.75);
#63=CIRCLE('',#461,2.75);
#64=CIRCLE('',#463,2.75);
#65=CIRCLE('',#464,2.75);
#66=CIRCLE('',#465,2.75);
#67=CIRCLE('',#466,2.75);
#68=ORIENTED_EDGE('',*,*,#160,.F.);
#69=ORIENTED_EDGE('',*,*,#161,.F.);
#70=ORIENTED_EDGE('',*,*,#162,.F.);
#71=ORIENTED_EDGE('',*,*,#163,.F.);
#72=ORIENTED_EDGE('',*,*,#164,.F.);
#73=ORIENTED_EDGE('',*,*,#165,.F.);
#74=ORIENTED_EDGE('',*,*,#166,.F.);
#75=ORIENTED_EDGE('',*,*,#167,.F.);
#76=ORIENTED_EDGE('',*,*,#168,.F.);
#77=ORIENTED_EDGE('',*,*,#169,.F.);
#78=ORIENTED_EDGE('',*,*,#170,.F.);
#79=ORIENTED_EDGE('',*,*,#171,.F.);
#80=ORIENTED_EDGE('',*,*,#172,.F.);
#81=ORIENTED_EDGE('',*,*,#173,.F.);
#82=ORIENTED_EDGE('',*,*,#174,.T.);
#83=ORIENTED_EDGE('',*,*,#175,.T.);
#84=ORIENTED_EDGE('',*,*,#176,.T.);
#85=ORIENTED_EDGE('',*,*,#177,.T.);
#86=ORIENTED_EDGE('',*,*,#178,.T.);
#87=ORIENTED_EDGE('',*,*,#179,.F.);
#88=ORIENTED_EDGE('',*,*,#180,.F.);
#89=ORIENTED_EDGE('',*,*,#181,.T.);
#90=ORIENTED_EDGE('',*,*,#182,.T.);
#91=ORIENTED_EDGE('',*,*,#183,.T.);
#92=ORIENTED_EDGE('',*,*,#184,.F.);
#93=ORIENTED_EDGE('',*,*,#182,.F.);
#94=ORIENTED_EDGE('',*,*,#185,.T.);
#95=ORIENTED_EDGE('',*,*,#186,.T.);
#96=ORIENTED_EDGE('',*,*,#187,.F.);
#97=ORIENTED_EDGE('',*,*,#188,.F.);
#98=ORIENTED_EDGE('',*,*,#189,.F.);
#99=ORIENTED_EDGE('',*,*,#190,.F.);
#100=ORIENTED_EDGE('',*,*,#191,.F.);
#101=ORIENTED_EDGE('',*,*,#186,.F.);
#102=ORIENTED_EDGE('',*,*,#192,.T.);
#103=ORIENTED_EDGE('',*,*,#193,.T.);
#104=ORIENTED_EDGE('',*,*,#174,.F.);
#105=ORIENTED_EDGE('',*,*,#194,.F.);
#106=ORIENTED_EDGE('',*,*,#193,.F.);
#107=ORIENTED_EDGE('',*,*,#195,.T.);
#108=ORIENTED_EDGE('',*,*,#180,.T.);
#109=ORIENTED_EDGE('',*,*,#196,.T.);
#110=ORIENTED_EDGE('',*,*,#197,.T.);
#111=ORIENTED_EDGE('',*,*,#198,.T.);
#112=ORIENTED_EDGE('',*,*,#199,.T.);
#113=ORIENTED_EDGE('',*,*,#181,.F.);
#114=ORIENTED_EDGE('',*,*,#195,.F.);
#115=ORIENTED_EDGE('',*,*,#192,.F.);
#116=ORIENTED_EDGE('',*,*,#185,.F.);
#117=ORIENTED_EDGE('',*,*,#200,.T.);
#118=ORIENTED_EDGE('',*,*,#201,.T.);
#119=ORIENTED_EDGE('',*,*,#202,.T.);
#120=ORIENTED_EDGE('',*,*,#203,.T.);
#121=ORIENTED_EDGE('',*,*,#179,.T.);
#122=ORIENTED_EDGE('',*,*,#184,.T.);
#123=ORIENTED_EDGE('',*,*,#191,.T.);
#124=ORIENTED_EDGE('',*,*,#194,.T.);
#125=ORIENTED_EDGE('',*,*,#204,.F.);
#126=ORIENTED_EDGE('',*,*,#205,.F.);
#127=ORIENTED_EDGE('',*,*,#183,.F.);
#128=ORIENTED_EDGE('',*,*,#203,.F.);
#129=ORIENTED_EDGE('',*,*,#199,.F.);
#130=ORIENTED_EDGE('',*,*,#202,.F.);
#131=ORIENTED_EDGE('',*,*,#198,.F.);
#132=ORIENTED_EDGE('',*,*,#201,.F.);
#133=ORIENTED_EDGE('',*,*,#197,.F.);
#134=ORIENTED_EDGE('',*,*,#200,.F.);
#135=ORIENTED_EDGE('',*,*,#196,.F.);
#136=ORIENTED_EDGE('',*,*,#170,.T.);
#137=ORIENTED_EDGE('',*,*,#173,.T.);
#138=ORIENTED_EDGE('',*,*,#178,.F.);
#139=ORIENTED_EDGE('',*,*,#190,.T.);
#140=ORIENTED_EDGE('',*,*,#172,.T.);
#141=ORIENTED_EDGE('',*,*,#171,.T.);
#142=ORIENTED_EDGE('',*,*,#166,.T.);
#143=ORIENTED_EDGE('',*,*,#169,.T.);
#144=ORIENTED_EDGE('',*,*,#177,.F.);
#145=ORIENTED_EDGE('',*,*,#189,.T.);
#146=ORIENTED_EDGE('',*,*,#168,.T.);
#147=ORIENTED_EDGE('',*,*,#167,.T.);
#148=ORIENTED_EDGE('',*,*,#162,.T.);
#149=ORIENTED_EDGE('',*,*,#165,.T.);
#150=ORIENTED_EDGE('',*,*,#176,.F.);
#151=ORIENTED_EDGE('',*,*,#188,.T.);
#152=ORIENTED_EDGE('',*,*,#164,.T.);
#153=ORIENTED_EDGE('',*,*,#163,.T.);
#154=ORIENTED_EDGE('',*,*,#204,.T.);
#155=ORIENTED_EDGE('',*,*,#161,.T.);
#156=ORIENTED_EDGE('',*,*,#175,.F.);
#157=ORIENTED_EDGE('',*,*,#187,.T.);
#158=ORIENTED_EDGE('',*,*,#160,.T.);
#159=ORIENTED_EDGE('',*,*,#205,.T.);
#160=EDGE_CURVE('',#206,#207,#240,.F.);
#161=EDGE_CURVE('',#207,#206,#241,.F.);
#162=EDGE_CURVE('',#208,#209,#242,.T.);
#163=EDGE_CURVE('',#209,#208,#243,.T.);
#164=EDGE_CURVE('',#208,#209,#244,.F.);
#165=EDGE_CURVE('',#209,#208,#245,.F.);
#166=EDGE_CURVE('',#210,#211,#246,.T.);
#167=EDGE_CURVE('',#211,#210,#247,.T.);
#168=EDGE_CURVE('',#210,#211,#248,.F.);
#169=EDGE_CURVE('',#211,#210,#249,.F.);
#170=EDGE_CURVE('',#212,#213,#250,.T.);
#171=EDGE_CURVE('',#213,#212,#251,.T.);
#172=EDGE_CURVE('',#212,#213,#252,.F.);
#173=EDGE_CURVE('',#213,#212,#253,.F.);
#174=EDGE_CURVE('',#214,#214,#50,.T.);
#175=EDGE_CURVE('',#215,#215,#51,.T.);
#176=EDGE_CURVE('',#216,#216,#52,.T.);
#177=EDGE_CURVE('',#217,#217,#53,.T.);
#178=EDGE_CURVE('',#218,#218,#54,.T.);
#179=EDGE_CURVE('',#219,#220,#20,.T.);
#180=EDGE_CURVE('',#221,#219,#21,.T.);
#181=EDGE_CURVE('',#221,#222,#22,.T.);
#182=EDGE_CURVE('',#222,#220,#23,.T.);
#183=EDGE_CURVE('',#223,#223,#55,.T.);
#184=EDGE_CURVE('',#220,#224,#24,.T.);
#185=EDGE_CURVE('',#222,#225,#25,.T.);
#186=EDGE_CURVE('',#225,#224,#26,.T.);
#187=EDGE_CURVE('',#226,#226,#56,.T.);
#188=EDGE_CURVE('',#227,#227,#57,.T.);
#189=EDGE_CURVE('',#228,#228,#58,.T.);
#190=EDGE_CURVE('',#229,#229,#59,.T.);
#191=EDGE_CURVE('',#224,#230,#27,.T.);
#192=EDGE_CURVE('',#225,#231,#28,.T.);
#193=EDGE_CURVE('',#231,#230,#29,.T.);
#194=EDGE_CURVE('',#230,#219,#30,.T.);
#195=EDGE_CURVE('',#231,#221,#31,.T.);
#196=EDGE_CURVE('',#232,#232,#60,.T.);
#197=EDGE_CURVE('',#233,#233,#61,.T.);
#198=EDGE_CURVE('',#234,#234,#62,.T.);
#199=EDGE_CURVE('',#235,#235,#63,.T.);
#200=EDGE_CURVE('',#236,#236,#64,.T.);
#201=EDGE_CURVE('',#237,#237,#65,.T.);
#202=EDGE_CURVE('',#238,#238,#66,.T.);
#203=EDGE_CURVE('',#239,#239,#67,.T.);
#204=EDGE_CURVE('',#206,#207,#254,.T.);
#205=EDGE_CURVE('',#207,#206,#255,.T.);
#206=VERTEX_POINT('',#613);
#207=VERTEX_POINT('',#614);
#208=VERTEX_POINT('',#617);
#209=VERTEX_POINT('',#618);
#210=VERTEX_POINT('',#624);
#211=VERTEX_POINT('',#625);
#212=VERTEX_POINT('',#631);
#213=VERTEX_POINT('',#632);
#214=VERTEX_POINT('',#638);
#215=VERTEX_POINT('',#641);
#216=VERTEX_POINT('',#643);
#217=VERTEX_POINT('',#645);
#218=VERTEX_POINT('',#647);
#219=VERTEX_POINT('',#649);
#220=VERTEX_POINT('',#650);
#221=VERTEX_POINT('',#652);
#222=VERTEX_POINT('',#654);
#223=VERTEX_POINT('',#658);
#224=VERTEX_POINT('',#660);
#225=VERTEX_POINT('',#662);
#226=VERTEX_POINT('',#666);
#227=VERTEX_POINT('',#668);
#228=VERTEX_POINT('',#670);
#229=VERTEX_POINT('',#672);
#230=VERTEX_POINT('',#674);
#231=VERTEX_POINT('',#676);
#232=VERTEX_POINT('',#683);
#233=VERTEX_POINT('',#685);
#234=VERTEX_POINT('',#687);
#235=VERTEX_POINT('',#689);
#236=VERTEX_POINT('',#692);
#237=VERTEX_POINT('',#694);
#238=VERTEX_POINT('',#696);
#239=VERTEX_POINT('',#698);
#240=ELLIPSE('',#426,13.4350288425444,9.5);
#241=ELLIPSE('',#427,13.4350288425444,9.5);
#242=ELLIPSE('',#428,13.4350288425444,9.5);
#243=ELLIPSE('',#429,13.4350288425444,9.5);
#244=ELLIPSE('',#431,13.4350288425444,9.5);
#245=ELLIPSE('',#432,13.4350288425444,9.5);
#246=ELLIPSE('',#433,13.4350288425444,9.5);
#247=ELLIPSE('',#434,13.4350288425444,9.5);
#248=ELLIPSE('',#436,13.4350288425444,9.5);
#249=ELLIPSE('',#437,13.4350288425444,9.5);
#250=ELLIPSE('',#438,13.4350288425444,9.5);
#251=ELLIPSE('',#439,13.4350288425444,9.5);
#252=ELLIPSE('',#441,13.4350288425444,9.5);
#253=ELLIPSE('',#442,13.4350288425444,9.5);
#254=ELLIPSE('',#468,13.4350288425444,9.5);
#255=ELLIPSE('',#469,13.4350288425444,9.5);
#256=EDGE_LOOP('',(#68,#69));
#257=EDGE_LOOP('',(#70,#71));
#258=EDGE_LOOP('',(#72,#73));
#259=EDGE_LOOP('',(#74,#75));
#260=EDGE_LOOP('',(#76,#77));
#261=EDGE_LOOP('',(#78,#79));
#262=EDGE_LOOP('',(#80,#81));
#263=EDGE_LOOP('',(#82));
#264=EDGE_LOOP('',(#83));
#265=EDGE_LOOP('',(#84));
#266=EDGE_LOOP('',(#85));
#267=EDGE_LOOP('',(#86));
#268=EDGE_LOOP('',(#87,#88,#89,#90));
#269=EDGE_LOOP('',(#91));
#270=EDGE_LOOP('',(#92,#93,#94,#95));
#271=EDGE_LOOP('',(#96));
#272=EDGE_LOOP('',(#97));
#273=EDGE_LOOP('',(#98));
#274=EDGE_LOOP('',(#99));
#275=EDGE_LOOP('',(#100,#101,#102,#103));
#276=EDGE_LOOP('',(#104));
#277=EDGE_LOOP('',(#105,#106,#107,#108));
#278=EDGE_LOOP('',(#109));
#279=EDGE_LOOP('',(#110));
#280=EDGE_LOOP('',(#111));
#281=EDGE_LOOP('',(#112));
#282=EDGE_LOOP('',(#113,#114,#115,#116));
#283=EDGE_LOOP('',(#117));
#284=EDGE_LOOP('',(#118));
#285=EDGE_LOOP('',(#119));
#286=EDGE_LOOP('',(#120));
#287=EDGE_LOOP('',(#121,#122,#123,#124));
#288=EDGE_LOOP('',(#125,#126));
#289=EDGE_LOOP('',(#127));
#290=EDGE_LOOP('',(#128));
#291=EDGE_LOOP('',(#129));
#292=EDGE_LOOP('',(#130));
#293=EDGE_LOOP('',(#131));
#294=EDGE_LOOP('',(#132));
#295=EDGE_LOOP('',(#133));
#296=EDGE_LOOP('',(#134));
#297=EDGE_LOOP('',(#135));
#298=EDGE_LOOP('',(#136,#137));
#299=EDGE_LOOP('',(#138));
#300=EDGE_LOOP('',(#139));
#301=EDGE_LOOP('',(#140,#141));
#302=EDGE_LOOP('',(#142,#143));
#303=EDGE_LOOP('',(#144));
#304=EDGE_LOOP('',(#145));
#305=EDGE_LOOP('',(#146,#147));
#306=EDGE_LOOP('',(#148,#149));
#307=EDGE_LOOP('',(#150));
#308=EDGE_LOOP('',(#151));
#309=EDGE_LOOP('',(#152,#153));
#310=EDGE_LOOP('',(#154,#155));
#311=EDGE_LOOP('',(#156));
#312=EDGE_LOOP('',(#157));
#313=EDGE_LOOP('',(#158,#159));
#314=FACE_BOUND('',#256,.T.);
#315=FACE_BOUND('',#257,.T.);
#316=FACE_BOUND('',#258,.T.);
#317=FACE_BOUND('',#259,.T.);
#318=FACE_BOUND('',#260,.T.);
#319=FACE_BOUND('',#261,.T.);
#320=FACE_BOUND('',#262,.T.);
#321=FACE_BOUND('',#263,.T.);
#322=FACE_BOUND('',#264,.T.);
#323=FACE_BOUND('',#265,.T.);
#324=FACE_BOUND('',#266,.T.);
#325=FACE_BOUND('',#267,.T.);
#326=FACE_BOUND('',#268,.T.);
#327=FACE_BOUND('',#269,.T.);
#328=FACE_BOUND('',#270,.T.);
#329=FACE_BOUND('',#271,.T.);
#330=FACE_BOUND('',#272,.T.);
#331=FACE_BOUND('',#273,.T.);
#332=FACE_BOUND('',#274,.T.);
#333=FACE_BOUND('',#275,.T.);
#334=FACE_BOUND('',#276,.T.);
#335=FACE_BOUND('',#277,.T.);
#336=FACE_BOUND('',#278,.T.);
#337=FACE_BOUND('',#279,.T.);
#338=FACE_BOUND('',#280,.T.);
#339=FACE_BOUND('',#281,.T.);
#340=FACE_BOUND('',#282,.T.);
#341=FACE_BOUND('',#283,.T.);
#342=FACE_BOUND('',#284,.T.);
#343=FACE_BOUND('',#285,.T.);
#344=FACE_BOUND('',#286,.T.);
#345=FACE_BOUND('',#287,.T.);
#346=FACE_BOUND('',#288,.T.);
#347=FACE_BOUND('',#289,.T.);
#348=FACE_BOUND('',#290,.T.);
#349=FACE_BOUND('',#291,.T.);
#350=FACE_BOUND('',#292,.T.);
#351=FACE_BOUND('',#293,.T.);
#352=FACE_BOUND('',#294,.T.);
#353=FACE_BOUND('',#295,.T.);
#354=FACE_BOUND('',#296,.T.);
#355=FACE_BOUND('',#297,.T.);
#356=FACE_BOUND('',#298,.T.);
#357=FACE_BOUND('',#299,.T.);
#358=FACE_BOUND('',#300,.T.);
#359=FACE_BOUND('',#301,.T.);
#360=FACE_BOUND('',#302,.T.);
#361=FACE_BOUND('',#303,.T.);
#362=FACE_BOUND('',#304,.T.);
#363=FACE_BOUND('',#305,.T.);
#364=FACE_BOUND('',#306,.T.);
#365=FACE_BOUND('',#307,.T.);
#366=FACE_BOUND('',#308,.T.);
#367=FACE_BOUND('',#309,.T.);
#368=FACE_BOUND('',#310,.T.);
#369=FACE_BOUND('',#311,.T.);
#370=FACE_BOUND('',#312,.T.);
#371=FACE_BOUND('',#313,.T.);
#372=CYLINDRICAL_SURFACE('',#425,9.5);
#373=CYLINDRICAL_SURFACE('',#430,9.5);
#374=CYLINDRICAL_SURFACE('',#435,9.5);
#375=CYLINDRICAL_SURFACE('',#440,9.5);
#376=CYLINDRICAL_SURFACE('',#467,9.5);
#377=CYLINDRICAL_SURFACE('',#470,2.75);
#378=CYLINDRICAL_SURFACE('',#471,2.75);
#379=CYLINDRICAL_SURFACE('',#472,2.75);
#380=CYLINDRICAL_SURFACE('',#473,2.75);
#381=CYLINDRICAL_SURFACE('',#474,9.5);
#382=CYLINDRICAL_SURFACE('',#475,9.5);
#383=CYLINDRICAL_SURFACE('',#476,9.5);
#384=CYLINDRICAL_SURFACE('',#477,9.5);
#385=CYLINDRICAL_SURFACE('',#478,9.5);
#386=CYLINDRICAL_SURFACE('',#479,9.5);
#387=CYLINDRICAL_SURFACE('',#480,9.5);
#388=CYLINDRICAL_SURFACE('',#481,9.5);
#389=ADVANCED_FACE('',(#314,#315),#372,.F.);
#390=ADVANCED_FACE('',(#316,#317),#373,.F.);
#391=ADVANCED_FACE('',(#318,#319),#374,.F.);
#392=ADVANCED_FACE('',(#320,#321),#375,.F.);
#393=ADVANCED_FACE('',(#322,#323,#324,#325,#326),#44,.T.);
#394=ADVANCED_FACE('',(#327,#328),#45,.T.);
#395=ADVANCED_FACE('',(#329,#330,#331,#332,#333),#46,.T.);
#396=ADVANCED_FACE('',(#334,#335),#47,.T.);
#397=ADVANCED_FACE('',(#336,#337,#338,#339,#340),#48,.F.);
#398=ADVANCED_FACE('',(#341,#342,#343,#344,#345),#49,.T.);
#399=ADVANCED_FACE('',(#346,#347),#376,.F.);
#400=ADVANCED_FACE('',(#348,#349),#377,.F.);
#401=ADVANCED_FACE('',(#350,#351),#378,.F.);
#402=ADVANCED_FACE('',(#352,#353),#379,.F.);
#403=ADVANCED_FACE('',(#354,#355),#380,.F.);
#404=ADVANCED_FACE('',(#356,#357),#381,.F.);
#405=ADVANCED_FACE('',(#358,#359),#382,.F.);
#406=ADVANCED_FACE('',(#360,#361),#383,.F.);
#407=ADVANCED_FACE('',(#362,#363),#384,.F.);
#408=ADVANCED_FACE('',(#364,#365),#385,.F.);
#409=ADVANCED_FACE('',(#366,#367),#386,.F.);
#410=ADVANCED_FACE('',(#368,#369),#387,.F.);
#411=ADVANCED_FACE('',(#370,#371),#388,.F.);
#412=CLOSED_SHELL('',(#389,#390,#391,#392,#393,#394,#395,#396,#397,#398,
#399,#400,#401,#402,#403,#404,#405,#406,#407,#408,#409,#410,#411));
#413=STYLED_ITEM('',(#414),#421);
#414=PRESENTATION_STYLE_ASSIGNMENT((#415));
#415=SURFACE_STYLE_USAGE(.BOTH.,#416);
#416=SURFACE_SIDE_STYLE('',(#417));
#417=SURFACE_STYLE_FILL_AREA(#418);
#418=FILL_AREA_STYLE('',(#419));
#419=FILL_AREA_STYLE_COLOUR('',#420);
#420=COLOUR_RGB('',0.506983280181885,0.531564235687256,0.550000011920929);
#421=MANIFOLD_SOLID_BREP('',#412);
#422=SHAPE_DEFINITION_REPRESENTATION(#720,#423);
#423=SHAPE_REPRESENTATION('6.08.12;8',(#424),#715);
#424=AXIS2_PLACEMENT_3D('',#610,#482,#483);
#425=AXIS2_PLACEMENT_3D('',#611,#484,#485);
#426=AXIS2_PLACEMENT_3D('',#612,#486,#487);
#427=AXIS2_PLACEMENT_3D('',#615,#488,#489);
#428=AXIS2_PLACEMENT_3D('',#616,#490,#491);
#429=AXIS2_PLACEMENT_3D('',#619,#492,#493);
#430=AXIS2_PLACEMENT_3D('',#620,#494,#495);
#431=AXIS2_PLACEMENT_3D('',#621,#496,#497);
#432=AXIS2_PLACEMENT_3D('',#622,#498,#499);
#433=AXIS2_PLACEMENT_3D('',#623,#500,#501);
#434=AXIS2_PLACEMENT_3D('',#626,#502,#503);
#435=AXIS2_PLACEMENT_3D('',#627,#504,#505);
#436=AXIS2_PLACEMENT_3D('',#628,#506,#507);
#437=AXIS2_PLACEMENT_3D('',#629,#508,#509);
#438=AXIS2_PLACEMENT_3D('',#630,#510,#511);
#439=AXIS2_PLACEMENT_3D('',#633,#512,#513);
#440=AXIS2_PLACEMENT_3D('',#634,#514,#515);
#441=AXIS2_PLACEMENT_3D('',#635,#516,#517);
#442=AXIS2_PLACEMENT_3D('',#636,#518,#519);
#443=AXIS2_PLACEMENT_3D('',#637,#520,#521);
#444=AXIS2_PLACEMENT_3D('',#639,#522,#523);
#445=AXIS2_PLACEMENT_3D('',#640,#524,#525);
#446=AXIS2_PLACEMENT_3D('',#642,#526,#527);
#447=AXIS2_PLACEMENT_3D('',#644,#528,#529);
#448=AXIS2_PLACEMENT_3D('',#646,#530,#531);
#449=AXIS2_PLACEMENT_3D('',#656,#536,#537);
#450=AXIS2_PLACEMENT_3D('',#657,#538,#539);
#451=AXIS2_PLACEMENT_3D('',#664,#543,#544);
#452=AXIS2_PLACEMENT_3D('',#665,#545,#546);
#453=AXIS2_PLACEMENT_3D('',#667,#547,#548);
#454=AXIS2_PLACEMENT_3D('',#669,#549,#550);
#455=AXIS2_PLACEMENT_3D('',#671,#551,#552);
#456=AXIS2_PLACEMENT_3D('',#678,#556,#557);
#457=AXIS2_PLACEMENT_3D('',#681,#560,#561);
#458=AXIS2_PLACEMENT_3D('',#682,#562,#563);
#459=AXIS2_PLACEMENT_3D('',#684,#564,#565);
#460=AXIS2_PLACEMENT_3D('',#686,#566,#567);
#461=AXIS2_PLACEMENT_3D('',#688,#568,#569);
#462=AXIS2_PLACEMENT_3D('',#690,#570,#571);
#463=AXIS2_PLACEMENT_3D('',#691,#572,#573);
#464=AXIS2_PLACEMENT_3D('',#693,#574,#575);
#465=AXIS2_PLACEMENT_3D('',#695,#576,#577);
#466=AXIS2_PLACEMENT_3D('',#697,#578,#579);
#467=AXIS2_PLACEMENT_3D('',#699,#580,#581);
#468=AXIS2_PLACEMENT_3D('',#700,#582,#583);
#469=AXIS2_PLACEMENT_3D('',#701,#584,#585);
#470=AXIS2_PLACEMENT_3D('',#702,#586,#587);
#471=AXIS2_PLACEMENT_3D('',#703,#588,#589);
#472=AXIS2_PLACEMENT_3D('',#704,#590,#591);
#473=AXIS2_PLACEMENT_3D('',#705,#592,#593);
#474=AXIS2_PLACEMENT_3D('',#706,#594,#595);
#475=AXIS2_PLACEMENT_3D('',#707,#596,#597);
#476=AXIS2_PLACEMENT_3D('',#708,#598,#599);
#477=AXIS2_PLACEMENT_3D('',#709,#600,#601);
#478=AXIS2_PLACEMENT_3D('',#710,#602,#603);
#479=AXIS2_PLACEMENT_3D('',#711,#604,#605);
#480=AXIS2_PLACEMENT_3D('',#712,#606,#607);
#481=AXIS2_PLACEMENT_3D('',#713,#608,#609);
#482=DIRECTION('',(0.,0.,1.));
#483=DIRECTION('',(1.,0.,0.));
#484=DIRECTION('',(0.,0.,-1.));
#485=DIRECTION('',(-1.,0.,0.));
#486=DIRECTION('',(0.707106781186547,0.,-0.707106781186547));
#487=DIRECTION('',(-0.707106781186547,0.,-0.707106781186547));
#488=DIRECTION('',(-0.707106781186547,0.,-0.707106781186547));
#489=DIRECTION('',(0.707106781186547,0.,-0.707106781186547));
#490=DIRECTION('',(0.707106781186547,0.,-0.707106781186547));
#491=DIRECTION('',(-0.707106781186547,0.,-0.707106781186547));
#492=DIRECTION('',(-0.707106781186547,0.,-0.707106781186547));
#493=DIRECTION('',(0.707106781186547,0.,-0.707106781186547));
#494=DIRECTION('',(0.,0.,-1.));
#495=DIRECTION('',(-1.,0.,0.));
#496=DIRECTION('',(0.707106781186547,0.,-0.707106781186547));
#497=DIRECTION('',(-0.707106781186547,0.,-0.707106781186547));
#498=DIRECTION('',(-0.707106781186547,0.,-0.707106781186547));
#499=DIRECTION('',(0.707106781186547,0.,-0.707106781186547));
#500=DIRECTION('',(0.707106781186547,0.,-0.707106781186547));
#501=DIRECTION('',(-0.707106781186547,0.,-0.707106781186547));
#502=DIRECTION('',(-0.707106781186547,0.,-0.707106781186547));
#503=DIRECTION('',(0.707106781186547,0.,-0.707106781186547));
#504=DIRECTION('',(0.,0.,-1.));
#505=DIRECTION('',(-1.,0.,0.));
#506=DIRECTION('',(0.707106781186547,0.,-0.707106781186547));
#507=DIRECTION('',(-0.707106781186547,0.,-0.707106781186547));
#508=DIRECTION('',(-0.707106781186547,0.,-0.707106781186547));
#509=DIRECTION('',(0.707106781186547,0.,-0.707106781186547));
#510=DIRECTION('',(0.707106781186547,0.,-0.707106781186547));
#511=DIRECTION('',(-0.707106781186547,0.,-0.707106781186547));
#512=DIRECTION('',(-0.707106781186547,0.,-0.707106781186547));
#513=DIRECTION('',(0.707106781186547,0.,-0.707106781186547));
#514=DIRECTION('',(0.,0.,-1.));
#515=DIRECTION('',(-1.,0.,0.));
#516=DIRECTION('',(0.707106781186547,0.,-0.707106781186547));
#517=DIRECTION('',(-0.707106781186547,0.,-0.707106781186547));
#518=DIRECTION('',(-0.707106781186547,0.,-0.707106781186547));
#519=DIRECTION('',(0.707106781186547,0.,-0.707106781186547));
#520=DIRECTION('',(0.,0.,1.));
#521=DIRECTION('',(1.,0.,0.));
#522=DIRECTION('',(-1.,0.,0.));
#523=DIRECTION('',(0.,0.,1.));
#524=DIRECTION('',(1.,0.,0.));
#525=DIRECTION('',(0.,0.,1.));
#526=DIRECTION('',(1.,0.,0.));
#527=DIRECTION('',(0.,0.,1.));
#528=DIRECTION('',(1.,0.,0.));
#529=DIRECTION('',(0.,0.,1.));
#530=DIRECTION('',(1.,0.,0.));
#531=DIRECTION('',(0.,0.,1.));
#532=DIRECTION('',(0.,0.,-1.));
#533=DIRECTION('',(0.,-1.,0.));
#534=DIRECTION('',(0.,0.,-1.));
#535=DIRECTION('',(0.,-1.,0.));
#536=DIRECTION('',(0.,0.,-1.));
#537=DIRECTION('',(-1.,0.,0.));
#538=DIRECTION('',(0.,0.,1.));
#539=DIRECTION('',(1.,0.,0.));
#540=DIRECTION('',(1.,0.,0.));
#541=DIRECTION('',(1.,0.,0.));
#542=DIRECTION('',(0.,-1.,0.));
#543=DIRECTION('',(1.,0.,0.));
#544=DIRECTION('',(0.,0.,-1.));
#545=DIRECTION('',(1.,0.,0.));
#546=DIRECTION('',(0.,0.,-1.));
#547=DIRECTION('',(1.,0.,0.));
#548=DIRECTION('',(0.,0.,-1.));
#549=DIRECTION('',(1.,0.,0.));
#550=DIRECTION('',(0.,0.,-1.));
#551=DIRECTION('',(1.,0.,0.));
#552=DIRECTION('',(0.,0.,-1.));
#553=DIRECTION('',(0.,0.,1.));
#554=DIRECTION('',(0.,0.,1.));
#555=DIRECTION('',(0.,-1.,0.));
#556=DIRECTION('',(0.,0.,1.));
#557=DIRECTION('',(1.,0.,0.));
#558=DIRECTION('',(-1.,0.,0.));
#559=DIRECTION('',(-1.,0.,0.));
#560=DIRECTION('',(0.,-1.,0.));
#561=DIRECTION('',(0.,0.,-1.));
#562=DIRECTION('',(0.,-1.,0.));
#563=DIRECTION('',(0.,0.,-1.));
#564=DIRECTION('',(0.,-1.,0.));
#565=DIRECTION('',(0.,0.,-1.));
#566=DIRECTION('',(0.,-1.,0.));
#567=DIRECTION('',(0.,0.,-1.));
#568=DIRECTION('',(0.,-1.,0.));
#569=DIRECTION('',(0.,0.,-1.));
#570=DIRECTION('',(0.,-1.,0.));
#571=DIRECTION('',(0.,0.,-1.));
#572=DIRECTION('',(0.,1.,0.));
#573=DIRECTION('',(0.,0.,-1.));
#574=DIRECTION('',(0.,1.,0.));
#575=DIRECTION('',(0.,0.,-1.));
#576=DIRECTION('',(0.,1.,0.));
#577=DIRECTION('',(0.,0.,-1.));
#578=DIRECTION('',(0.,1.,0.));
#579=DIRECTION('',(0.,0.,-1.));
#580=DIRECTION('',(0.,0.,-1.));
#581=DIRECTION('',(-1.,0.,0.));
#582=DIRECTION('',(0.707106781186547,0.,-0.707106781186547));
#583=DIRECTION('',(-0.707106781186547,0.,-0.707106781186547));
#584=DIRECTION('',(-0.707106781186547,0.,-0.707106781186547));
#585=DIRECTION('',(0.707106781186547,0.,-0.707106781186547));
#586=DIRECTION('',(0.,1.,0.));
#587=DIRECTION('',(0.,0.,-1.));
#588=DIRECTION('',(0.,1.,0.));
#589=DIRECTION('',(0.,0.,-1.));
#590=DIRECTION('',(0.,1.,0.));
#591=DIRECTION('',(0.,0.,-1.));
#592=DIRECTION('',(0.,1.,0.));
#593=DIRECTION('',(0.,0.,-1.));
#594=DIRECTION('',(1.,0.,0.));
#595=DIRECTION('',(0.,0.,1.));
#596=DIRECTION('',(1.,0.,0.));
#597=DIRECTION('',(0.,0.,1.));
#598=DIRECTION('',(1.,0.,0.));
#599=DIRECTION('',(0.,0.,1.));
#600=DIRECTION('',(1.,0.,0.));
#601=DIRECTION('',(0.,0.,1.));
#602=DIRECTION('',(1.,0.,0.));
#603=DIRECTION('',(0.,0.,1.));
#604=DIRECTION('',(1.,0.,0.));
#605=DIRECTION('',(0.,0.,1.));
#606=DIRECTION('',(1.,0.,0.));
#607=DIRECTION('',(0.,0.,1.));
#608=DIRECTION('',(1.,0.,0.));
#609=DIRECTION('',(0.,0.,1.));
#610=CARTESIAN_POINT('',(0.,0.,0.));
#611=CARTESIAN_POINT('',(0.,15.,85.));
#612=CARTESIAN_POINT('',(0.,15.,-51.));
#613=CARTESIAN_POINT('',(0.,5.5,-51.));
#614=CARTESIAN_POINT('',(0.,24.5,-51.));
#615=CARTESIAN_POINT('',(0.,15.,-51.));
#616=CARTESIAN_POINT('',(0.,15.,-17.));
#617=CARTESIAN_POINT('',(0.,5.5,-17.));
#618=CARTESIAN_POINT('',(0.,24.5,-17.));
#619=CARTESIAN_POINT('',(0.,15.,-17.));
#620=CARTESIAN_POINT('',(0.,15.,85.));
#621=CARTESIAN_POINT('',(0.,15.,-17.));
#622=CARTESIAN_POINT('',(0.,15.,-17.));
#623=CARTESIAN_POINT('',(0.,15.,17.));
#624=CARTESIAN_POINT('',(0.,5.5,17.));
#625=CARTESIAN_POINT('',(0.,24.5,17.));
#626=CARTESIAN_POINT('',(0.,15.,17.));
#627=CARTESIAN_POINT('',(0.,15.,85.));
#628=CARTESIAN_POINT('',(0.,15.,17.));
#629=CARTESIAN_POINT('',(0.,15.,17.));
#630=CARTESIAN_POINT('',(0.,15.,51.));
#631=CARTESIAN_POINT('',(0.,5.5,51.));
#632=CARTESIAN_POINT('',(0.,24.5,51.));
#633=CARTESIAN_POINT('',(0.,15.,51.));
#634=CARTESIAN_POINT('',(0.,15.,85.));
#635=CARTESIAN_POINT('',(0.,15.,51.));
#636=CARTESIAN_POINT('',(0.,15.,51.));
#637=CARTESIAN_POINT('',(0.,15.,85.));
#638=CARTESIAN_POINT('',(9.5,15.,85.));
#639=CARTESIAN_POINT('',(-25.,30.,85.));
#640=CARTESIAN_POINT('',(-25.,15.,-51.));
#641=CARTESIAN_POINT('',(-25.,15.,-41.5));
#642=CARTESIAN_POINT('',(-25.,15.,-17.));
#643=CARTESIAN_POINT('',(-25.,15.,-7.5));
#644=CARTESIAN_POINT('',(-25.,15.,17.));
#645=CARTESIAN_POINT('',(-25.,15.,26.5));
#646=CARTESIAN_POINT('',(-25.,15.,51.));
#647=CARTESIAN_POINT('',(-25.,15.,60.5));
#648=CARTESIAN_POINT('',(-25.,0.,85.));
#649=CARTESIAN_POINT('',(-25.,0.,85.));
#650=CARTESIAN_POINT('',(-25.,0.,-85.));
#651=CARTESIAN_POINT('',(-25.,30.,85.));
#652=CARTESIAN_POINT('',(-25.,30.,85.));
#653=CARTESIAN_POINT('',(-25.,30.,85.));
#654=CARTESIAN_POINT('',(-25.,30.,-85.));
#655=CARTESIAN_POINT('',(-25.,30.,-85.));
#656=CARTESIAN_POINT('',(-25.,30.,-85.));
#657=CARTESIAN_POINT('',(0.,15.,-85.));
#658=CARTESIAN_POINT('',(9.5,15.,-85.));
#659=CARTESIAN_POINT('',(-25.,0.,-85.));
#660=CARTESIAN_POINT('',(25.,0.,-85.));
#661=CARTESIAN_POINT('',(-25.,30.,-85.));
#662=CARTESIAN_POINT('',(25.,30.,-85.));
#663=CARTESIAN_POINT('',(25.,30.,-85.));
#664=CARTESIAN_POINT('',(25.,30.,-85.));
#665=CARTESIAN_POINT('',(25.,15.,-51.));
#666=CARTESIAN_POINT('',(25.,15.,-60.5));
#667=CARTESIAN_POINT('',(25.,15.,-17.));
#668=CARTESIAN_POINT('',(25.,15.,-26.5));
#669=CARTESIAN_POINT('',(25.,15.,17.));
#670=CARTESIAN_POINT('',(25.,15.,7.5));
#671=CARTESIAN_POINT('',(25.,15.,51.));
#672=CARTESIAN_POINT('',(25.,15.,41.5));
#673=CARTESIAN_POINT('',(25.,0.,-85.));
#674=CARTESIAN_POINT('',(25.,0.,85.));
#675=CARTESIAN_POINT('',(25.,30.,-85.));
#676=CARTESIAN_POINT('',(25.,30.,85.));
#677=CARTESIAN_POINT('',(25.,30.,85.));
#678=CARTESIAN_POINT('',(25.,30.,85.));
#679=CARTESIAN_POINT('',(25.,0.,85.));
#680=CARTESIAN_POINT('',(25.,30.,85.));
#681=CARTESIAN_POINT('',(0.,30.,0.));
#682=CARTESIAN_POINT('',(-18.,30.,75.));
#683=CARTESIAN_POINT('',(-18.,30.,72.25));
#684=CARTESIAN_POINT('',(-18.,30.,-75.));
#685=CARTESIAN_POINT('',(-18.,30.,-77.75));
#686=CARTESIAN_POINT('',(18.,30.,-75.));
#687=CARTESIAN_POINT('',(18.,30.,-77.75));
#688=CARTESIAN_POINT('',(18.,30.,75.));
#689=CARTESIAN_POINT('',(18.,30.,72.25));
#690=CARTESIAN_POINT('',(0.,0.,0.));
#691=CARTESIAN_POINT('',(-18.,0.,75.));
#692=CARTESIAN_POINT('',(-18.,0.,72.25));
#693=CARTESIAN_POINT('',(-18.,0.,-75.));
#694=CARTESIAN_POINT('',(-18.,0.,-77.75));
#695=CARTESIAN_POINT('',(18.,0.,-75.));
#696=CARTESIAN_POINT('',(18.,0.,-77.75));
#697=CARTESIAN_POINT('',(18.,0.,75.));
#698=CARTESIAN_POINT('',(18.,0.,72.25));
#699=CARTESIAN_POINT('',(0.,15.,85.));
#700=CARTESIAN_POINT('',(0.,15.,-51.));
#701=CARTESIAN_POINT('',(0.,15.,-51.));
#702=CARTESIAN_POINT('',(18.,0.,75.));
#703=CARTESIAN_POINT('',(18.,0.,-75.));
#704=CARTESIAN_POINT('',(-18.,0.,-75.));
#705=CARTESIAN_POINT('',(-18.,0.,75.));
#706=CARTESIAN_POINT('',(-25.,15.,51.));
#707=CARTESIAN_POINT('',(-25.,15.,51.));
#708=CARTESIAN_POINT('',(-25.,15.,17.));
#709=CARTESIAN_POINT('',(-25.,15.,17.));
#710=CARTESIAN_POINT('',(-25.,15.,-17.));
#711=CARTESIAN_POINT('',(-25.,15.,-17.));
#712=CARTESIAN_POINT('',(-25.,15.,-51.));
#713=CARTESIAN_POINT('',(-25.,15.,-51.));
#714=MECHANICAL_DESIGN_GEOMETRIC_PRESENTATION_REPRESENTATION('',(#413),
#715);
#715=(
GEOMETRIC_REPRESENTATION_CONTEXT(3)
GLOBAL_UNCERTAINTY_ASSIGNED_CONTEXT((#716))
GLOBAL_UNIT_ASSIGNED_CONTEXT((#719,#718,#717))
REPRESENTATION_CONTEXT('6.08.12;8','TOP_LEVEL_ASSEMBLY_PART')
);
#716=UNCERTAINTY_MEASURE_WITH_UNIT(LENGTH_MEASURE(0.005),#719,
'DISTANCE_ACCURACY_VALUE','Maximum Tolerance applied to model');
#717=(
NAMED_UNIT(*)
SI_UNIT($,.STERADIAN.)
SOLID_ANGLE_UNIT()
);
#718=(
NAMED_UNIT(*)
PLANE_ANGLE_UNIT()
SI_UNIT($,.RADIAN.)
);
#719=(
LENGTH_UNIT()
NAMED_UNIT(*)
SI_UNIT(.MILLI.,.METRE.)
);
#720=PRODUCT_DEFINITION_SHAPE('','',#721);
#721=PRODUCT_DEFINITION('','',#723,#722);
#722=PRODUCT_DEFINITION_CONTEXT('',#729,'design');
#723=PRODUCT_DEFINITION_FORMATION_WITH_SPECIFIED_SOURCE('','',#725,
 .NOT_KNOWN.);
#724=PRODUCT_RELATED_PRODUCT_CATEGORY('','',(#725));
#725=PRODUCT('6.08.12;8','6.08.12;8','6.08.12;8',(#727));
#726=PRODUCT_CATEGORY('','');
#727=PRODUCT_CONTEXT('',#729,'mechanical');
#728=APPLICATION_PROTOCOL_DEFINITION('international standard',
'automotive_design',2010,#729);
#729=APPLICATION_CONTEXT(
'core data for automotive mechanical design processes');
ENDSEC;
END-ISO-10303-21;
