ISO-10303-21;
HEADER;
/* Generated by software containing ST-Developer
 * from STEP Tools, Inc. (www.steptools.com) 
 */

FILE_DESCRIPTION(
/* description */ ('RIPART. 3/8 4 U.'),
/* implementation_level */ '2;1');

FILE_NAME(
/* name */ 'C:\\Users\\maniean1\\Desktop\\6_08_38-4.stp',
/* time_stamp */ '2017-10-04T08:29:53+02:00',
/* author */ ('Maniean1'),
/* organization */ ('Pneumax S.p.A.'),
/* preprocessor_version */ 'ST-DEVELOPER v16.5',
/* originating_system */ 'Autodesk Inventor 2017',
/* authorisation */ '');

FILE_SCHEMA (('AUTOMOTIVE_DESIGN { 1 0 10303 214 3 1 1 }'));
ENDSEC;

DATA;
#10=MECHANICAL_DESIGN_GEOMETRIC_PRESENTATION_REPRESENTATION('',(#13),#449);
#11=SHAPE_REPRESENTATION_RELATIONSHIP('SRR','None',#458,#12);
#12=ADVANCED_BREP_SHAPE_REPRESENTATION('',(#14),#448);
#13=STYLED_ITEM('',(#467),#14);
#14=MANIFOLD_SOLID_BREP('Solido1',#261);
#15=LINE('',#423,#27);
#16=LINE('',#425,#28);
#17=LINE('',#427,#29);
#18=LINE('',#428,#30);
#19=LINE('',#431,#31);
#20=LINE('',#433,#32);
#21=LINE('',#434,#33);
#22=LINE('',#437,#34);
#23=LINE('',#438,#35);
#24=LINE('',#441,#36);
#25=LINE('',#442,#37);
#26=LINE('',#444,#38);
#27=VECTOR('',#357,10.);
#28=VECTOR('',#358,10.);
#29=VECTOR('',#359,10.);
#30=VECTOR('',#360,10.);
#31=VECTOR('',#363,10.);
#32=VECTOR('',#364,10.);
#33=VECTOR('',#365,10.);
#34=VECTOR('',#368,10.);
#35=VECTOR('',#369,10.);
#36=VECTOR('',#372,10.);
#37=VECTOR('',#373,10.);
#38=VECTOR('',#376,10.);
#39=PLANE('',#295);
#40=PLANE('',#296);
#41=PLANE('',#297);
#42=PLANE('',#298);
#43=PLANE('',#299);
#44=PLANE('',#300);
#45=CONICAL_SURFACE('',#277,8.1125,45.);
#46=CONICAL_SURFACE('',#281,8.1125,45.);
#47=CONICAL_SURFACE('',#283,8.1125,45.);
#48=CONICAL_SURFACE('',#285,8.1125,45.);
#49=FACE_BOUND('',#96,.T.);
#50=FACE_BOUND('',#98,.T.);
#51=FACE_BOUND('',#100,.T.);
#52=FACE_BOUND('',#102,.T.);
#53=FACE_BOUND('',#104,.T.);
#54=FACE_BOUND('',#106,.T.);
#55=FACE_BOUND('',#108,.T.);
#56=FACE_BOUND('',#110,.T.);
#57=FACE_BOUND('',#112,.T.);
#58=FACE_BOUND('',#114,.T.);
#59=FACE_BOUND('',#116,.T.);
#60=FACE_BOUND('',#117,.T.);
#61=FACE_BOUND('',#119,.T.);
#62=FACE_BOUND('',#121,.T.);
#63=FACE_BOUND('',#123,.T.);
#64=FACE_BOUND('',#125,.T.);
#65=FACE_BOUND('',#127,.T.);
#66=FACE_BOUND('',#128,.T.);
#67=CIRCLE('',#272,7.475);
#68=CIRCLE('',#276,7.475);
#69=CIRCLE('',#278,8.75);
#70=CIRCLE('',#280,7.475);
#71=CIRCLE('',#282,8.75);
#72=CIRCLE('',#284,8.75);
#73=CIRCLE('',#286,8.75);
#74=CIRCLE('',#287,7.475);
#75=CIRCLE('',#290,2.75);
#76=CIRCLE('',#291,2.75);
#77=CIRCLE('',#293,2.75);
#78=CIRCLE('',#294,2.75);
#79=FACE_OUTER_BOUND('',#95,.T.);
#80=FACE_OUTER_BOUND('',#97,.T.);
#81=FACE_OUTER_BOUND('',#99,.T.);
#82=FACE_OUTER_BOUND('',#101,.T.);
#83=FACE_OUTER_BOUND('',#103,.T.);
#84=FACE_OUTER_BOUND('',#105,.T.);
#85=FACE_OUTER_BOUND('',#107,.T.);
#86=FACE_OUTER_BOUND('',#109,.T.);
#87=FACE_OUTER_BOUND('',#111,.T.);
#88=FACE_OUTER_BOUND('',#113,.T.);
#89=FACE_OUTER_BOUND('',#115,.T.);
#90=FACE_OUTER_BOUND('',#118,.T.);
#91=FACE_OUTER_BOUND('',#120,.T.);
#92=FACE_OUTER_BOUND('',#122,.T.);
#93=FACE_OUTER_BOUND('',#124,.T.);
#94=FACE_OUTER_BOUND('',#126,.T.);
#95=EDGE_LOOP('',(#183,#184));
#96=EDGE_LOOP('',(#185));
#97=EDGE_LOOP('',(#186,#187));
#98=EDGE_LOOP('',(#188));
#99=EDGE_LOOP('',(#189));
#100=EDGE_LOOP('',(#190));
#101=EDGE_LOOP('',(#191));
#102=EDGE_LOOP('',(#192,#193));
#103=EDGE_LOOP('',(#194));
#104=EDGE_LOOP('',(#195));
#105=EDGE_LOOP('',(#196));
#106=EDGE_LOOP('',(#197));
#107=EDGE_LOOP('',(#198));
#108=EDGE_LOOP('',(#199));
#109=EDGE_LOOP('',(#200,#201));
#110=EDGE_LOOP('',(#202));
#111=EDGE_LOOP('',(#203));
#112=EDGE_LOOP('',(#204));
#113=EDGE_LOOP('',(#205));
#114=EDGE_LOOP('',(#206));
#115=EDGE_LOOP('',(#207,#208,#209,#210));
#116=EDGE_LOOP('',(#211));
#117=EDGE_LOOP('',(#212));
#118=EDGE_LOOP('',(#213,#214,#215,#216));
#119=EDGE_LOOP('',(#217));
#120=EDGE_LOOP('',(#218,#219,#220,#221));
#121=EDGE_LOOP('',(#222));
#122=EDGE_LOOP('',(#223,#224,#225,#226));
#123=EDGE_LOOP('',(#227));
#124=EDGE_LOOP('',(#228,#229,#230,#231));
#125=EDGE_LOOP('',(#232));
#126=EDGE_LOOP('',(#233,#234,#235,#236));
#127=EDGE_LOOP('',(#237));
#128=EDGE_LOOP('',(#238));
#129=ELLIPSE('',#270,10.5712463787389,7.475);
#130=ELLIPSE('',#271,10.5712463787389,7.475);
#131=ELLIPSE('',#274,10.5712463787389,7.475);
#132=ELLIPSE('',#275,10.5712463787389,7.475);
#133=VERTEX_POINT('',#381);
#134=VERTEX_POINT('',#382);
#135=VERTEX_POINT('',#385);
#136=VERTEX_POINT('',#390);
#137=VERTEX_POINT('',#393);
#138=VERTEX_POINT('',#396);
#139=VERTEX_POINT('',#399);
#140=VERTEX_POINT('',#402);
#141=VERTEX_POINT('',#405);
#142=VERTEX_POINT('',#407);
#143=VERTEX_POINT('',#411);
#144=VERTEX_POINT('',#413);
#145=VERTEX_POINT('',#416);
#146=VERTEX_POINT('',#418);
#147=VERTEX_POINT('',#421);
#148=VERTEX_POINT('',#422);
#149=VERTEX_POINT('',#424);
#150=VERTEX_POINT('',#426);
#151=VERTEX_POINT('',#430);
#152=VERTEX_POINT('',#432);
#153=VERTEX_POINT('',#436);
#154=VERTEX_POINT('',#440);
#155=EDGE_CURVE('',#133,#134,#129,.T.);
#156=EDGE_CURVE('',#134,#133,#130,.T.);
#157=EDGE_CURVE('',#135,#135,#67,.T.);
#158=EDGE_CURVE('',#134,#133,#131,.T.);
#159=EDGE_CURVE('',#134,#133,#132,.T.);
#160=EDGE_CURVE('',#136,#136,#68,.T.);
#161=EDGE_CURVE('',#137,#137,#69,.T.);
#162=EDGE_CURVE('',#138,#138,#70,.T.);
#163=EDGE_CURVE('',#139,#139,#71,.T.);
#164=EDGE_CURVE('',#140,#140,#72,.T.);
#165=EDGE_CURVE('',#141,#141,#73,.T.);
#166=EDGE_CURVE('',#142,#142,#74,.T.);
#167=EDGE_CURVE('',#143,#143,#75,.T.);
#168=EDGE_CURVE('',#144,#144,#76,.T.);
#169=EDGE_CURVE('',#145,#145,#77,.T.);
#170=EDGE_CURVE('',#146,#146,#78,.T.);
#171=EDGE_CURVE('',#147,#148,#15,.T.);
#172=EDGE_CURVE('',#148,#149,#16,.T.);
#173=EDGE_CURVE('',#149,#150,#17,.T.);
#174=EDGE_CURVE('',#150,#147,#18,.T.);
#175=EDGE_CURVE('',#151,#148,#19,.T.);
#176=EDGE_CURVE('',#152,#151,#20,.T.);
#177=EDGE_CURVE('',#149,#152,#21,.T.);
#178=EDGE_CURVE('',#153,#152,#22,.T.);
#179=EDGE_CURVE('',#150,#153,#23,.T.);
#180=EDGE_CURVE('',#154,#153,#24,.T.);
#181=EDGE_CURVE('',#147,#154,#25,.T.);
#182=EDGE_CURVE('',#151,#154,#26,.T.);
#183=ORIENTED_EDGE('',*,*,#155,.F.);
#184=ORIENTED_EDGE('',*,*,#156,.F.);
#185=ORIENTED_EDGE('',*,*,#157,.T.);
#186=ORIENTED_EDGE('',*,*,#158,.F.);
#187=ORIENTED_EDGE('',*,*,#159,.T.);
#188=ORIENTED_EDGE('',*,*,#160,.T.);
#189=ORIENTED_EDGE('',*,*,#161,.F.);
#190=ORIENTED_EDGE('',*,*,#160,.F.);
#191=ORIENTED_EDGE('',*,*,#162,.T.);
#192=ORIENTED_EDGE('',*,*,#159,.F.);
#193=ORIENTED_EDGE('',*,*,#156,.T.);
#194=ORIENTED_EDGE('',*,*,#163,.F.);
#195=ORIENTED_EDGE('',*,*,#162,.F.);
#196=ORIENTED_EDGE('',*,*,#164,.F.);
#197=ORIENTED_EDGE('',*,*,#157,.F.);
#198=ORIENTED_EDGE('',*,*,#165,.F.);
#199=ORIENTED_EDGE('',*,*,#166,.F.);
#200=ORIENTED_EDGE('',*,*,#155,.T.);
#201=ORIENTED_EDGE('',*,*,#158,.T.);
#202=ORIENTED_EDGE('',*,*,#166,.T.);
#203=ORIENTED_EDGE('',*,*,#167,.F.);
#204=ORIENTED_EDGE('',*,*,#168,.F.);
#205=ORIENTED_EDGE('',*,*,#169,.F.);
#206=ORIENTED_EDGE('',*,*,#170,.F.);
#207=ORIENTED_EDGE('',*,*,#171,.T.);
#208=ORIENTED_EDGE('',*,*,#172,.T.);
#209=ORIENTED_EDGE('',*,*,#173,.T.);
#210=ORIENTED_EDGE('',*,*,#174,.T.);
#211=ORIENTED_EDGE('',*,*,#167,.T.);
#212=ORIENTED_EDGE('',*,*,#169,.T.);
#213=ORIENTED_EDGE('',*,*,#175,.F.);
#214=ORIENTED_EDGE('',*,*,#176,.F.);
#215=ORIENTED_EDGE('',*,*,#177,.F.);
#216=ORIENTED_EDGE('',*,*,#172,.F.);
#217=ORIENTED_EDGE('',*,*,#163,.T.);
#218=ORIENTED_EDGE('',*,*,#177,.T.);
#219=ORIENTED_EDGE('',*,*,#178,.F.);
#220=ORIENTED_EDGE('',*,*,#179,.F.);
#221=ORIENTED_EDGE('',*,*,#173,.F.);
#222=ORIENTED_EDGE('',*,*,#164,.T.);
#223=ORIENTED_EDGE('',*,*,#179,.T.);
#224=ORIENTED_EDGE('',*,*,#180,.F.);
#225=ORIENTED_EDGE('',*,*,#181,.F.);
#226=ORIENTED_EDGE('',*,*,#174,.F.);
#227=ORIENTED_EDGE('',*,*,#165,.T.);
#228=ORIENTED_EDGE('',*,*,#181,.T.);
#229=ORIENTED_EDGE('',*,*,#182,.F.);
#230=ORIENTED_EDGE('',*,*,#175,.T.);
#231=ORIENTED_EDGE('',*,*,#171,.F.);
#232=ORIENTED_EDGE('',*,*,#161,.T.);
#233=ORIENTED_EDGE('',*,*,#182,.T.);
#234=ORIENTED_EDGE('',*,*,#180,.T.);
#235=ORIENTED_EDGE('',*,*,#178,.T.);
#236=ORIENTED_EDGE('',*,*,#176,.T.);
#237=ORIENTED_EDGE('',*,*,#168,.T.);
#238=ORIENTED_EDGE('',*,*,#170,.T.);
#239=CYLINDRICAL_SURFACE('',#269,7.475);
#240=CYLINDRICAL_SURFACE('',#273,7.475);
#241=CYLINDRICAL_SURFACE('',#279,7.475);
#242=CYLINDRICAL_SURFACE('',#288,7.475);
#243=CYLINDRICAL_SURFACE('',#289,2.75);
#244=CYLINDRICAL_SURFACE('',#292,2.75);
#245=ADVANCED_FACE('',(#79,#49),#239,.F.);
#246=ADVANCED_FACE('',(#80,#50),#240,.F.);
#247=ADVANCED_FACE('',(#81,#51),#45,.F.);
#248=ADVANCED_FACE('',(#82,#52),#241,.F.);
#249=ADVANCED_FACE('',(#83,#53),#46,.F.);
#250=ADVANCED_FACE('',(#84,#54),#47,.F.);
#251=ADVANCED_FACE('',(#85,#55),#48,.F.);
#252=ADVANCED_FACE('',(#86,#56),#242,.F.);
#253=ADVANCED_FACE('',(#87,#57),#243,.F.);
#254=ADVANCED_FACE('',(#88,#58),#244,.F.);
#255=ADVANCED_FACE('',(#89,#59,#60),#39,.T.);
#256=ADVANCED_FACE('',(#90,#61),#40,.T.);
#257=ADVANCED_FACE('',(#91,#62),#41,.T.);
#258=ADVANCED_FACE('',(#92,#63),#42,.T.);
#259=ADVANCED_FACE('',(#93,#64),#43,.T.);
#260=ADVANCED_FACE('',(#94,#65,#66),#44,.T.);
#261=CLOSED_SHELL('',(#245,#246,#247,#248,#249,#250,#251,#252,#253,#254,
#255,#256,#257,#258,#259,#260));
#262=DATE_TIME_ROLE('creation_date');
#263=APPLIED_DATE_AND_TIME_ASSIGNMENT(#264,#262,(#460));
#264=DATE_AND_TIME(#265,#266);
#265=CALENDAR_DATE(2017,4,10);
#266=LOCAL_TIME(6,23,35.,#267);
#267=COORDINATED_UNIVERSAL_TIME_OFFSET(0,0,.BEHIND.);
#268=AXIS2_PLACEMENT_3D('placement',#379,#301,#302);
#269=AXIS2_PLACEMENT_3D('',#380,#303,#304);
#270=AXIS2_PLACEMENT_3D('',#383,#305,#306);
#271=AXIS2_PLACEMENT_3D('',#384,#307,#308);
#272=AXIS2_PLACEMENT_3D('',#386,#309,#310);
#273=AXIS2_PLACEMENT_3D('',#387,#311,#312);
#274=AXIS2_PLACEMENT_3D('',#388,#313,#314);
#275=AXIS2_PLACEMENT_3D('',#389,#315,#316);
#276=AXIS2_PLACEMENT_3D('',#391,#317,#318);
#277=AXIS2_PLACEMENT_3D('',#392,#319,#320);
#278=AXIS2_PLACEMENT_3D('',#394,#321,#322);
#279=AXIS2_PLACEMENT_3D('',#395,#323,#324);
#280=AXIS2_PLACEMENT_3D('',#397,#325,#326);
#281=AXIS2_PLACEMENT_3D('',#398,#327,#328);
#282=AXIS2_PLACEMENT_3D('',#400,#329,#330);
#283=AXIS2_PLACEMENT_3D('',#401,#331,#332);
#284=AXIS2_PLACEMENT_3D('',#403,#333,#334);
#285=AXIS2_PLACEMENT_3D('',#404,#335,#336);
#286=AXIS2_PLACEMENT_3D('',#406,#337,#338);
#287=AXIS2_PLACEMENT_3D('',#408,#339,#340);
#288=AXIS2_PLACEMENT_3D('',#409,#341,#342);
#289=AXIS2_PLACEMENT_3D('',#410,#343,#344);
#290=AXIS2_PLACEMENT_3D('',#412,#345,#346);
#291=AXIS2_PLACEMENT_3D('',#414,#347,#348);
#292=AXIS2_PLACEMENT_3D('',#415,#349,#350);
#293=AXIS2_PLACEMENT_3D('',#417,#351,#352);
#294=AXIS2_PLACEMENT_3D('',#419,#353,#354);
#295=AXIS2_PLACEMENT_3D('',#420,#355,#356);
#296=AXIS2_PLACEMENT_3D('',#429,#361,#362);
#297=AXIS2_PLACEMENT_3D('',#435,#366,#367);
#298=AXIS2_PLACEMENT_3D('',#439,#370,#371);
#299=AXIS2_PLACEMENT_3D('',#443,#374,#375);
#300=AXIS2_PLACEMENT_3D('',#445,#377,#378);
#301=DIRECTION('axis',(0.,0.,1.));
#302=DIRECTION('refdir',(1.,0.,0.));
#303=DIRECTION('center_axis',(6.12323399573677E-17,1.,0.));
#304=DIRECTION('ref_axis',(0.,0.,-1.));
#305=DIRECTION('center_axis',(-0.707106781186547,0.707106781186548,0.));
#306=DIRECTION('ref_axis',(-0.707106781186548,-0.707106781186547,0.));
#307=DIRECTION('center_axis',(0.707106781186548,0.707106781186547,0.));
#308=DIRECTION('ref_axis',(0.707106781186547,-0.707106781186548,0.));
#309=DIRECTION('center_axis',(6.12323399573677E-17,1.,0.));
#310=DIRECTION('ref_axis',(0.,0.,-1.));
#311=DIRECTION('center_axis',(6.12323399573677E-17,1.,0.));
#312=DIRECTION('ref_axis',(0.,0.,-1.));
#313=DIRECTION('center_axis',(-0.707106781186548,-0.707106781186548,0.));
#314=DIRECTION('ref_axis',(-0.707106781186548,0.707106781186548,0.));
#315=DIRECTION('center_axis',(-0.707106781186547,0.707106781186548,0.));
#316=DIRECTION('ref_axis',(0.707106781186547,0.707106781186547,0.));
#317=DIRECTION('center_axis',(-1.83697019872103E-16,-1.,0.));
#318=DIRECTION('ref_axis',(0.,0.,-1.));
#319=DIRECTION('center_axis',(-1.83697019872103E-16,-1.,0.));
#320=DIRECTION('ref_axis',(0.,0.,-1.));
#321=DIRECTION('center_axis',(0.,1.,0.));
#322=DIRECTION('ref_axis',(0.,0.,-1.));
#323=DIRECTION('center_axis',(-1.,1.22464679914735E-16,0.));
#324=DIRECTION('ref_axis',(0.,0.,-1.));
#325=DIRECTION('center_axis',(-1.,1.22464679914735E-16,0.));
#326=DIRECTION('ref_axis',(0.,0.,-1.));
#327=DIRECTION('center_axis',(-1.,1.22464679914735E-16,0.));
#328=DIRECTION('ref_axis',(0.,0.,-1.));
#329=DIRECTION('center_axis',(1.,0.,0.));
#330=DIRECTION('ref_axis',(0.,0.,-1.));
#331=DIRECTION('center_axis',(6.12323399573677E-17,1.,0.));
#332=DIRECTION('ref_axis',(0.,0.,-1.));
#333=DIRECTION('center_axis',(0.,-1.,0.));
#334=DIRECTION('ref_axis',(0.,0.,-1.));
#335=DIRECTION('center_axis',(1.,0.,0.));
#336=DIRECTION('ref_axis',(0.,0.,-1.));
#337=DIRECTION('center_axis',(-1.,0.,0.));
#338=DIRECTION('ref_axis',(0.,0.,-1.));
#339=DIRECTION('center_axis',(1.,0.,0.));
#340=DIRECTION('ref_axis',(0.,0.,-1.));
#341=DIRECTION('center_axis',(1.,0.,0.));
#342=DIRECTION('ref_axis',(0.,0.,-1.));
#343=DIRECTION('center_axis',(0.,0.,1.));
#344=DIRECTION('ref_axis',(-1.,0.,0.));
#345=DIRECTION('center_axis',(0.,0.,1.));
#346=DIRECTION('ref_axis',(-1.,0.,0.));
#347=DIRECTION('center_axis',(0.,0.,-1.));
#348=DIRECTION('ref_axis',(-1.,0.,0.));
#349=DIRECTION('center_axis',(0.,0.,1.));
#350=DIRECTION('ref_axis',(-1.,0.,0.));
#351=DIRECTION('center_axis',(0.,0.,1.));
#352=DIRECTION('ref_axis',(-1.,0.,0.));
#353=DIRECTION('center_axis',(0.,0.,-1.));
#354=DIRECTION('ref_axis',(-1.,0.,0.));
#355=DIRECTION('center_axis',(0.,0.,-1.));
#356=DIRECTION('ref_axis',(-1.,0.,0.));
#357=DIRECTION('',(-1.,0.,0.));
#358=DIRECTION('',(0.,1.,0.));
#359=DIRECTION('',(1.,0.,0.));
#360=DIRECTION('',(0.,-1.,0.));
#361=DIRECTION('center_axis',(-1.,0.,0.));
#362=DIRECTION('ref_axis',(0.,-1.,0.));
#363=DIRECTION('',(0.,0.,-1.));
#364=DIRECTION('',(0.,-1.,0.));
#365=DIRECTION('',(0.,0.,1.));
#366=DIRECTION('center_axis',(0.,1.,0.));
#367=DIRECTION('ref_axis',(-1.,0.,0.));
#368=DIRECTION('',(-1.,0.,0.));
#369=DIRECTION('',(0.,0.,1.));
#370=DIRECTION('center_axis',(1.,0.,0.));
#371=DIRECTION('ref_axis',(0.,1.,0.));
#372=DIRECTION('',(0.,1.,0.));
#373=DIRECTION('',(0.,0.,1.));
#374=DIRECTION('center_axis',(0.,-1.,0.));
#375=DIRECTION('ref_axis',(1.,0.,0.));
#376=DIRECTION('',(1.,0.,0.));
#377=DIRECTION('center_axis',(0.,0.,1.));
#378=DIRECTION('ref_axis',(1.,0.,0.));
#379=CARTESIAN_POINT('',(0.,0.,0.));
#380=CARTESIAN_POINT('Origin',(6.12323399573677E-16,10.,0.));
#381=CARTESIAN_POINT('',(1.54502751700111E-31,1.26161070937092E-15,7.475));
#382=CARTESIAN_POINT('',(0.,0.,-7.475));
#383=CARTESIAN_POINT('Origin',(0.,0.,0.));
#384=CARTESIAN_POINT('Origin',(0.,0.,0.));
#385=CARTESIAN_POINT('',(1.14657556570171E-15,18.725,-7.475));
#386=CARTESIAN_POINT('Origin',(1.14657556570171E-15,18.725,0.));
#387=CARTESIAN_POINT('Origin',(6.12323399573677E-16,10.,0.));
#388=CARTESIAN_POINT('Origin',(0.,0.,0.));
#389=CARTESIAN_POINT('Origin',(-3.14500586553911E-31,-1.11022302462516E-15,
0.));
#390=CARTESIAN_POINT('',(-3.43972669710513E-15,-18.725,-7.475));
#391=CARTESIAN_POINT('Origin',(-3.43972669710513E-15,-18.725,0.));
#392=CARTESIAN_POINT('Origin',(-3.55683354727359E-15,-19.3625,0.));
#393=CARTESIAN_POINT('',(-3.67394039744206E-15,-20.,-8.75));
#394=CARTESIAN_POINT('Origin',(-3.67394039744206E-15,-20.,0.));
#395=CARTESIAN_POINT('Origin',(-10.,1.22464679914735E-15,0.));
#396=CARTESIAN_POINT('',(-18.725,2.29315113140342E-15,-7.475));
#397=CARTESIAN_POINT('Origin',(-18.725,2.29315113140342E-15,0.));
#398=CARTESIAN_POINT('Origin',(-19.3625,2.37122236484906E-15,0.));
#399=CARTESIAN_POINT('',(-20.,2.44929359829471E-15,-8.75));
#400=CARTESIAN_POINT('Origin',(-20.,2.44929359829471E-15,0.));
#401=CARTESIAN_POINT('Origin',(1.18561118242453E-15,19.3625,0.));
#402=CARTESIAN_POINT('',(1.22464679914735E-15,20.,-8.75));
#403=CARTESIAN_POINT('Origin',(1.22464679914735E-15,20.,0.));
#404=CARTESIAN_POINT('Origin',(19.3625,0.,0.));
#405=CARTESIAN_POINT('',(20.,0.,-8.75));
#406=CARTESIAN_POINT('Origin',(20.,0.,0.));
#407=CARTESIAN_POINT('',(18.725,0.,-7.475));
#408=CARTESIAN_POINT('Origin',(18.725,0.,0.));
#409=CARTESIAN_POINT('Origin',(10.,0.,0.));
#410=CARTESIAN_POINT('Origin',(-15.,-15.,0.));
#411=CARTESIAN_POINT('',(-12.25,-15.,-10.));
#412=CARTESIAN_POINT('Origin',(-15.,-15.,-10.));
#413=CARTESIAN_POINT('',(-12.25,-15.,10.));
#414=CARTESIAN_POINT('Origin',(-15.,-15.,10.));
#415=CARTESIAN_POINT('Origin',(15.,15.,0.));
#416=CARTESIAN_POINT('',(17.75,15.,-10.));
#417=CARTESIAN_POINT('Origin',(15.,15.,-10.));
#418=CARTESIAN_POINT('',(17.75,15.,10.));
#419=CARTESIAN_POINT('Origin',(15.,15.,10.));
#420=CARTESIAN_POINT('Origin',(0.,0.,-10.));
#421=CARTESIAN_POINT('',(20.,-20.,-10.));
#422=CARTESIAN_POINT('',(-20.,-20.,-10.));
#423=CARTESIAN_POINT('',(-20.,-20.,-10.));
#424=CARTESIAN_POINT('',(-20.,20.,-10.));
#425=CARTESIAN_POINT('',(-20.,20.,-10.));
#426=CARTESIAN_POINT('',(20.,20.,-10.));
#427=CARTESIAN_POINT('',(20.,20.,-10.));
#428=CARTESIAN_POINT('',(20.,-20.,-10.));
#429=CARTESIAN_POINT('Origin',(-20.,20.,0.));
#430=CARTESIAN_POINT('',(-20.,-20.,10.));
#431=CARTESIAN_POINT('',(-20.,-20.,0.));
#432=CARTESIAN_POINT('',(-20.,20.,10.));
#433=CARTESIAN_POINT('',(-20.,20.,10.));
#434=CARTESIAN_POINT('',(-20.,20.,0.));
#435=CARTESIAN_POINT('Origin',(20.,20.,0.));
#436=CARTESIAN_POINT('',(20.,20.,10.));
#437=CARTESIAN_POINT('',(20.,20.,10.));
#438=CARTESIAN_POINT('',(20.,20.,0.));
#439=CARTESIAN_POINT('Origin',(20.,-20.,0.));
#440=CARTESIAN_POINT('',(20.,-20.,10.));
#441=CARTESIAN_POINT('',(20.,-20.,10.));
#442=CARTESIAN_POINT('',(20.,-20.,0.));
#443=CARTESIAN_POINT('Origin',(-20.,-20.,0.));
#444=CARTESIAN_POINT('',(-20.,-20.,10.));
#445=CARTESIAN_POINT('Origin',(0.,0.,10.));
#446=UNCERTAINTY_MEASURE_WITH_UNIT(LENGTH_MEASURE(0.01),#450,
'DISTANCE_ACCURACY_VALUE',
'Maximum model space distance between geometric entities at asserted c
onnectivities');
#447=UNCERTAINTY_MEASURE_WITH_UNIT(LENGTH_MEASURE(1.E-6),#450,
'DISTANCE_ACCURACY_VALUE',
'Maximum model space distance between geometric entities at asserted c
onnectivities');
#448=(
GEOMETRIC_REPRESENTATION_CONTEXT(3)
GLOBAL_UNCERTAINTY_ASSIGNED_CONTEXT((#446))
GLOBAL_UNIT_ASSIGNED_CONTEXT((#450,#453,#451))
REPRESENTATION_CONTEXT('','3D')
);
#449=(
GEOMETRIC_REPRESENTATION_CONTEXT(3)
GLOBAL_UNCERTAINTY_ASSIGNED_CONTEXT((#447))
GLOBAL_UNIT_ASSIGNED_CONTEXT((#450,#453,#451))
REPRESENTATION_CONTEXT('','3D')
);
#450=(
LENGTH_UNIT()
NAMED_UNIT(*)
SI_UNIT(.MILLI.,.METRE.)
);
#451=(
NAMED_UNIT(*)
SI_UNIT($,.STERADIAN.)
SOLID_ANGLE_UNIT()
);
#452=DIMENSIONAL_EXPONENTS(0.,0.,0.,0.,0.,0.,0.);
#453=(
CONVERSION_BASED_UNIT('degree',#455)
NAMED_UNIT(#452)
PLANE_ANGLE_UNIT()
);
#454=(
NAMED_UNIT(*)
PLANE_ANGLE_UNIT()
SI_UNIT($,.RADIAN.)
);
#455=PLANE_ANGLE_MEASURE_WITH_UNIT(PLANE_ANGLE_MEASURE(0.01745329252),#454);
#456=SHAPE_DEFINITION_REPRESENTATION(#457,#458);
#457=PRODUCT_DEFINITION_SHAPE('',$,#460);
#458=SHAPE_REPRESENTATION('',(#268),#448);
#459=PRODUCT_DEFINITION_CONTEXT('part definition',#464,'design');
#460=PRODUCT_DEFINITION('6.08.38/4','6_08_38-4',#461,#459);
#461=PRODUCT_DEFINITION_FORMATION('',$,#466);
#462=PRODUCT_RELATED_PRODUCT_CATEGORY('6_08_38-4','6_08_38-4',(#466));
#463=APPLICATION_PROTOCOL_DEFINITION('international standard',
'automotive_design',2009,#464);
#464=APPLICATION_CONTEXT(
'Core Data for Automotive Mechanical Design Process');
#465=PRODUCT_CONTEXT('part definition',#464,'mechanical');
#466=PRODUCT('6.08.38/4','6_08_38-4','RIPART. 3/8 4 U.',(#465));
#467=PRESENTATION_STYLE_ASSIGNMENT((#468));
#468=SURFACE_STYLE_USAGE(.BOTH.,#469);
#469=SURFACE_SIDE_STYLE('',(#470));
#470=SURFACE_STYLE_FILL_AREA(#471);
#471=FILL_AREA_STYLE('',(#472));
#472=FILL_AREA_STYLE_COLOUR('',#473);
#473=COLOUR_RGB('',0.749019607843137,0.749019607843137,0.749019607843137);
ENDSEC;
END-ISO-10303-21;
