ISO-10303-21;
HEADER;
/* Generated by software containing ST-Developer
 * from STEP Tools, Inc. (www.steptools.com) 
 */
/* OPTION: strings as raw bytes, not using required /X/ escapes */

FILE_DESCRIPTION(
/* description */ ('Unknown'),
/* implementation_level */ '2;1');

FILE_NAME(
/* name */ '6.09.12@',
/* time_stamp */ '2018-09-06T13:55:00-04:00',
/* author */ ('Unknown'),
/* organization */ ('Unknown'),
/* preprocessor_version */ 'ST-DEVELOPER v16.7',
/* originating_system */ 'DEX',
/* authorisation */ $);

FILE_SCHEMA (('AUTOMOTIVE_DESIGN {1 0 10303 214 3 1 1}'));
ENDSEC;

DATA;
#10=PROPERTY_DEFINITION_REPRESENTATION(#14,#12);
#11=PROPERTY_DEFINITION_REPRESENTATION(#15,#13);
#12=REPRESENTATION('',(#16),#572);
#13=REPRESENTATION('',(#17),#572);
#14=PROPERTY_DEFINITION('pmi validation property','',#577);
#15=PROPERTY_DEFINITION('pmi validation property','',#577);
#16=VALUE_REPRESENTATION_ITEM('number of annotations',COUNT_MEASURE(0.));
#17=VALUE_REPRESENTATION_ITEM('number of views',COUNT_MEASURE(0.));
#18=SHAPE_REPRESENTATION_RELATIONSHIP('','',#393,#19);
#19=ADVANCED_BREP_SHAPE_REPRESENTATION('',(#391),#572);
#20=LINE('',#525,#32);
#21=LINE('',#528,#33);
#22=LINE('',#530,#34);
#23=LINE('',#532,#35);
#24=LINE('',#536,#36);
#25=LINE('',#538,#37);
#26=LINE('',#540,#38);
#27=LINE('',#542,#39);
#28=LINE('',#544,#40);
#29=LINE('',#546,#41);
#30=LINE('',#550,#42);
#31=LINE('',#551,#43);
#32=VECTOR('',#455,1000.);
#33=VECTOR('',#456,1000.);
#34=VECTOR('',#457,1000.);
#35=VECTOR('',#458,1000.);
#36=VECTOR('',#463,1000.);
#37=VECTOR('',#464,1000.);
#38=VECTOR('',#465,1000.);
#39=VECTOR('',#468,1000.);
#40=VECTOR('',#469,1000.);
#41=VECTOR('',#470,1000.);
#42=VECTOR('',#475,1000.);
#43=VECTOR('',#476,1000.);
#44=CYLINDRICAL_SURFACE('',#397,9.3155);
#45=CYLINDRICAL_SURFACE('',#399,9.3155);
#46=CYLINDRICAL_SURFACE('',#403,9.3155);
#47=CYLINDRICAL_SURFACE('',#405,9.3155);
#48=CYLINDRICAL_SURFACE('',#417,0.75);
#49=CYLINDRICAL_SURFACE('',#421,6.65);
#50=CYLINDRICAL_SURFACE('',#424,4.283);
#51=CYLINDRICAL_SURFACE('',#426,4.283);
#52=ORIENTED_EDGE('',*,*,#102,.T.);
#53=ORIENTED_EDGE('',*,*,#102,.F.);
#54=ORIENTED_EDGE('',*,*,#103,.T.);
#55=ORIENTED_EDGE('',*,*,#103,.F.);
#56=ORIENTED_EDGE('',*,*,#104,.T.);
#57=ORIENTED_EDGE('',*,*,#105,.T.);
#58=ORIENTED_EDGE('',*,*,#105,.F.);
#59=ORIENTED_EDGE('',*,*,#106,.T.);
#60=ORIENTED_EDGE('',*,*,#106,.F.);
#61=ORIENTED_EDGE('',*,*,#107,.T.);
#62=ORIENTED_EDGE('',*,*,#107,.F.);
#63=ORIENTED_EDGE('',*,*,#108,.F.);
#64=ORIENTED_EDGE('',*,*,#109,.F.);
#65=ORIENTED_EDGE('',*,*,#110,.T.);
#66=ORIENTED_EDGE('',*,*,#111,.T.);
#67=ORIENTED_EDGE('',*,*,#112,.T.);
#68=ORIENTED_EDGE('',*,*,#113,.F.);
#69=ORIENTED_EDGE('',*,*,#111,.F.);
#70=ORIENTED_EDGE('',*,*,#114,.T.);
#71=ORIENTED_EDGE('',*,*,#115,.T.);
#72=ORIENTED_EDGE('',*,*,#104,.F.);
#73=ORIENTED_EDGE('',*,*,#116,.F.);
#74=ORIENTED_EDGE('',*,*,#115,.F.);
#75=ORIENTED_EDGE('',*,*,#117,.T.);
#76=ORIENTED_EDGE('',*,*,#118,.T.);
#77=ORIENTED_EDGE('',*,*,#119,.T.);
#78=ORIENTED_EDGE('',*,*,#120,.F.);
#79=ORIENTED_EDGE('',*,*,#118,.F.);
#80=ORIENTED_EDGE('',*,*,#121,.T.);
#81=ORIENTED_EDGE('',*,*,#109,.T.);
#82=ORIENTED_EDGE('',*,*,#110,.F.);
#83=ORIENTED_EDGE('',*,*,#121,.F.);
#84=ORIENTED_EDGE('',*,*,#117,.F.);
#85=ORIENTED_EDGE('',*,*,#114,.F.);
#86=ORIENTED_EDGE('',*,*,#108,.T.);
#87=ORIENTED_EDGE('',*,*,#113,.T.);
#88=ORIENTED_EDGE('',*,*,#116,.T.);
#89=ORIENTED_EDGE('',*,*,#120,.T.);
#90=ORIENTED_EDGE('',*,*,#122,.T.);
#91=ORIENTED_EDGE('',*,*,#122,.F.);
#92=ORIENTED_EDGE('',*,*,#112,.F.);
#93=ORIENTED_EDGE('',*,*,#123,.F.);
#94=ORIENTED_EDGE('',*,*,#124,.F.);
#95=ORIENTED_EDGE('',*,*,#123,.T.);
#96=ORIENTED_EDGE('',*,*,#119,.F.);
#97=ORIENTED_EDGE('',*,*,#125,.T.);
#98=ORIENTED_EDGE('',*,*,#125,.F.);
#99=ORIENTED_EDGE('',*,*,#126,.T.);
#100=ORIENTED_EDGE('',*,*,#124,.T.);
#101=ORIENTED_EDGE('',*,*,#126,.F.);
#102=EDGE_CURVE('',#127,#127,#148,.T.);
#103=EDGE_CURVE('',#128,#128,#149,.T.);
#104=EDGE_CURVE('',#129,#129,#150,.T.);
#105=EDGE_CURVE('',#130,#130,#151,.T.);
#106=EDGE_CURVE('',#131,#131,#152,.T.);
#107=EDGE_CURVE('',#132,#132,#153,.T.);
#108=EDGE_CURVE('',#133,#134,#20,.T.);
#109=EDGE_CURVE('',#135,#133,#21,.T.);
#110=EDGE_CURVE('',#135,#136,#22,.T.);
#111=EDGE_CURVE('',#136,#134,#23,.T.);
#112=EDGE_CURVE('',#137,#137,#154,.T.);
#113=EDGE_CURVE('',#134,#138,#24,.T.);
#114=EDGE_CURVE('',#136,#139,#25,.T.);
#115=EDGE_CURVE('',#139,#138,#26,.T.);
#116=EDGE_CURVE('',#138,#140,#27,.T.);
#117=EDGE_CURVE('',#139,#141,#28,.T.);
#118=EDGE_CURVE('',#141,#140,#29,.T.);
#119=EDGE_CURVE('',#142,#142,#155,.T.);
#120=EDGE_CURVE('',#140,#133,#30,.T.);
#121=EDGE_CURVE('',#141,#135,#31,.T.);
#122=EDGE_CURVE('',#143,#143,#156,.T.);
#123=EDGE_CURVE('',#144,#144,#157,.T.);
#124=EDGE_CURVE('',#145,#145,#158,.F.);
#125=EDGE_CURVE('',#146,#146,#159,.T.);
#126=EDGE_CURVE('',#147,#147,#160,.T.);
#127=VERTEX_POINT('',#508);
#128=VERTEX_POINT('',#511);
#129=VERTEX_POINT('',#514);
#130=VERTEX_POINT('',#517);
#131=VERTEX_POINT('',#520);
#132=VERTEX_POINT('',#523);
#133=VERTEX_POINT('',#526);
#134=VERTEX_POINT('',#527);
#135=VERTEX_POINT('',#529);
#136=VERTEX_POINT('',#531);
#137=VERTEX_POINT('',#535);
#138=VERTEX_POINT('',#537);
#139=VERTEX_POINT('',#539);
#140=VERTEX_POINT('',#543);
#141=VERTEX_POINT('',#545);
#142=VERTEX_POINT('',#549);
#143=VERTEX_POINT('',#556);
#144=VERTEX_POINT('',#560);
#145=VERTEX_POINT('',#562);
#146=VERTEX_POINT('',#566);
#147=VERTEX_POINT('',#569);
#148=CIRCLE('',#396,9.3155);
#149=CIRCLE('',#398,9.3155);
#150=CIRCLE('',#400,9.3155);
#151=CIRCLE('',#402,9.3155);
#152=CIRCLE('',#404,9.3155);
#153=CIRCLE('',#406,9.3155);
#154=CIRCLE('',#409,0.75);
#155=CIRCLE('',#412,6.65);
#156=CIRCLE('',#416,0.75);
#157=CIRCLE('',#419,6.65);
#158=CIRCLE('',#420,4.283);
#159=CIRCLE('',#423,4.283);
#160=CIRCLE('',#425,4.283);
#161=EDGE_LOOP('',(#52));
#162=EDGE_LOOP('',(#53));
#163=EDGE_LOOP('',(#54));
#164=EDGE_LOOP('',(#55));
#165=EDGE_LOOP('',(#56));
#166=EDGE_LOOP('',(#57));
#167=EDGE_LOOP('',(#58));
#168=EDGE_LOOP('',(#59));
#169=EDGE_LOOP('',(#60));
#170=EDGE_LOOP('',(#61));
#171=EDGE_LOOP('',(#62));
#172=EDGE_LOOP('',(#63,#64,#65,#66));
#173=EDGE_LOOP('',(#67));
#174=EDGE_LOOP('',(#68,#69,#70,#71));
#175=EDGE_LOOP('',(#72));
#176=EDGE_LOOP('',(#73,#74,#75,#76));
#177=EDGE_LOOP('',(#77));
#178=EDGE_LOOP('',(#78,#79,#80,#81));
#179=EDGE_LOOP('',(#82,#83,#84,#85));
#180=EDGE_LOOP('',(#86,#87,#88,#89));
#181=EDGE_LOOP('',(#90));
#182=EDGE_LOOP('',(#91));
#183=EDGE_LOOP('',(#92));
#184=EDGE_LOOP('',(#93));
#185=EDGE_LOOP('',(#94));
#186=EDGE_LOOP('',(#95));
#187=EDGE_LOOP('',(#96));
#188=EDGE_LOOP('',(#97));
#189=EDGE_LOOP('',(#98));
#190=EDGE_LOOP('',(#99));
#191=EDGE_LOOP('',(#100));
#192=EDGE_LOOP('',(#101));
#193=FACE_BOUND('',#161,.T.);
#194=FACE_BOUND('',#162,.T.);
#195=FACE_BOUND('',#163,.T.);
#196=FACE_BOUND('',#164,.T.);
#197=FACE_BOUND('',#165,.T.);
#198=FACE_BOUND('',#166,.T.);
#199=FACE_BOUND('',#167,.T.);
#200=FACE_BOUND('',#168,.T.);
#201=FACE_BOUND('',#169,.T.);
#202=FACE_BOUND('',#170,.T.);
#203=FACE_BOUND('',#171,.T.);
#204=FACE_BOUND('',#172,.T.);
#205=FACE_BOUND('',#173,.T.);
#206=FACE_BOUND('',#174,.T.);
#207=FACE_BOUND('',#175,.T.);
#208=FACE_BOUND('',#176,.T.);
#209=FACE_BOUND('',#177,.T.);
#210=FACE_BOUND('',#178,.T.);
#211=FACE_BOUND('',#179,.T.);
#212=FACE_BOUND('',#180,.T.);
#213=FACE_BOUND('',#181,.T.);
#214=FACE_BOUND('',#182,.T.);
#215=FACE_BOUND('',#183,.T.);
#216=FACE_BOUND('',#184,.T.);
#217=FACE_BOUND('',#185,.T.);
#218=FACE_BOUND('',#186,.T.);
#219=FACE_BOUND('',#187,.T.);
#220=FACE_BOUND('',#188,.T.);
#221=FACE_BOUND('',#189,.T.);
#222=FACE_BOUND('',#190,.T.);
#223=FACE_BOUND('',#191,.T.);
#224=FACE_BOUND('',#192,.T.);
#225=PLANE('',#395);
#226=PLANE('',#401);
#227=PLANE('',#407);
#228=PLANE('',#408);
#229=PLANE('',#410);
#230=PLANE('',#411);
#231=PLANE('',#413);
#232=PLANE('',#414);
#233=PLANE('',#415);
#234=PLANE('',#418);
#235=PLANE('',#422);
#236=STYLED_ITEM('',(#255),#371);
#237=STYLED_ITEM('',(#256),#372);
#238=STYLED_ITEM('',(#257),#373);
#239=STYLED_ITEM('',(#258),#374);
#240=STYLED_ITEM('',(#259),#375);
#241=STYLED_ITEM('',(#260),#376);
#242=STYLED_ITEM('',(#261),#377);
#243=STYLED_ITEM('',(#262),#378);
#244=STYLED_ITEM('',(#263),#379);
#245=STYLED_ITEM('',(#264),#380);
#246=STYLED_ITEM('',(#265),#381);
#247=STYLED_ITEM('',(#266),#382);
#248=STYLED_ITEM('',(#267),#383);
#249=STYLED_ITEM('',(#268),#384);
#250=STYLED_ITEM('',(#269),#385);
#251=STYLED_ITEM('',(#270),#386);
#252=STYLED_ITEM('',(#271),#387);
#253=STYLED_ITEM('',(#272),#388);
#254=STYLED_ITEM('',(#273),#389);
#255=PRESENTATION_STYLE_ASSIGNMENT((#274));
#256=PRESENTATION_STYLE_ASSIGNMENT((#275));
#257=PRESENTATION_STYLE_ASSIGNMENT((#276));
#258=PRESENTATION_STYLE_ASSIGNMENT((#277));
#259=PRESENTATION_STYLE_ASSIGNMENT((#278));
#260=PRESENTATION_STYLE_ASSIGNMENT((#279));
#261=PRESENTATION_STYLE_ASSIGNMENT((#280));
#262=PRESENTATION_STYLE_ASSIGNMENT((#281));
#263=PRESENTATION_STYLE_ASSIGNMENT((#282));
#264=PRESENTATION_STYLE_ASSIGNMENT((#283));
#265=PRESENTATION_STYLE_ASSIGNMENT((#284));
#266=PRESENTATION_STYLE_ASSIGNMENT((#285));
#267=PRESENTATION_STYLE_ASSIGNMENT((#286));
#268=PRESENTATION_STYLE_ASSIGNMENT((#287));
#269=PRESENTATION_STYLE_ASSIGNMENT((#288));
#270=PRESENTATION_STYLE_ASSIGNMENT((#289));
#271=PRESENTATION_STYLE_ASSIGNMENT((#290));
#272=PRESENTATION_STYLE_ASSIGNMENT((#291));
#273=PRESENTATION_STYLE_ASSIGNMENT((#292));
#274=SURFACE_STYLE_USAGE(.BOTH.,#293);
#275=SURFACE_STYLE_USAGE(.BOTH.,#294);
#276=SURFACE_STYLE_USAGE(.BOTH.,#295);
#277=SURFACE_STYLE_USAGE(.BOTH.,#296);
#278=SURFACE_STYLE_USAGE(.BOTH.,#297);
#279=SURFACE_STYLE_USAGE(.BOTH.,#298);
#280=SURFACE_STYLE_USAGE(.BOTH.,#299);
#281=SURFACE_STYLE_USAGE(.BOTH.,#300);
#282=SURFACE_STYLE_USAGE(.BOTH.,#301);
#283=SURFACE_STYLE_USAGE(.BOTH.,#302);
#284=SURFACE_STYLE_USAGE(.BOTH.,#303);
#285=SURFACE_STYLE_USAGE(.BOTH.,#304);
#286=SURFACE_STYLE_USAGE(.BOTH.,#305);
#287=SURFACE_STYLE_USAGE(.BOTH.,#306);
#288=SURFACE_STYLE_USAGE(.BOTH.,#307);
#289=SURFACE_STYLE_USAGE(.BOTH.,#308);
#290=SURFACE_STYLE_USAGE(.BOTH.,#309);
#291=SURFACE_STYLE_USAGE(.BOTH.,#310);
#292=SURFACE_STYLE_USAGE(.BOTH.,#311);
#293=SURFACE_SIDE_STYLE('',(#312));
#294=SURFACE_SIDE_STYLE('',(#313));
#295=SURFACE_SIDE_STYLE('',(#314));
#296=SURFACE_SIDE_STYLE('',(#315));
#297=SURFACE_SIDE_STYLE('',(#316));
#298=SURFACE_SIDE_STYLE('',(#317));
#299=SURFACE_SIDE_STYLE('',(#318));
#300=SURFACE_SIDE_STYLE('',(#319));
#301=SURFACE_SIDE_STYLE('',(#320));
#302=SURFACE_SIDE_STYLE('',(#321));
#303=SURFACE_SIDE_STYLE('',(#322));
#304=SURFACE_SIDE_STYLE('',(#323));
#305=SURFACE_SIDE_STYLE('',(#324));
#306=SURFACE_SIDE_STYLE('',(#325));
#307=SURFACE_SIDE_STYLE('',(#326));
#308=SURFACE_SIDE_STYLE('',(#327));
#309=SURFACE_SIDE_STYLE('',(#328));
#310=SURFACE_SIDE_STYLE('',(#329));
#311=SURFACE_SIDE_STYLE('',(#330));
#312=SURFACE_STYLE_FILL_AREA(#331);
#313=SURFACE_STYLE_FILL_AREA(#332);
#314=SURFACE_STYLE_FILL_AREA(#333);
#315=SURFACE_STYLE_FILL_AREA(#334);
#316=SURFACE_STYLE_FILL_AREA(#335);
#317=SURFACE_STYLE_FILL_AREA(#336);
#318=SURFACE_STYLE_FILL_AREA(#337);
#319=SURFACE_STYLE_FILL_AREA(#338);
#320=SURFACE_STYLE_FILL_AREA(#339);
#321=SURFACE_STYLE_FILL_AREA(#340);
#322=SURFACE_STYLE_FILL_AREA(#341);
#323=SURFACE_STYLE_FILL_AREA(#342);
#324=SURFACE_STYLE_FILL_AREA(#343);
#325=SURFACE_STYLE_FILL_AREA(#344);
#326=SURFACE_STYLE_FILL_AREA(#345);
#327=SURFACE_STYLE_FILL_AREA(#346);
#328=SURFACE_STYLE_FILL_AREA(#347);
#329=SURFACE_STYLE_FILL_AREA(#348);
#330=SURFACE_STYLE_FILL_AREA(#349);
#331=FILL_AREA_STYLE('',(#350));
#332=FILL_AREA_STYLE('',(#351));
#333=FILL_AREA_STYLE('',(#352));
#334=FILL_AREA_STYLE('',(#353));
#335=FILL_AREA_STYLE('',(#354));
#336=FILL_AREA_STYLE('',(#355));
#337=FILL_AREA_STYLE('',(#356));
#338=FILL_AREA_STYLE('',(#357));
#339=FILL_AREA_STYLE('',(#358));
#340=FILL_AREA_STYLE('',(#359));
#341=FILL_AREA_STYLE('',(#360));
#342=FILL_AREA_STYLE('',(#361));
#343=FILL_AREA_STYLE('',(#362));
#344=FILL_AREA_STYLE('',(#363));
#345=FILL_AREA_STYLE('',(#364));
#346=FILL_AREA_STYLE('',(#365));
#347=FILL_AREA_STYLE('',(#366));
#348=FILL_AREA_STYLE('',(#367));
#349=FILL_AREA_STYLE('',(#368));
#350=FILL_AREA_STYLE_COLOUR('',#369);
#351=FILL_AREA_STYLE_COLOUR('',#369);
#352=FILL_AREA_STYLE_COLOUR('',#370);
#353=FILL_AREA_STYLE_COLOUR('',#369);
#354=FILL_AREA_STYLE_COLOUR('',#369);
#355=FILL_AREA_STYLE_COLOUR('',#370);
#356=FILL_AREA_STYLE_COLOUR('',#369);
#357=FILL_AREA_STYLE_COLOUR('',#369);
#358=FILL_AREA_STYLE_COLOUR('',#369);
#359=FILL_AREA_STYLE_COLOUR('',#369);
#360=FILL_AREA_STYLE_COLOUR('',#369);
#361=FILL_AREA_STYLE_COLOUR('',#369);
#362=FILL_AREA_STYLE_COLOUR('',#369);
#363=FILL_AREA_STYLE_COLOUR('',#369);
#364=FILL_AREA_STYLE_COLOUR('',#369);
#365=FILL_AREA_STYLE_COLOUR('',#369);
#366=FILL_AREA_STYLE_COLOUR('',#369);
#367=FILL_AREA_STYLE_COLOUR('',#369);
#368=FILL_AREA_STYLE_COLOUR('',#370);
#369=COLOUR_RGB('',0.506983280181885,0.531564235687256,0.550000011920929);
#370=COLOUR_RGB('',0.1875,0.75,0.581249892711639);
#371=ADVANCED_FACE('',(#193),#225,.F.);
#372=ADVANCED_FACE('',(#194,#195),#44,.F.);
#373=ADVANCED_FACE('',(#196,#197),#45,.F.);
#374=ADVANCED_FACE('',(#198),#226,.F.);
#375=ADVANCED_FACE('',(#199,#200),#46,.F.);
#376=ADVANCED_FACE('',(#201,#202),#47,.F.);
#377=ADVANCED_FACE('',(#203,#204),#227,.T.);
#378=ADVANCED_FACE('',(#205,#206),#228,.T.);
#379=ADVANCED_FACE('',(#207,#208),#229,.T.);
#380=ADVANCED_FACE('',(#209,#210),#230,.T.);
#381=ADVANCED_FACE('',(#211),#231,.F.);
#382=ADVANCED_FACE('',(#212),#232,.T.);
#383=ADVANCED_FACE('',(#213),#233,.F.);
#384=ADVANCED_FACE('',(#214,#215),#48,.F.);
#385=ADVANCED_FACE('',(#216,#217),#234,.F.);
#386=ADVANCED_FACE('',(#218,#219),#49,.F.);
#387=ADVANCED_FACE('',(#220),#235,.F.);
#388=ADVANCED_FACE('',(#221,#222),#50,.F.);
#389=ADVANCED_FACE('',(#223,#224),#51,.F.);
#390=CLOSED_SHELL('',(#371,#372,#373,#374,#375,#376,#377,#378,#379,#380,
#381,#382,#383,#384,#385,#386,#387,#388,#389));
#391=MANIFOLD_SOLID_BREP('',#390);
#392=SHAPE_DEFINITION_REPRESENTATION(#577,#393);
#393=SHAPE_REPRESENTATION('6.09.12',(#394),#572);
#394=AXIS2_PLACEMENT_3D('',#505,#427,#428);
#395=AXIS2_PLACEMENT_3D('',#506,#429,#430);
#396=AXIS2_PLACEMENT_3D('',#507,#431,#432);
#397=AXIS2_PLACEMENT_3D('',#509,#433,#434);
#398=AXIS2_PLACEMENT_3D('',#510,#435,#436);
#399=AXIS2_PLACEMENT_3D('',#512,#437,#438);
#400=AXIS2_PLACEMENT_3D('',#513,#439,#440);
#401=AXIS2_PLACEMENT_3D('',#515,#441,#442);
#402=AXIS2_PLACEMENT_3D('',#516,#443,#444);
#403=AXIS2_PLACEMENT_3D('',#518,#445,#446);
#404=AXIS2_PLACEMENT_3D('',#519,#447,#448);
#405=AXIS2_PLACEMENT_3D('',#521,#449,#450);
#406=AXIS2_PLACEMENT_3D('',#522,#451,#452);
#407=AXIS2_PLACEMENT_3D('',#524,#453,#454);
#408=AXIS2_PLACEMENT_3D('',#533,#459,#460);
#409=AXIS2_PLACEMENT_3D('',#534,#461,#462);
#410=AXIS2_PLACEMENT_3D('',#541,#466,#467);
#411=AXIS2_PLACEMENT_3D('',#547,#471,#472);
#412=AXIS2_PLACEMENT_3D('',#548,#473,#474);
#413=AXIS2_PLACEMENT_3D('',#552,#477,#478);
#414=AXIS2_PLACEMENT_3D('',#553,#479,#480);
#415=AXIS2_PLACEMENT_3D('',#554,#481,#482);
#416=AXIS2_PLACEMENT_3D('',#555,#483,#484);
#417=AXIS2_PLACEMENT_3D('',#557,#485,#486);
#418=AXIS2_PLACEMENT_3D('',#558,#487,#488);
#419=AXIS2_PLACEMENT_3D('',#559,#489,#490);
#420=AXIS2_PLACEMENT_3D('',#561,#491,#492);
#421=AXIS2_PLACEMENT_3D('',#563,#493,#494);
#422=AXIS2_PLACEMENT_3D('',#564,#495,#496);
#423=AXIS2_PLACEMENT_3D('',#565,#497,#498);
#424=AXIS2_PLACEMENT_3D('',#567,#499,#500);
#425=AXIS2_PLACEMENT_3D('',#568,#501,#502);
#426=AXIS2_PLACEMENT_3D('',#570,#503,#504);
#427=DIRECTION('',(0.,0.,1.));
#428=DIRECTION('',(1.,0.,0.));
#429=DIRECTION('',(-1.,0.,0.));
#430=DIRECTION('',(0.,0.,1.));
#431=DIRECTION('',(1.,0.,0.));
#432=DIRECTION('',(0.,0.,-1.));
#433=DIRECTION('',(-1.,0.,0.));
#434=DIRECTION('',(0.,0.,-1.));
#435=DIRECTION('',(1.,0.,0.));
#436=DIRECTION('',(0.,0.,-1.));
#437=DIRECTION('',(-1.,0.,0.));
#438=DIRECTION('',(0.,0.,-1.));
#439=DIRECTION('',(1.,0.,0.));
#440=DIRECTION('',(0.,0.,-1.));
#441=DIRECTION('',(1.,0.,0.));
#442=DIRECTION('',(0.,0.,-1.));
#443=DIRECTION('',(-1.,0.,0.));
#444=DIRECTION('',(0.,0.,1.));
#445=DIRECTION('',(1.,0.,0.));
#446=DIRECTION('',(0.,0.,1.));
#447=DIRECTION('',(-1.,0.,0.));
#448=DIRECTION('',(0.,0.,1.));
#449=DIRECTION('',(1.,0.,0.));
#450=DIRECTION('',(0.,0.,1.));
#451=DIRECTION('',(-1.,0.,0.));
#452=DIRECTION('',(0.,0.,1.));
#453=DIRECTION('',(-1.,0.,0.));
#454=DIRECTION('',(0.,0.,1.));
#455=DIRECTION('',(0.,0.,-1.));
#456=DIRECTION('',(0.,-1.,0.));
#457=DIRECTION('',(0.,0.,-1.));
#458=DIRECTION('',(0.,-1.,0.));
#459=DIRECTION('',(0.,0.,-1.));
#460=DIRECTION('',(-1.,0.,0.));
#461=DIRECTION('',(0.,0.,1.));
#462=DIRECTION('',(0.,1.,0.));
#463=DIRECTION('',(1.,0.,0.));
#464=DIRECTION('',(1.,0.,0.));
#465=DIRECTION('',(0.,-1.,0.));
#466=DIRECTION('',(1.,0.,0.));
#467=DIRECTION('',(0.,0.,-1.));
#468=DIRECTION('',(0.,0.,1.));
#469=DIRECTION('',(0.,0.,1.));
#470=DIRECTION('',(0.,-1.,0.));
#471=DIRECTION('',(0.,0.,1.));
#472=DIRECTION('',(1.,0.,0.));
#473=DIRECTION('',(0.,0.,-1.));
#474=DIRECTION('',(1.,0.,0.));
#475=DIRECTION('',(-1.,0.,0.));
#476=DIRECTION('',(-1.,0.,0.));
#477=DIRECTION('',(0.,-1.,0.));
#478=DIRECTION('',(0.,0.,-1.));
#479=DIRECTION('',(0.,-1.,0.));
#480=DIRECTION('',(0.,0.,-1.));
#481=DIRECTION('',(0.,0.,1.));
#482=DIRECTION('',(1.,0.,0.));
#483=DIRECTION('',(0.,0.,-1.));
#484=DIRECTION('',(0.,1.,0.));
#485=DIRECTION('',(0.,0.,1.));
#486=DIRECTION('',(0.,1.,0.));
#487=DIRECTION('',(0.,0.,-1.));
#488=DIRECTION('',(-1.,0.,0.));
#489=DIRECTION('',(0.,0.,-1.));
#490=DIRECTION('',(1.,0.,0.));
#491=DIRECTION('',(0.,0.,-1.));
#492=DIRECTION('',(-1.,0.,0.));
#493=DIRECTION('',(0.,0.,1.));
#494=DIRECTION('',(1.,0.,0.));
#495=DIRECTION('',(0.,0.,-1.));
#496=DIRECTION('',(-1.,0.,0.));
#497=DIRECTION('',(0.,0.,1.));
#498=DIRECTION('',(0.,-1.,0.));
#499=DIRECTION('',(0.,0.,-1.));
#500=DIRECTION('',(0.,-1.,0.));
#501=DIRECTION('',(0.,0.,1.));
#502=DIRECTION('',(0.,-1.,0.));
#503=DIRECTION('',(0.,0.,-1.));
#504=DIRECTION('',(0.,-1.,0.));
#505=CARTESIAN_POINT('',(0.,0.,0.));
#506=CARTESIAN_POINT('',(15.,15.,2.));
#507=CARTESIAN_POINT('',(15.,15.,2.));
#508=CARTESIAN_POINT('',(15.,15.,-7.3155));
#509=CARTESIAN_POINT('',(30.,15.,2.));
#510=CARTESIAN_POINT('',(28.,15.,2.));
#511=CARTESIAN_POINT('',(28.,15.,-7.3155));
#512=CARTESIAN_POINT('',(30.,15.,2.));
#513=CARTESIAN_POINT('',(30.,15.,2.));
#514=CARTESIAN_POINT('',(30.,15.,-7.3155));
#515=CARTESIAN_POINT('',(-15.,15.,-14.));
#516=CARTESIAN_POINT('',(-15.,15.,-14.));
#517=CARTESIAN_POINT('',(-15.,15.,-4.6845));
#518=CARTESIAN_POINT('',(-30.,15.,-14.));
#519=CARTESIAN_POINT('',(-28.,15.,-14.));
#520=CARTESIAN_POINT('',(-28.,15.,-4.6845));
#521=CARTESIAN_POINT('',(-30.,15.,-14.));
#522=CARTESIAN_POINT('',(-30.,15.,-14.));
#523=CARTESIAN_POINT('',(-30.,15.,-4.6845));
#524=CARTESIAN_POINT('',(-30.,30.,34.));
#525=CARTESIAN_POINT('',(-30.,0.,34.));
#526=CARTESIAN_POINT('',(-30.,0.,34.));
#527=CARTESIAN_POINT('',(-30.,0.,-34.));
#528=CARTESIAN_POINT('',(-30.,30.,34.));
#529=CARTESIAN_POINT('',(-30.,30.,34.));
#530=CARTESIAN_POINT('',(-30.,30.,34.));
#531=CARTESIAN_POINT('',(-30.,30.,-34.));
#532=CARTESIAN_POINT('',(-30.,30.,-34.));
#533=CARTESIAN_POINT('',(-30.,30.,-34.));
#534=CARTESIAN_POINT('',(0.,15.,-34.));
#535=CARTESIAN_POINT('',(0.,15.75,-34.));
#536=CARTESIAN_POINT('',(-30.,0.,-34.));
#537=CARTESIAN_POINT('',(30.,0.,-34.));
#538=CARTESIAN_POINT('',(-30.,30.,-34.));
#539=CARTESIAN_POINT('',(30.,30.,-34.));
#540=CARTESIAN_POINT('',(30.,30.,-34.));
#541=CARTESIAN_POINT('',(30.,30.,-34.));
#542=CARTESIAN_POINT('',(30.,0.,-34.));
#543=CARTESIAN_POINT('',(30.,0.,34.));
#544=CARTESIAN_POINT('',(30.,30.,-34.));
#545=CARTESIAN_POINT('',(30.,30.,34.));
#546=CARTESIAN_POINT('',(30.,30.,34.));
#547=CARTESIAN_POINT('',(30.,30.,34.));
#548=CARTESIAN_POINT('',(0.,15.,34.));
#549=CARTESIAN_POINT('',(6.65,15.,34.));
#550=CARTESIAN_POINT('',(30.,0.,34.));
#551=CARTESIAN_POINT('',(30.,30.,34.));
#552=CARTESIAN_POINT('',(0.,30.,0.));
#553=CARTESIAN_POINT('',(0.,0.,0.));
#554=CARTESIAN_POINT('',(0.,15.,-29.));
#555=CARTESIAN_POINT('',(0.,15.,-29.));
#556=CARTESIAN_POINT('',(0.,15.75,-29.));
#557=CARTESIAN_POINT('',(0.,15.,-34.));
#558=CARTESIAN_POINT('',(0.,15.,33.6));
#559=CARTESIAN_POINT('',(0.,15.,33.6));
#560=CARTESIAN_POINT('',(6.65,15.,33.6));
#561=CARTESIAN_POINT('',(0.,15.,33.6));
#562=CARTESIAN_POINT('',(-4.283,15.,33.6));
#563=CARTESIAN_POINT('',(0.,15.,33.6));
#564=CARTESIAN_POINT('',(0.,15.,24.6));
#565=CARTESIAN_POINT('',(0.,15.,24.6));
#566=CARTESIAN_POINT('',(0.,10.717,24.6));
#567=CARTESIAN_POINT('',(0.,15.,33.6));
#568=CARTESIAN_POINT('',(0.,15.,31.6));
#569=CARTESIAN_POINT('',(0.,10.717,31.6));
#570=CARTESIAN_POINT('',(0.,15.,33.6));
#571=MECHANICAL_DESIGN_GEOMETRIC_PRESENTATION_REPRESENTATION('',(#236,#237,
#238,#239,#240,#241,#242,#243,#244,#245,#246,#247,#248,#249,#250,#251,#252,
#253,#254),#572);
#572=(
GEOMETRIC_REPRESENTATION_CONTEXT(3)
GLOBAL_UNCERTAINTY_ASSIGNED_CONTEXT((#573))
GLOBAL_UNIT_ASSIGNED_CONTEXT((#576,#575,#574))
REPRESENTATION_CONTEXT('6.09.12','TOP_LEVEL_ASSEMBLY_PART')
);
#573=UNCERTAINTY_MEASURE_WITH_UNIT(LENGTH_MEASURE(0.005),#576,
'DISTANCE_ACCURACY_VALUE','Maximum Tolerance applied to model');
#574=(
NAMED_UNIT(*)
SI_UNIT($,.STERADIAN.)
SOLID_ANGLE_UNIT()
);
#575=(
NAMED_UNIT(*)
PLANE_ANGLE_UNIT()
SI_UNIT($,.RADIAN.)
);
#576=(
LENGTH_UNIT()
NAMED_UNIT(*)
SI_UNIT(.MILLI.,.METRE.)
);
#577=PRODUCT_DEFINITION_SHAPE('','',#578);
#578=PRODUCT_DEFINITION('','',#580,#579);
#579=PRODUCT_DEFINITION_CONTEXT('',#586,'design');
#580=PRODUCT_DEFINITION_FORMATION_WITH_SPECIFIED_SOURCE('','',#582,
 .NOT_KNOWN.);
#581=PRODUCT_RELATED_PRODUCT_CATEGORY('','',(#582));
#582=PRODUCT('6.09.12','6.09.12','6.09.12',(#584));
#583=PRODUCT_CATEGORY('','');
#584=PRODUCT_CONTEXT('',#586,'mechanical');
#585=APPLICATION_PROTOCOL_DEFINITION('international standard',
'automotive_design',2010,#586);
#586=APPLICATION_CONTEXT(
'core data for automotive mechanical design processes');
ENDSEC;
END-ISO-10303-21;
