ISO-10303-21;
HEADER;
/* Generated by software containing ST-Developer
 * from STEP Tools, Inc. (www.steptools.com) 
 */

FILE_DESCRIPTION(
/* description */ ('VALVOLA di BLOCCO 1/4"  T.Nuovo'),
/* implementation_level */ '2;1');

FILE_NAME(
/* name */ 'C:\\Users\\maniean1\\Desktop\\6_09_14_UN.stp',
/* time_stamp */ '2017-10-04T08:22:26+02:00',
/* author */ ('Maniean1'),
/* organization */ ('Pneumax S.p.A.'),
/* preprocessor_version */ 'ST-DEVELOPER v16.5',
/* originating_system */ 'Autodesk Inventor 2017',
/* authorisation */ '');

FILE_SCHEMA (('AUTOMOTIVE_DESIGN { 1 0 10303 214 3 1 1 }'));
ENDSEC;

DATA;
#10=MECHANICAL_DESIGN_GEOMETRIC_PRESENTATION_REPRESENTATION('',(#249,#245,
#246,#247,#248,#250,#251,#252),#446);
#11=SHAPE_REPRESENTATION_RELATIONSHIP('SRR','None',#455,#12);
#12=ADVANCED_BREP_SHAPE_REPRESENTATION('',(#13),#445);
#13=MANIFOLD_SOLID_BREP('Solido1',#270);
#14=LINE('',#383,#38);
#15=LINE('',#385,#39);
#16=LINE('',#387,#40);
#17=LINE('',#388,#41);
#18=LINE('',#391,#42);
#19=LINE('',#393,#43);
#20=LINE('',#394,#44);
#21=LINE('',#397,#45);
#22=LINE('',#399,#46);
#23=LINE('',#400,#47);
#24=LINE('',#402,#48);
#25=LINE('',#403,#49);
#26=LINE('',#420,#50);
#27=LINE('',#422,#51);
#28=LINE('',#424,#52);
#29=LINE('',#425,#53);
#30=LINE('',#428,#54);
#31=LINE('',#430,#55);
#32=LINE('',#431,#56);
#33=LINE('',#434,#57);
#34=LINE('',#436,#58);
#35=LINE('',#437,#59);
#36=LINE('',#439,#60);
#37=LINE('',#440,#61);
#38=VECTOR('',#313,10.);
#39=VECTOR('',#314,10.);
#40=VECTOR('',#315,10.);
#41=VECTOR('',#316,10.);
#42=VECTOR('',#319,10.);
#43=VECTOR('',#320,10.);
#44=VECTOR('',#321,10.);
#45=VECTOR('',#324,10.);
#46=VECTOR('',#325,10.);
#47=VECTOR('',#326,10.);
#48=VECTOR('',#329,10.);
#49=VECTOR('',#330,10.);
#50=VECTOR('',#351,10.);
#51=VECTOR('',#352,10.);
#52=VECTOR('',#353,10.);
#53=VECTOR('',#354,10.);
#54=VECTOR('',#357,10.);
#55=VECTOR('',#358,10.);
#56=VECTOR('',#359,10.);
#57=VECTOR('',#362,10.);
#58=VECTOR('',#363,10.);
#59=VECTOR('',#364,10.);
#60=VECTOR('',#367,10.);
#61=VECTOR('',#368,10.);
#62=PLANE('',#281);
#63=PLANE('',#282);
#64=PLANE('',#283);
#65=PLANE('',#284);
#66=PLANE('',#285);
#67=PLANE('',#286);
#68=PLANE('',#290);
#69=PLANE('',#294);
#70=PLANE('',#295);
#71=PLANE('',#296);
#72=PLANE('',#297);
#73=PLANE('',#298);
#74=PLANE('',#299);
#75=PLANE('',#300);
#76=FACE_BOUND('',#101,.T.);
#77=FACE_BOUND('',#108,.T.);
#78=FACE_BOUND('',#110,.T.);
#79=FACE_BOUND('',#113,.T.);
#80=FACE_BOUND('',#116,.T.);
#81=FACE_BOUND('',#119,.T.);
#82=FACE_BOUND('',#122,.T.);
#83=FACE_OUTER_BOUND('',#100,.T.);
#84=FACE_OUTER_BOUND('',#102,.T.);
#85=FACE_OUTER_BOUND('',#103,.T.);
#86=FACE_OUTER_BOUND('',#104,.T.);
#87=FACE_OUTER_BOUND('',#105,.T.);
#88=FACE_OUTER_BOUND('',#106,.T.);
#89=FACE_OUTER_BOUND('',#107,.T.);
#90=FACE_OUTER_BOUND('',#109,.T.);
#91=FACE_OUTER_BOUND('',#111,.T.);
#92=FACE_OUTER_BOUND('',#112,.T.);
#93=FACE_OUTER_BOUND('',#114,.T.);
#94=FACE_OUTER_BOUND('',#115,.T.);
#95=FACE_OUTER_BOUND('',#117,.T.);
#96=FACE_OUTER_BOUND('',#118,.T.);
#97=FACE_OUTER_BOUND('',#120,.T.);
#98=FACE_OUTER_BOUND('',#121,.T.);
#99=FACE_OUTER_BOUND('',#123,.T.);
#100=EDGE_LOOP('',(#182));
#101=EDGE_LOOP('',(#183));
#102=EDGE_LOOP('',(#184));
#103=EDGE_LOOP('',(#185,#186,#187,#188));
#104=EDGE_LOOP('',(#189,#190,#191,#192));
#105=EDGE_LOOP('',(#193,#194,#195,#196));
#106=EDGE_LOOP('',(#197,#198,#199,#200));
#107=EDGE_LOOP('',(#201,#202,#203,#204));
#108=EDGE_LOOP('',(#205));
#109=EDGE_LOOP('',(#206));
#110=EDGE_LOOP('',(#207));
#111=EDGE_LOOP('',(#208));
#112=EDGE_LOOP('',(#209));
#113=EDGE_LOOP('',(#210));
#114=EDGE_LOOP('',(#211));
#115=EDGE_LOOP('',(#212,#213,#214,#215));
#116=EDGE_LOOP('',(#216));
#117=EDGE_LOOP('',(#217,#218,#219,#220));
#118=EDGE_LOOP('',(#221,#222,#223,#224));
#119=EDGE_LOOP('',(#225));
#120=EDGE_LOOP('',(#226,#227,#228,#229));
#121=EDGE_LOOP('',(#230,#231,#232,#233));
#122=EDGE_LOOP('',(#234,#235,#236,#237));
#123=EDGE_LOOP('',(#238,#239,#240,#241));
#124=CIRCLE('',#279,4.283);
#125=CIRCLE('',#280,4.283);
#126=CIRCLE('',#288,5.7225);
#127=CIRCLE('',#289,5.7225);
#128=CIRCLE('',#292,5.7225);
#129=CIRCLE('',#293,5.7225);
#130=VERTEX_POINT('',#375);
#131=VERTEX_POINT('',#377);
#132=VERTEX_POINT('',#381);
#133=VERTEX_POINT('',#382);
#134=VERTEX_POINT('',#384);
#135=VERTEX_POINT('',#386);
#136=VERTEX_POINT('',#390);
#137=VERTEX_POINT('',#392);
#138=VERTEX_POINT('',#396);
#139=VERTEX_POINT('',#398);
#140=VERTEX_POINT('',#406);
#141=VERTEX_POINT('',#408);
#142=VERTEX_POINT('',#412);
#143=VERTEX_POINT('',#414);
#144=VERTEX_POINT('',#418);
#145=VERTEX_POINT('',#419);
#146=VERTEX_POINT('',#421);
#147=VERTEX_POINT('',#423);
#148=VERTEX_POINT('',#427);
#149=VERTEX_POINT('',#429);
#150=VERTEX_POINT('',#433);
#151=VERTEX_POINT('',#435);
#152=EDGE_CURVE('',#130,#130,#124,.T.);
#153=EDGE_CURVE('',#131,#131,#125,.T.);
#154=EDGE_CURVE('',#132,#133,#14,.T.);
#155=EDGE_CURVE('',#134,#133,#15,.T.);
#156=EDGE_CURVE('',#135,#134,#16,.T.);
#157=EDGE_CURVE('',#135,#132,#17,.T.);
#158=EDGE_CURVE('',#133,#136,#18,.T.);
#159=EDGE_CURVE('',#137,#136,#19,.T.);
#160=EDGE_CURVE('',#134,#137,#20,.T.);
#161=EDGE_CURVE('',#136,#138,#21,.T.);
#162=EDGE_CURVE('',#139,#138,#22,.T.);
#163=EDGE_CURVE('',#137,#139,#23,.T.);
#164=EDGE_CURVE('',#138,#132,#24,.T.);
#165=EDGE_CURVE('',#139,#135,#25,.T.);
#166=EDGE_CURVE('',#140,#140,#126,.T.);
#167=EDGE_CURVE('',#141,#141,#127,.T.);
#168=EDGE_CURVE('',#142,#142,#128,.T.);
#169=EDGE_CURVE('',#143,#143,#129,.T.);
#170=EDGE_CURVE('',#144,#145,#26,.T.);
#171=EDGE_CURVE('',#146,#145,#27,.T.);
#172=EDGE_CURVE('',#147,#146,#28,.T.);
#173=EDGE_CURVE('',#147,#144,#29,.T.);
#174=EDGE_CURVE('',#145,#148,#30,.T.);
#175=EDGE_CURVE('',#149,#148,#31,.T.);
#176=EDGE_CURVE('',#146,#149,#32,.T.);
#177=EDGE_CURVE('',#148,#150,#33,.T.);
#178=EDGE_CURVE('',#151,#150,#34,.T.);
#179=EDGE_CURVE('',#149,#151,#35,.T.);
#180=EDGE_CURVE('',#150,#144,#36,.T.);
#181=EDGE_CURVE('',#151,#147,#37,.T.);
#182=ORIENTED_EDGE('',*,*,#152,.F.);
#183=ORIENTED_EDGE('',*,*,#153,.F.);
#184=ORIENTED_EDGE('',*,*,#153,.T.);
#185=ORIENTED_EDGE('',*,*,#154,.T.);
#186=ORIENTED_EDGE('',*,*,#155,.F.);
#187=ORIENTED_EDGE('',*,*,#156,.F.);
#188=ORIENTED_EDGE('',*,*,#157,.T.);
#189=ORIENTED_EDGE('',*,*,#158,.T.);
#190=ORIENTED_EDGE('',*,*,#159,.F.);
#191=ORIENTED_EDGE('',*,*,#160,.F.);
#192=ORIENTED_EDGE('',*,*,#155,.T.);
#193=ORIENTED_EDGE('',*,*,#161,.T.);
#194=ORIENTED_EDGE('',*,*,#162,.F.);
#195=ORIENTED_EDGE('',*,*,#163,.F.);
#196=ORIENTED_EDGE('',*,*,#159,.T.);
#197=ORIENTED_EDGE('',*,*,#164,.T.);
#198=ORIENTED_EDGE('',*,*,#157,.F.);
#199=ORIENTED_EDGE('',*,*,#165,.F.);
#200=ORIENTED_EDGE('',*,*,#162,.T.);
#201=ORIENTED_EDGE('',*,*,#154,.F.);
#202=ORIENTED_EDGE('',*,*,#164,.F.);
#203=ORIENTED_EDGE('',*,*,#161,.F.);
#204=ORIENTED_EDGE('',*,*,#158,.F.);
#205=ORIENTED_EDGE('',*,*,#152,.T.);
#206=ORIENTED_EDGE('',*,*,#166,.F.);
#207=ORIENTED_EDGE('',*,*,#167,.F.);
#208=ORIENTED_EDGE('',*,*,#167,.T.);
#209=ORIENTED_EDGE('',*,*,#168,.F.);
#210=ORIENTED_EDGE('',*,*,#169,.F.);
#211=ORIENTED_EDGE('',*,*,#169,.T.);
#212=ORIENTED_EDGE('',*,*,#170,.T.);
#213=ORIENTED_EDGE('',*,*,#171,.F.);
#214=ORIENTED_EDGE('',*,*,#172,.F.);
#215=ORIENTED_EDGE('',*,*,#173,.T.);
#216=ORIENTED_EDGE('',*,*,#168,.T.);
#217=ORIENTED_EDGE('',*,*,#174,.T.);
#218=ORIENTED_EDGE('',*,*,#175,.F.);
#219=ORIENTED_EDGE('',*,*,#176,.F.);
#220=ORIENTED_EDGE('',*,*,#171,.T.);
#221=ORIENTED_EDGE('',*,*,#177,.T.);
#222=ORIENTED_EDGE('',*,*,#178,.F.);
#223=ORIENTED_EDGE('',*,*,#179,.F.);
#224=ORIENTED_EDGE('',*,*,#175,.T.);
#225=ORIENTED_EDGE('',*,*,#166,.T.);
#226=ORIENTED_EDGE('',*,*,#180,.T.);
#227=ORIENTED_EDGE('',*,*,#173,.F.);
#228=ORIENTED_EDGE('',*,*,#181,.F.);
#229=ORIENTED_EDGE('',*,*,#178,.T.);
#230=ORIENTED_EDGE('',*,*,#170,.F.);
#231=ORIENTED_EDGE('',*,*,#180,.F.);
#232=ORIENTED_EDGE('',*,*,#177,.F.);
#233=ORIENTED_EDGE('',*,*,#174,.F.);
#234=ORIENTED_EDGE('',*,*,#156,.T.);
#235=ORIENTED_EDGE('',*,*,#160,.T.);
#236=ORIENTED_EDGE('',*,*,#163,.T.);
#237=ORIENTED_EDGE('',*,*,#165,.T.);
#238=ORIENTED_EDGE('',*,*,#181,.T.);
#239=ORIENTED_EDGE('',*,*,#172,.T.);
#240=ORIENTED_EDGE('',*,*,#176,.T.);
#241=ORIENTED_EDGE('',*,*,#179,.T.);
#242=CYLINDRICAL_SURFACE('',#278,4.283);
#243=CYLINDRICAL_SURFACE('',#287,5.7225);
#244=CYLINDRICAL_SURFACE('',#291,5.7225);
#245=STYLED_ITEM('',(#465),#253);
#246=STYLED_ITEM('',(#465),#254);
#247=STYLED_ITEM('',(#465),#255);
#248=STYLED_ITEM('',(#465),#256);
#249=STYLED_ITEM('',(#465),#257);
#250=STYLED_ITEM('',(#465),#258);
#251=STYLED_ITEM('',(#465),#259);
#252=STYLED_ITEM('',(#464),#13);
#253=ADVANCED_FACE('',(#83,#76),#242,.F.);
#254=ADVANCED_FACE('',(#84),#62,.T.);
#255=ADVANCED_FACE('',(#85),#63,.T.);
#256=ADVANCED_FACE('',(#86),#64,.T.);
#257=ADVANCED_FACE('',(#87),#65,.T.);
#258=ADVANCED_FACE('',(#88),#66,.T.);
#259=ADVANCED_FACE('',(#89,#77),#67,.T.);
#260=ADVANCED_FACE('',(#90,#78),#243,.F.);
#261=ADVANCED_FACE('',(#91),#68,.T.);
#262=ADVANCED_FACE('',(#92,#79),#244,.F.);
#263=ADVANCED_FACE('',(#93),#69,.T.);
#264=ADVANCED_FACE('',(#94,#80),#70,.T.);
#265=ADVANCED_FACE('',(#95),#71,.T.);
#266=ADVANCED_FACE('',(#96,#81),#72,.T.);
#267=ADVANCED_FACE('',(#97),#73,.T.);
#268=ADVANCED_FACE('',(#98,#82),#74,.T.);
#269=ADVANCED_FACE('',(#99),#75,.F.);
#270=CLOSED_SHELL('',(#253,#254,#255,#256,#257,#258,#259,#260,#261,#262,
#263,#264,#265,#266,#267,#268,#269));
#271=DATE_TIME_ROLE('creation_date');
#272=APPLIED_DATE_AND_TIME_ASSIGNMENT(#273,#271,(#457));
#273=DATE_AND_TIME(#274,#275);
#274=CALENDAR_DATE(2007,24,4);
#275=LOCAL_TIME(6,49,34.,#276);
#276=COORDINATED_UNIVERSAL_TIME_OFFSET(0,0,.BEHIND.);
#277=AXIS2_PLACEMENT_3D('placement',#373,#301,#302);
#278=AXIS2_PLACEMENT_3D('',#374,#303,#304);
#279=AXIS2_PLACEMENT_3D('',#376,#305,#306);
#280=AXIS2_PLACEMENT_3D('',#378,#307,#308);
#281=AXIS2_PLACEMENT_3D('',#379,#309,#310);
#282=AXIS2_PLACEMENT_3D('',#380,#311,#312);
#283=AXIS2_PLACEMENT_3D('',#389,#317,#318);
#284=AXIS2_PLACEMENT_3D('',#395,#322,#323);
#285=AXIS2_PLACEMENT_3D('',#401,#327,#328);
#286=AXIS2_PLACEMENT_3D('',#404,#331,#332);
#287=AXIS2_PLACEMENT_3D('',#405,#333,#334);
#288=AXIS2_PLACEMENT_3D('',#407,#335,#336);
#289=AXIS2_PLACEMENT_3D('',#409,#337,#338);
#290=AXIS2_PLACEMENT_3D('',#410,#339,#340);
#291=AXIS2_PLACEMENT_3D('',#411,#341,#342);
#292=AXIS2_PLACEMENT_3D('',#413,#343,#344);
#293=AXIS2_PLACEMENT_3D('',#415,#345,#346);
#294=AXIS2_PLACEMENT_3D('',#416,#347,#348);
#295=AXIS2_PLACEMENT_3D('',#417,#349,#350);
#296=AXIS2_PLACEMENT_3D('',#426,#355,#356);
#297=AXIS2_PLACEMENT_3D('',#432,#360,#361);
#298=AXIS2_PLACEMENT_3D('',#438,#365,#366);
#299=AXIS2_PLACEMENT_3D('',#441,#369,#370);
#300=AXIS2_PLACEMENT_3D('',#442,#371,#372);
#301=DIRECTION('axis',(0.,0.,1.));
#302=DIRECTION('refdir',(1.,0.,0.));
#303=DIRECTION('center_axis',(4.41570782030813E-32,1.17763985234483E-31,
1.));
#304=DIRECTION('ref_axis',(1.,-5.20011350550559E-63,-4.41570782030813E-32));
#305=DIRECTION('center_axis',(-4.41570782030813E-32,-1.17763985234483E-31,
-1.));
#306=DIRECTION('ref_axis',(1.,-5.20011350550559E-63,-4.41570782030813E-32));
#307=DIRECTION('center_axis',(4.41570782030813E-32,1.17763985234483E-31,
1.));
#308=DIRECTION('ref_axis',(1.,-5.20011350550559E-63,-4.41570782030813E-32));
#309=DIRECTION('center_axis',(4.41570782030813E-32,1.17763985234483E-31,
1.));
#310=DIRECTION('ref_axis',(1.,0.,0.));
#311=DIRECTION('center_axis',(1.,0.,0.));
#312=DIRECTION('ref_axis',(0.,0.,-1.));
#313=DIRECTION('',(0.,-1.,0.));
#314=DIRECTION('',(0.,0.,1.));
#315=DIRECTION('',(0.,-1.,0.));
#316=DIRECTION('',(0.,0.,1.));
#317=DIRECTION('center_axis',(-1.66541780782813E-16,-1.,0.));
#318=DIRECTION('ref_axis',(0.,0.,-1.));
#319=DIRECTION('',(-1.,1.66541780782813E-16,0.));
#320=DIRECTION('',(0.,0.,1.));
#321=DIRECTION('',(-1.,1.66541780782813E-16,0.));
#322=DIRECTION('center_axis',(-1.,2.22066811606192E-16,0.));
#323=DIRECTION('ref_axis',(0.,0.,1.));
#324=DIRECTION('',(2.22066811606192E-16,1.,0.));
#325=DIRECTION('',(0.,0.,1.));
#326=DIRECTION('',(2.22066811606192E-16,1.,0.));
#327=DIRECTION('center_axis',(-1.66541780782813E-16,1.,0.));
#328=DIRECTION('ref_axis',(0.,0.,1.));
#329=DIRECTION('',(1.,1.66541780782813E-16,0.));
#330=DIRECTION('',(1.,1.66541780782813E-16,0.));
#331=DIRECTION('center_axis',(4.41570782030813E-32,1.17763985234483E-31,
1.));
#332=DIRECTION('ref_axis',(1.,0.,0.));
#333=DIRECTION('center_axis',(-1.,0.,0.));
#334=DIRECTION('ref_axis',(0.,0.,1.));
#335=DIRECTION('center_axis',(1.,0.,0.));
#336=DIRECTION('ref_axis',(0.,0.,1.));
#337=DIRECTION('center_axis',(-1.,0.,0.));
#338=DIRECTION('ref_axis',(0.,0.,1.));
#339=DIRECTION('center_axis',(-1.,0.,0.));
#340=DIRECTION('ref_axis',(0.,0.,1.));
#341=DIRECTION('center_axis',(1.,0.,0.));
#342=DIRECTION('ref_axis',(0.,0.,-1.));
#343=DIRECTION('center_axis',(-1.,0.,0.));
#344=DIRECTION('ref_axis',(0.,0.,-1.));
#345=DIRECTION('center_axis',(1.,0.,0.));
#346=DIRECTION('ref_axis',(0.,0.,-1.));
#347=DIRECTION('center_axis',(1.,0.,0.));
#348=DIRECTION('ref_axis',(0.,0.,-1.));
#349=DIRECTION('center_axis',(1.,0.,0.));
#350=DIRECTION('ref_axis',(0.,0.,-1.));
#351=DIRECTION('',(0.,-1.,0.));
#352=DIRECTION('',(0.,0.,1.));
#353=DIRECTION('',(0.,-1.,0.));
#354=DIRECTION('',(0.,0.,1.));
#355=DIRECTION('center_axis',(-1.66533453693773E-16,-1.,0.));
#356=DIRECTION('ref_axis',(0.,0.,-1.));
#357=DIRECTION('',(-1.,1.66533453693773E-16,0.));
#358=DIRECTION('',(0.,0.,1.));
#359=DIRECTION('',(-1.,1.66533453693773E-16,0.));
#360=DIRECTION('center_axis',(-1.,0.,0.));
#361=DIRECTION('ref_axis',(0.,0.,1.));
#362=DIRECTION('',(0.,1.,0.));
#363=DIRECTION('',(0.,0.,1.));
#364=DIRECTION('',(0.,1.,0.));
#365=DIRECTION('center_axis',(-1.66533453693773E-16,1.,0.));
#366=DIRECTION('ref_axis',(0.,0.,1.));
#367=DIRECTION('',(1.,1.66533453693773E-16,0.));
#368=DIRECTION('',(1.,1.66533453693773E-16,0.));
#369=DIRECTION('center_axis',(0.,0.,1.));
#370=DIRECTION('ref_axis',(1.,0.,0.));
#371=DIRECTION('center_axis',(0.,0.,1.));
#372=DIRECTION('ref_axis',(1.,0.,0.));
#373=CARTESIAN_POINT('',(0.,0.,0.));
#374=CARTESIAN_POINT('Origin',(2.32928587521254E-30,6.212050221119E-30,
52.75));
#375=CARTESIAN_POINT('',(4.283,6.71254715836555E-30,57.));
#376=CARTESIAN_POINT('Origin',(2.51695345757563E-30,6.71254715836555E-30,
57.));
#377=CARTESIAN_POINT('',(4.283,5.71155328387244E-30,48.5));
#378=CARTESIAN_POINT('Origin',(2.14161829284944E-30,5.71155328387244E-30,
48.5));
#379=CARTESIAN_POINT('Origin',(2.14161829284944E-30,5.71155328387244E-30,
48.5));
#380=CARTESIAN_POINT('Origin',(19.999,9.99900000000001,36.));
#381=CARTESIAN_POINT('',(19.999,9.99900000000001,57.));
#382=CARTESIAN_POINT('',(19.999,-9.99900000000001,57.));
#383=CARTESIAN_POINT('',(19.999,9.99900000000001,57.));
#384=CARTESIAN_POINT('',(19.999,-9.99900000000001,36.));
#385=CARTESIAN_POINT('',(19.999,-9.99900000000001,36.));
#386=CARTESIAN_POINT('',(19.999,9.99900000000001,36.));
#387=CARTESIAN_POINT('',(19.999,4.9995,36.));
#388=CARTESIAN_POINT('',(19.999,9.99900000000001,36.));
#389=CARTESIAN_POINT('Origin',(19.999,-9.99900000000001,36.));
#390=CARTESIAN_POINT('',(-19.999,-9.999,57.));
#391=CARTESIAN_POINT('',(19.999,-9.99900000000001,57.));
#392=CARTESIAN_POINT('',(-19.999,-9.999,36.));
#393=CARTESIAN_POINT('',(-19.999,-9.999,36.));
#394=CARTESIAN_POINT('',(9.9995,-9.999,36.));
#395=CARTESIAN_POINT('Origin',(-19.999,-9.999,36.));
#396=CARTESIAN_POINT('',(-19.999,9.999,57.));
#397=CARTESIAN_POINT('',(-19.999,-9.999,57.));
#398=CARTESIAN_POINT('',(-19.999,9.999,36.));
#399=CARTESIAN_POINT('',(-19.999,9.999,36.));
#400=CARTESIAN_POINT('',(-19.999,-4.9995,36.));
#401=CARTESIAN_POINT('Origin',(-19.999,9.999,36.));
#402=CARTESIAN_POINT('',(-19.999,9.999,57.));
#403=CARTESIAN_POINT('',(-9.9995,9.999,36.));
#404=CARTESIAN_POINT('Origin',(2.77555756156289E-15,-1.11022302462516E-15,
57.));
#405=CARTESIAN_POINT('Origin',(-15.,0.,22.));
#406=CARTESIAN_POINT('',(-20.,0.,27.7225));
#407=CARTESIAN_POINT('Origin',(-20.,0.,22.));
#408=CARTESIAN_POINT('',(-10.,0.,27.7225));
#409=CARTESIAN_POINT('Origin',(-10.,0.,22.));
#410=CARTESIAN_POINT('Origin',(-10.,0.,22.));
#411=CARTESIAN_POINT('Origin',(15.,0.,12.5));
#412=CARTESIAN_POINT('',(20.,0.,6.7775));
#413=CARTESIAN_POINT('Origin',(20.,0.,12.5));
#414=CARTESIAN_POINT('',(10.,0.,6.7775));
#415=CARTESIAN_POINT('Origin',(10.,0.,12.5));
#416=CARTESIAN_POINT('Origin',(10.,0.,12.5));
#417=CARTESIAN_POINT('Origin',(20.,10.,0.));
#418=CARTESIAN_POINT('',(20.,10.,36.));
#419=CARTESIAN_POINT('',(20.,-10.,36.));
#420=CARTESIAN_POINT('',(20.,10.,36.));
#421=CARTESIAN_POINT('',(20.,-10.,0.));
#422=CARTESIAN_POINT('',(20.,-10.,0.));
#423=CARTESIAN_POINT('',(20.,10.,0.));
#424=CARTESIAN_POINT('',(20.,10.,0.));
#425=CARTESIAN_POINT('',(20.,10.,0.));
#426=CARTESIAN_POINT('Origin',(20.,-10.,0.));
#427=CARTESIAN_POINT('',(-20.,-10.,36.));
#428=CARTESIAN_POINT('',(20.,-10.,36.));
#429=CARTESIAN_POINT('',(-20.,-10.,0.));
#430=CARTESIAN_POINT('',(-20.,-10.,0.));
#431=CARTESIAN_POINT('',(20.,-10.,0.));
#432=CARTESIAN_POINT('Origin',(-20.,-10.,0.));
#433=CARTESIAN_POINT('',(-20.,10.,36.));
#434=CARTESIAN_POINT('',(-20.,-10.,36.));
#435=CARTESIAN_POINT('',(-20.,10.,0.));
#436=CARTESIAN_POINT('',(-20.,10.,0.));
#437=CARTESIAN_POINT('',(-20.,-10.,0.));
#438=CARTESIAN_POINT('Origin',(-20.,10.,0.));
#439=CARTESIAN_POINT('',(-20.,10.,36.));
#440=CARTESIAN_POINT('',(-20.,10.,0.));
#441=CARTESIAN_POINT('Origin',(2.22044604925031E-15,-4.54182146437564E-16,
36.));
#442=CARTESIAN_POINT('Origin',(2.22044604925031E-15,-4.54182146437564E-16,
0.));
#443=UNCERTAINTY_MEASURE_WITH_UNIT(LENGTH_MEASURE(0.01),#447,
'DISTANCE_ACCURACY_VALUE',
'Maximum model space distance between geometric entities at asserted c
onnectivities');
#444=UNCERTAINTY_MEASURE_WITH_UNIT(LENGTH_MEASURE(1.E-6),#447,
'DISTANCE_ACCURACY_VALUE',
'Maximum model space distance between geometric entities at asserted c
onnectivities');
#445=(
GEOMETRIC_REPRESENTATION_CONTEXT(3)
GLOBAL_UNCERTAINTY_ASSIGNED_CONTEXT((#443))
GLOBAL_UNIT_ASSIGNED_CONTEXT((#447,#450,#448))
REPRESENTATION_CONTEXT('','3D')
);
#446=(
GEOMETRIC_REPRESENTATION_CONTEXT(3)
GLOBAL_UNCERTAINTY_ASSIGNED_CONTEXT((#444))
GLOBAL_UNIT_ASSIGNED_CONTEXT((#447,#450,#448))
REPRESENTATION_CONTEXT('','3D')
);
#447=(
LENGTH_UNIT()
NAMED_UNIT(*)
SI_UNIT(.MILLI.,.METRE.)
);
#448=(
NAMED_UNIT(*)
SI_UNIT($,.STERADIAN.)
SOLID_ANGLE_UNIT()
);
#449=DIMENSIONAL_EXPONENTS(0.,0.,0.,0.,0.,0.,0.);
#450=(
CONVERSION_BASED_UNIT('degree',#452)
NAMED_UNIT(#449)
PLANE_ANGLE_UNIT()
);
#451=(
NAMED_UNIT(*)
PLANE_ANGLE_UNIT()
SI_UNIT($,.RADIAN.)
);
#452=PLANE_ANGLE_MEASURE_WITH_UNIT(PLANE_ANGLE_MEASURE(0.01745329252),#451);
#453=SHAPE_DEFINITION_REPRESENTATION(#454,#455);
#454=PRODUCT_DEFINITION_SHAPE('',$,#457);
#455=SHAPE_REPRESENTATION('',(#277),#445);
#456=PRODUCT_DEFINITION_CONTEXT('part definition',#461,'design');
#457=PRODUCT_DEFINITION('6.09.14.#N','6_09_14_#N',#458,#456);
#458=PRODUCT_DEFINITION_FORMATION('',$,#463);
#459=PRODUCT_RELATED_PRODUCT_CATEGORY('6_09_14_#N','6_09_14_#N',(#463));
#460=APPLICATION_PROTOCOL_DEFINITION('international standard',
'automotive_design',2009,#461);
#461=APPLICATION_CONTEXT(
'Core Data for Automotive Mechanical Design Process');
#462=PRODUCT_CONTEXT('part definition',#461,'mechanical');
#463=PRODUCT('6.09.14.#N','6_09_14_#N',
'VALVOLA di BLOCCO 1/4"  T.Nuovo',(#462));
#464=PRESENTATION_STYLE_ASSIGNMENT((#466));
#465=PRESENTATION_STYLE_ASSIGNMENT((#467));
#466=SURFACE_STYLE_USAGE(.BOTH.,#468);
#467=SURFACE_STYLE_USAGE(.BOTH.,#469);
#468=SURFACE_SIDE_STYLE('',(#470));
#469=SURFACE_SIDE_STYLE('',(#471));
#470=SURFACE_STYLE_FILL_AREA(#472);
#471=SURFACE_STYLE_FILL_AREA(#473);
#472=FILL_AREA_STYLE('',(#474));
#473=FILL_AREA_STYLE('',(#475));
#474=FILL_AREA_STYLE_COLOUR('',#476);
#475=FILL_AREA_STYLE_COLOUR('',#477);
#476=COLOUR_RGB('',0.749019607843137,0.603921568627451,0.227450980392157);
#477=COLOUR_RGB('',0.164705882352941,0.164705882352941,0.164705882352941);
ENDSEC;
END-ISO-10303-21;
