ISO-10303-21;
HEADER;
/* Generated by software containing ST-Developer
 * from STEP Tools, Inc. (www.steptools.com) 
 */
/* OPTION: using custom renumber hook */

FILE_DESCRIPTION(
/* description */ ('STEP AP214'),
/* implementation_level */ '2;1');

FILE_NAME(
/* name */ '12314L35',
/* time_stamp */ '2023-02-13T20:59:58+01:00',
/* author */ ('License CC BY-ND 4.0'),
/* organization */ ('CADENAS'),
/* preprocessor_version */ 'ST-DEVELOPER v18.102',
/* originating_system */ 'PARTsolutions',
/* authorisation */ '  ');

FILE_SCHEMA (('AUTOMOTIVE_DESIGN {1 0 10303 214 3 1 1}'));
ENDSEC;

DATA;
#10=PROPERTY_DEFINITION_REPRESENTATION(#14,#12);
#11=PROPERTY_DEFINITION_REPRESENTATION(#15,#13);
#12=REPRESENTATION('',(#16),#565);
#13=REPRESENTATION('',(#17),#565);
#14=PROPERTY_DEFINITION('pmi validation property','',#570);
#15=PROPERTY_DEFINITION('pmi validation property','',#570);
#16=VALUE_REPRESENTATION_ITEM('number of annotations',COUNT_MEASURE(0.));
#17=VALUE_REPRESENTATION_ITEM('number of views',COUNT_MEASURE(0.));
#18=SHAPE_REPRESENTATION_RELATIONSHIP('','',#305,#19);
#19=ADVANCED_BREP_SHAPE_REPRESENTATION('',(#303),#565);
#20=LINE('',#487,#26);
#21=LINE('',#496,#27);
#22=LINE('',#498,#28);
#23=LINE('',#508,#29);
#24=LINE('',#517,#30);
#25=LINE('',#526,#31);
#26=VECTOR('',#374,1000.);
#27=VECTOR('',#375,1000.);
#28=VECTOR('',#378,1000.);
#29=VECTOR('',#381,1000.);
#30=VECTOR('',#384,1000.);
#31=VECTOR('',#387,1000.);
#32=B_SPLINE_CURVE_WITH_KNOTS('',3,(#442,#443,#444,#445,#446,#447),
 .UNSPECIFIED.,.F.,.F.,(4,1,1,4),(2.38073127946165E-7,0.00495651901602912,
0.00743465948747971,0.0099127999589303),.UNSPECIFIED.);
#33=B_SPLINE_CURVE_WITH_KNOTS('',3,(#450,#451,#452,#453,#454,#455),
 .UNSPECIFIED.,.F.,.F.,(4,1,1,4),(2.3807312794498E-7,0.00495651901602912,
0.00743465948747971,0.00991279995893029),.UNSPECIFIED.);
#34=B_SPLINE_CURVE_WITH_KNOTS('',3,(#457,#458,#459,#460,#461,#462,#463),
 .UNSPECIFIED.,.F.,.F.,(4,1,1,1,4),(0.0107312592593442,0.013226988320772,
0.0157227173821999,0.0182184464436277,0.0207141755050555),.UNSPECIFIED.);
#35=B_SPLINE_CURVE_WITH_KNOTS('',3,(#465,#466,#467,#468,#469,#470),
 .UNSPECIFIED.,.F.,.F.,(4,1,1,4),(2.38073127946165E-7,0.00495651901602912,
0.00743465948747971,0.0099127999589303),.UNSPECIFIED.);
#36=B_SPLINE_CURVE_WITH_KNOTS('',3,(#472,#473,#474,#475,#476,#477),
 .UNSPECIFIED.,.F.,.F.,(4,1,1,4),(2.3807312794498E-7,0.00495651901602912,
0.00743465948747971,0.00991279995893029),.UNSPECIFIED.);
#37=B_SPLINE_CURVE_WITH_KNOTS('',3,(#479,#480,#481,#482,#483,#484,#485),
 .UNSPECIFIED.,.F.,.F.,(4,1,1,1,4),(0.0107312592593442,0.013226988320772,
0.0157227173821999,0.0182184464436277,0.0207141755050555),.UNSPECIFIED.);
#38=B_SPLINE_CURVE_WITH_KNOTS('',3,(#489,#490,#491,#492,#493,#494),
 .UNSPECIFIED.,.F.,.F.,(4,1,1,4),(2.38073127944967E-7,0.00495651901602912,
0.00743465948747971,0.0099127999589303),.UNSPECIFIED.);
#39=B_SPLINE_CURVE_WITH_KNOTS('',3,(#500,#501,#502,#503,#504,#505,#506),
 .UNSPECIFIED.,.F.,.F.,(4,1,1,1,4),(0.0107312592593442,0.013226988320772,
0.0157227173821998,0.0182184464436277,0.0207141755050555),.UNSPECIFIED.);
#40=B_SPLINE_CURVE_WITH_KNOTS('',3,(#510,#511,#512,#513,#514,#515),
 .UNSPECIFIED.,.F.,.F.,(4,1,1,4),(2.38073127944709E-7,0.00495651901602912,
0.00743465948747971,0.0099127999589303),.UNSPECIFIED.);
#41=B_SPLINE_CURVE_WITH_KNOTS('',3,(#519,#520,#521,#522,#523,#524),
 .UNSPECIFIED.,.F.,.F.,(4,1,1,4),(2.38073127944912E-7,0.00495651901602912,
0.00743465948747971,0.0099127999589303),.UNSPECIFIED.);
#42=B_SPLINE_CURVE_WITH_KNOTS('',3,(#528,#529,#530,#531,#532,#533,#534),
 .UNSPECIFIED.,.F.,.F.,(4,1,1,1,4),(0.0107312592593442,0.013226988320772,
0.0157227173821998,0.0182184464436277,0.0207141755050555),.UNSPECIFIED.);
#43=B_SPLINE_CURVE_WITH_KNOTS('',3,(#536,#537,#538,#539,#540,#541),
 .UNSPECIFIED.,.F.,.F.,(4,1,1,4),(2.38073127944709E-7,0.00495651901602912,
0.00743465948747971,0.0099127999589303),.UNSPECIFIED.);
#44=CYLINDRICAL_SURFACE('',#312,6.5785);
#45=CYLINDRICAL_SURFACE('',#318,8.25);
#46=CYLINDRICAL_SURFACE('',#331,3.5);
#47=CYLINDRICAL_SURFACE('',#335,5.75);
#48=CYLINDRICAL_SURFACE('',#339,5.7225);
#49=CONICAL_SURFACE('',#310,5.7225,0.785398163397447);
#50=CONICAL_SURFACE('',#316,7.75,0.785398163397448);
#51=CONICAL_SURFACE('',#320,8.25,1.0471975511966);
#52=CONICAL_SURFACE('',#330,10.2,1.0471975511966);
#53=CONICAL_SURFACE('',#333,3.5,1.0471975511966);
#54=CONICAL_SURFACE('',#341,5.7225,0.785398163397449);
#55=ORIENTED_EDGE('',*,*,#119,.F.);
#56=ORIENTED_EDGE('',*,*,#120,.T.);
#57=ORIENTED_EDGE('',*,*,#121,.F.);
#58=ORIENTED_EDGE('',*,*,#119,.T.);
#59=ORIENTED_EDGE('',*,*,#122,.F.);
#60=ORIENTED_EDGE('',*,*,#121,.T.);
#61=ORIENTED_EDGE('',*,*,#123,.F.);
#62=ORIENTED_EDGE('',*,*,#122,.T.);
#63=ORIENTED_EDGE('',*,*,#124,.F.);
#64=ORIENTED_EDGE('',*,*,#123,.T.);
#65=ORIENTED_EDGE('',*,*,#125,.F.);
#66=ORIENTED_EDGE('',*,*,#124,.T.);
#67=ORIENTED_EDGE('',*,*,#126,.T.);
#68=ORIENTED_EDGE('',*,*,#127,.T.);
#69=ORIENTED_EDGE('',*,*,#128,.T.);
#70=ORIENTED_EDGE('',*,*,#129,.T.);
#71=ORIENTED_EDGE('',*,*,#130,.T.);
#72=ORIENTED_EDGE('',*,*,#131,.T.);
#73=ORIENTED_EDGE('',*,*,#125,.T.);
#74=ORIENTED_EDGE('',*,*,#132,.T.);
#75=ORIENTED_EDGE('',*,*,#133,.F.);
#76=ORIENTED_EDGE('',*,*,#134,.F.);
#77=ORIENTED_EDGE('',*,*,#129,.F.);
#78=ORIENTED_EDGE('',*,*,#135,.T.);
#79=ORIENTED_EDGE('',*,*,#136,.F.);
#80=ORIENTED_EDGE('',*,*,#132,.F.);
#81=ORIENTED_EDGE('',*,*,#128,.F.);
#82=ORIENTED_EDGE('',*,*,#137,.T.);
#83=ORIENTED_EDGE('',*,*,#138,.F.);
#84=ORIENTED_EDGE('',*,*,#135,.F.);
#85=ORIENTED_EDGE('',*,*,#127,.F.);
#86=ORIENTED_EDGE('',*,*,#139,.T.);
#87=ORIENTED_EDGE('',*,*,#140,.F.);
#88=ORIENTED_EDGE('',*,*,#137,.F.);
#89=ORIENTED_EDGE('',*,*,#126,.F.);
#90=ORIENTED_EDGE('',*,*,#141,.T.);
#91=ORIENTED_EDGE('',*,*,#142,.F.);
#92=ORIENTED_EDGE('',*,*,#139,.F.);
#93=ORIENTED_EDGE('',*,*,#131,.F.);
#94=ORIENTED_EDGE('',*,*,#134,.T.);
#95=ORIENTED_EDGE('',*,*,#143,.F.);
#96=ORIENTED_EDGE('',*,*,#141,.F.);
#97=ORIENTED_EDGE('',*,*,#130,.F.);
#98=ORIENTED_EDGE('',*,*,#144,.F.);
#99=ORIENTED_EDGE('',*,*,#145,.T.);
#100=ORIENTED_EDGE('',*,*,#145,.F.);
#101=ORIENTED_EDGE('',*,*,#143,.T.);
#102=ORIENTED_EDGE('',*,*,#133,.T.);
#103=ORIENTED_EDGE('',*,*,#136,.T.);
#104=ORIENTED_EDGE('',*,*,#138,.T.);
#105=ORIENTED_EDGE('',*,*,#140,.T.);
#106=ORIENTED_EDGE('',*,*,#142,.T.);
#107=ORIENTED_EDGE('',*,*,#146,.T.);
#108=ORIENTED_EDGE('',*,*,#120,.F.);
#109=ORIENTED_EDGE('',*,*,#147,.T.);
#110=ORIENTED_EDGE('',*,*,#146,.F.);
#111=ORIENTED_EDGE('',*,*,#148,.T.);
#112=ORIENTED_EDGE('',*,*,#147,.F.);
#113=ORIENTED_EDGE('',*,*,#149,.T.);
#114=ORIENTED_EDGE('',*,*,#148,.F.);
#115=ORIENTED_EDGE('',*,*,#150,.T.);
#116=ORIENTED_EDGE('',*,*,#149,.F.);
#117=ORIENTED_EDGE('',*,*,#144,.T.);
#118=ORIENTED_EDGE('',*,*,#150,.F.);
#119=EDGE_CURVE('',#151,#151,#177,.T.);
#120=EDGE_CURVE('',#152,#152,#178,.T.);
#121=EDGE_CURVE('',#153,#153,#179,.T.);
#122=EDGE_CURVE('',#154,#154,#180,.T.);
#123=EDGE_CURVE('',#155,#155,#181,.T.);
#124=EDGE_CURVE('',#156,#156,#182,.T.);
#125=EDGE_CURVE('',#157,#157,#183,.T.);
#126=EDGE_CURVE('',#158,#159,#32,.T.);
#127=EDGE_CURVE('',#159,#160,#33,.T.);
#128=EDGE_CURVE('',#160,#161,#34,.T.);
#129=EDGE_CURVE('',#161,#162,#35,.T.);
#130=EDGE_CURVE('',#162,#163,#36,.T.);
#131=EDGE_CURVE('',#163,#158,#37,.T.);
#132=EDGE_CURVE('',#161,#164,#20,.T.);
#133=EDGE_CURVE('',#165,#164,#38,.T.);
#134=EDGE_CURVE('',#162,#165,#21,.T.);
#135=EDGE_CURVE('',#160,#166,#22,.T.);
#136=EDGE_CURVE('',#164,#166,#39,.T.);
#137=EDGE_CURVE('',#159,#167,#23,.T.);
#138=EDGE_CURVE('',#166,#167,#40,.T.);
#139=EDGE_CURVE('',#158,#168,#24,.T.);
#140=EDGE_CURVE('',#167,#168,#41,.T.);
#141=EDGE_CURVE('',#163,#169,#25,.T.);
#142=EDGE_CURVE('',#168,#169,#42,.T.);
#143=EDGE_CURVE('',#169,#165,#43,.T.);
#144=EDGE_CURVE('',#170,#170,#184,.T.);
#145=EDGE_CURVE('',#171,#171,#185,.T.);
#146=EDGE_CURVE('',#172,#172,#186,.T.);
#147=EDGE_CURVE('',#173,#173,#187,.T.);
#148=EDGE_CURVE('',#174,#174,#188,.T.);
#149=EDGE_CURVE('',#175,#175,#189,.T.);
#150=EDGE_CURVE('',#176,#176,#190,.T.);
#151=VERTEX_POINT('',#423);
#152=VERTEX_POINT('',#425);
#153=VERTEX_POINT('',#428);
#154=VERTEX_POINT('',#431);
#155=VERTEX_POINT('',#434);
#156=VERTEX_POINT('',#437);
#157=VERTEX_POINT('',#440);
#158=VERTEX_POINT('',#448);
#159=VERTEX_POINT('',#449);
#160=VERTEX_POINT('',#456);
#161=VERTEX_POINT('',#464);
#162=VERTEX_POINT('',#471);
#163=VERTEX_POINT('',#478);
#164=VERTEX_POINT('',#488);
#165=VERTEX_POINT('',#495);
#166=VERTEX_POINT('',#499);
#167=VERTEX_POINT('',#509);
#168=VERTEX_POINT('',#518);
#169=VERTEX_POINT('',#527);
#170=VERTEX_POINT('',#544);
#171=VERTEX_POINT('',#546);
#172=VERTEX_POINT('',#550);
#173=VERTEX_POINT('',#553);
#174=VERTEX_POINT('',#556);
#175=VERTEX_POINT('',#559);
#176=VERTEX_POINT('',#562);
#177=CIRCLE('',#308,5.7225);
#178=CIRCLE('',#309,3.5);
#179=CIRCLE('',#311,6.5785);
#180=CIRCLE('',#313,6.5785);
#181=CIRCLE('',#315,7.75);
#182=CIRCLE('',#317,8.25);
#183=CIRCLE('',#319,8.25);
#184=CIRCLE('',#328,6.5785);
#185=CIRCLE('',#329,8.25);
#186=CIRCLE('',#332,3.5);
#187=CIRCLE('',#334,5.75);
#188=CIRCLE('',#336,5.75);
#189=CIRCLE('',#338,5.7225);
#190=CIRCLE('',#340,5.7225);
#191=EDGE_LOOP('',(#55));
#192=EDGE_LOOP('',(#56));
#193=EDGE_LOOP('',(#57));
#194=EDGE_LOOP('',(#58));
#195=EDGE_LOOP('',(#59));
#196=EDGE_LOOP('',(#60));
#197=EDGE_LOOP('',(#61));
#198=EDGE_LOOP('',(#62));
#199=EDGE_LOOP('',(#63));
#200=EDGE_LOOP('',(#64));
#201=EDGE_LOOP('',(#65));
#202=EDGE_LOOP('',(#66));
#203=EDGE_LOOP('',(#67,#68,#69,#70,#71,#72));
#204=EDGE_LOOP('',(#73));
#205=EDGE_LOOP('',(#74,#75,#76,#77));
#206=EDGE_LOOP('',(#78,#79,#80,#81));
#207=EDGE_LOOP('',(#82,#83,#84,#85));
#208=EDGE_LOOP('',(#86,#87,#88,#89));
#209=EDGE_LOOP('',(#90,#91,#92,#93));
#210=EDGE_LOOP('',(#94,#95,#96,#97));
#211=EDGE_LOOP('',(#98));
#212=EDGE_LOOP('',(#99));
#213=EDGE_LOOP('',(#100));
#214=EDGE_LOOP('',(#101,#102,#103,#104,#105,#106));
#215=EDGE_LOOP('',(#107));
#216=EDGE_LOOP('',(#108));
#217=EDGE_LOOP('',(#109));
#218=EDGE_LOOP('',(#110));
#219=EDGE_LOOP('',(#111));
#220=EDGE_LOOP('',(#112));
#221=EDGE_LOOP('',(#113));
#222=EDGE_LOOP('',(#114));
#223=EDGE_LOOP('',(#115));
#224=EDGE_LOOP('',(#116));
#225=EDGE_LOOP('',(#117));
#226=EDGE_LOOP('',(#118));
#227=FACE_BOUND('',#191,.T.);
#228=FACE_BOUND('',#192,.T.);
#229=FACE_BOUND('',#193,.T.);
#230=FACE_BOUND('',#194,.T.);
#231=FACE_BOUND('',#195,.T.);
#232=FACE_BOUND('',#196,.T.);
#233=FACE_BOUND('',#197,.T.);
#234=FACE_BOUND('',#198,.T.);
#235=FACE_BOUND('',#199,.T.);
#236=FACE_BOUND('',#200,.T.);
#237=FACE_BOUND('',#201,.T.);
#238=FACE_BOUND('',#202,.T.);
#239=FACE_BOUND('',#203,.T.);
#240=FACE_BOUND('',#204,.T.);
#241=FACE_BOUND('',#205,.T.);
#242=FACE_BOUND('',#206,.T.);
#243=FACE_BOUND('',#207,.T.);
#244=FACE_BOUND('',#208,.T.);
#245=FACE_BOUND('',#209,.T.);
#246=FACE_BOUND('',#210,.T.);
#247=FACE_BOUND('',#211,.T.);
#248=FACE_BOUND('',#212,.T.);
#249=FACE_BOUND('',#213,.T.);
#250=FACE_BOUND('',#214,.T.);
#251=FACE_BOUND('',#215,.T.);
#252=FACE_BOUND('',#216,.T.);
#253=FACE_BOUND('',#217,.T.);
#254=FACE_BOUND('',#218,.T.);
#255=FACE_BOUND('',#219,.T.);
#256=FACE_BOUND('',#220,.T.);
#257=FACE_BOUND('',#221,.T.);
#258=FACE_BOUND('',#222,.T.);
#259=FACE_BOUND('',#223,.T.);
#260=FACE_BOUND('',#224,.T.);
#261=FACE_BOUND('',#225,.T.);
#262=FACE_BOUND('',#226,.T.);
#263=PLANE('',#307);
#264=PLANE('',#314);
#265=PLANE('',#321);
#266=PLANE('',#322);
#267=PLANE('',#323);
#268=PLANE('',#324);
#269=PLANE('',#325);
#270=PLANE('',#326);
#271=PLANE('',#327);
#272=PLANE('',#337);
#273=ADVANCED_FACE('',(#227,#228),#263,.F.);
#274=ADVANCED_FACE('',(#229,#230),#49,.T.);
#275=ADVANCED_FACE('',(#231,#232),#44,.T.);
#276=ADVANCED_FACE('',(#233,#234),#264,.F.);
#277=ADVANCED_FACE('',(#235,#236),#50,.T.);
#278=ADVANCED_FACE('',(#237,#238),#45,.T.);
#279=ADVANCED_FACE('',(#239,#240),#51,.T.);
#280=ADVANCED_FACE('',(#241),#265,.F.);
#281=ADVANCED_FACE('',(#242),#266,.F.);
#282=ADVANCED_FACE('',(#243),#267,.F.);
#283=ADVANCED_FACE('',(#244),#268,.F.);
#284=ADVANCED_FACE('',(#245),#269,.F.);
#285=ADVANCED_FACE('',(#246),#270,.F.);
#286=ADVANCED_FACE('',(#247,#248),#271,.F.);
#287=ADVANCED_FACE('',(#249,#250),#52,.T.);
#288=ADVANCED_FACE('',(#251,#252),#46,.F.);
#289=ADVANCED_FACE('',(#253,#254),#53,.F.);
#290=ADVANCED_FACE('',(#255,#256),#47,.F.);
#291=ADVANCED_FACE('',(#257,#258),#272,.T.);
#292=ADVANCED_FACE('',(#259,#260),#48,.F.);
#293=ADVANCED_FACE('',(#261,#262),#54,.F.);
#294=CLOSED_SHELL('',(#273,#274,#275,#276,#277,#278,#279,#280,#281,#282,
#283,#284,#285,#286,#287,#288,#289,#290,#291,#292,#293));
#295=STYLED_ITEM('',(#296),#303);
#296=PRESENTATION_STYLE_ASSIGNMENT((#297));
#297=SURFACE_STYLE_USAGE(.BOTH.,#298);
#298=SURFACE_SIDE_STYLE('',(#299));
#299=SURFACE_STYLE_FILL_AREA(#300);
#300=FILL_AREA_STYLE('',(#301));
#301=FILL_AREA_STYLE_COLOUR('',#302);
#302=COLOUR_RGB('',0.689999997615814,0.689999997615814,0.689999997615814);
#303=MANIFOLD_SOLID_BREP('12314L35',#294);
#304=SHAPE_DEFINITION_REPRESENTATION(#570,#305);
#305=SHAPE_REPRESENTATION('12314L35',(#306),#565);
#306=AXIS2_PLACEMENT_3D('',#420,#342,#343);
#307=AXIS2_PLACEMENT_3D('',#421,#344,#345);
#308=AXIS2_PLACEMENT_3D('',#422,#346,#347);
#309=AXIS2_PLACEMENT_3D('',#424,#348,#349);
#310=AXIS2_PLACEMENT_3D('',#426,#350,#351);
#311=AXIS2_PLACEMENT_3D('',#427,#352,#353);
#312=AXIS2_PLACEMENT_3D('',#429,#354,#355);
#313=AXIS2_PLACEMENT_3D('',#430,#356,#357);
#314=AXIS2_PLACEMENT_3D('',#432,#358,#359);
#315=AXIS2_PLACEMENT_3D('',#433,#360,#361);
#316=AXIS2_PLACEMENT_3D('',#435,#362,#363);
#317=AXIS2_PLACEMENT_3D('',#436,#364,#365);
#318=AXIS2_PLACEMENT_3D('',#438,#366,#367);
#319=AXIS2_PLACEMENT_3D('',#439,#368,#369);
#320=AXIS2_PLACEMENT_3D('',#441,#370,#371);
#321=AXIS2_PLACEMENT_3D('',#486,#372,#373);
#322=AXIS2_PLACEMENT_3D('',#497,#376,#377);
#323=AXIS2_PLACEMENT_3D('',#507,#379,#380);
#324=AXIS2_PLACEMENT_3D('',#516,#382,#383);
#325=AXIS2_PLACEMENT_3D('',#525,#385,#386);
#326=AXIS2_PLACEMENT_3D('',#535,#388,#389);
#327=AXIS2_PLACEMENT_3D('',#542,#390,#391);
#328=AXIS2_PLACEMENT_3D('',#543,#392,#393);
#329=AXIS2_PLACEMENT_3D('',#545,#394,#395);
#330=AXIS2_PLACEMENT_3D('',#547,#396,#397);
#331=AXIS2_PLACEMENT_3D('',#548,#398,#399);
#332=AXIS2_PLACEMENT_3D('',#549,#400,#401);
#333=AXIS2_PLACEMENT_3D('',#551,#402,#403);
#334=AXIS2_PLACEMENT_3D('',#552,#404,#405);
#335=AXIS2_PLACEMENT_3D('',#554,#406,#407);
#336=AXIS2_PLACEMENT_3D('',#555,#408,#409);
#337=AXIS2_PLACEMENT_3D('',#557,#410,#411);
#338=AXIS2_PLACEMENT_3D('',#558,#412,#413);
#339=AXIS2_PLACEMENT_3D('',#560,#414,#415);
#340=AXIS2_PLACEMENT_3D('',#561,#416,#417);
#341=AXIS2_PLACEMENT_3D('',#563,#418,#419);
#342=DIRECTION('',(0.,0.,1.));
#343=DIRECTION('',(1.,0.,0.));
#344=DIRECTION('',(0.,-1.,0.));
#345=DIRECTION('',(0.,0.,-1.));
#346=DIRECTION('',(0.,-1.,0.));
#347=DIRECTION('',(0.,0.,-1.));
#348=DIRECTION('',(0.,-1.,0.));
#349=DIRECTION('',(0.,0.,-1.));
#350=DIRECTION('',(0.,-1.,0.));
#351=DIRECTION('',(0.,0.,-1.));
#352=DIRECTION('',(0.,-1.,0.));
#353=DIRECTION('',(0.,0.,-1.));
#354=DIRECTION('',(0.,-1.,0.));
#355=DIRECTION('',(0.,0.,-1.));
#356=DIRECTION('',(0.,-1.,0.));
#357=DIRECTION('',(0.,0.,-1.));
#358=DIRECTION('',(0.,-1.,0.));
#359=DIRECTION('',(0.,0.,-1.));
#360=DIRECTION('',(0.,-1.,0.));
#361=DIRECTION('',(0.,0.,-1.));
#362=DIRECTION('',(0.,-1.,0.));
#363=DIRECTION('',(0.,0.,-1.));
#364=DIRECTION('',(0.,-1.,0.));
#365=DIRECTION('',(0.,0.,-1.));
#366=DIRECTION('',(0.,-1.,0.));
#367=DIRECTION('',(0.,0.,-1.));
#368=DIRECTION('',(0.,-1.,0.));
#369=DIRECTION('',(0.,0.,-1.));
#370=DIRECTION('',(0.,-1.,0.));
#371=DIRECTION('',(0.,0.,-1.));
#372=DIRECTION('',(0.866025403784439,0.,0.5));
#373=DIRECTION('',(0.5,0.,-0.866025403784439));
#374=DIRECTION('',(0.,-1.,0.));
#375=DIRECTION('',(0.,-1.,0.));
#376=DIRECTION('',(0.,0.,1.));
#377=DIRECTION('',(1.,0.,0.));
#378=DIRECTION('',(0.,-1.,0.));
#379=DIRECTION('',(-0.866025403784439,0.,0.5));
#380=DIRECTION('',(0.5,0.,0.866025403784439));
#381=DIRECTION('',(0.,-1.,0.));
#382=DIRECTION('',(-0.866025403784439,0.,-0.5));
#383=DIRECTION('',(-0.5,0.,0.866025403784439));
#384=DIRECTION('',(0.,-1.,0.));
#385=DIRECTION('',(0.,0.,-1.));
#386=DIRECTION('',(-1.,0.,0.));
#387=DIRECTION('',(0.,-1.,0.));
#388=DIRECTION('',(0.866025403784439,0.,-0.5));
#389=DIRECTION('',(-0.5,0.,-0.866025403784439));
#390=DIRECTION('',(0.,1.,0.));
#391=DIRECTION('',(0.,0.,1.));
#392=DIRECTION('',(0.,-1.,0.));
#393=DIRECTION('',(0.,0.,-1.));
#394=DIRECTION('',(0.,-1.,0.));
#395=DIRECTION('',(0.,0.,-1.));
#396=DIRECTION('',(0.,1.,0.));
#397=DIRECTION('',(0.,0.,1.));
#398=DIRECTION('',(0.,-1.,0.));
#399=DIRECTION('',(0.,0.,-1.));
#400=DIRECTION('',(0.,-1.,0.));
#401=DIRECTION('',(0.,0.,-1.));
#402=DIRECTION('',(0.,-1.,0.));
#403=DIRECTION('',(0.,0.,-1.));
#404=DIRECTION('',(0.,-1.,0.));
#405=DIRECTION('',(0.,0.,-1.));
#406=DIRECTION('',(0.,-1.,0.));
#407=DIRECTION('',(0.,0.,-1.));
#408=DIRECTION('',(0.,-1.,0.));
#409=DIRECTION('',(0.,0.,-1.));
#410=DIRECTION('',(0.,1.,0.));
#411=DIRECTION('',(0.,0.,1.));
#412=DIRECTION('',(0.,-1.,0.));
#413=DIRECTION('',(0.,0.,-1.));
#414=DIRECTION('',(0.,-1.,0.));
#415=DIRECTION('',(0.,0.,-1.));
#416=DIRECTION('',(0.,-1.,0.));
#417=DIRECTION('',(0.,0.,-1.));
#418=DIRECTION('',(0.,-1.,0.));
#419=DIRECTION('',(0.,0.,-1.));
#420=CARTESIAN_POINT('',(0.,0.,0.));
#421=CARTESIAN_POINT('',(0.,35.,0.));
#422=CARTESIAN_POINT('',(0.,35.,0.));
#423=CARTESIAN_POINT('',(0.,35.,-5.7225));
#424=CARTESIAN_POINT('',(0.,35.,0.));
#425=CARTESIAN_POINT('',(0.,35.,-3.5));
#426=CARTESIAN_POINT('',(0.,35.,0.));
#427=CARTESIAN_POINT('',(0.,34.144,0.));
#428=CARTESIAN_POINT('',(0.,34.144,-6.5785));
#429=CARTESIAN_POINT('',(0.,0.,0.));
#430=CARTESIAN_POINT('',(0.,27.,0.));
#431=CARTESIAN_POINT('',(0.,27.,-6.5785));
#432=CARTESIAN_POINT('',(6.5785,27.,0.));
#433=CARTESIAN_POINT('',(0.,27.,0.));
#434=CARTESIAN_POINT('',(0.,27.,-7.75));
#435=CARTESIAN_POINT('',(0.,27.,0.));
#436=CARTESIAN_POINT('',(0.,26.5,0.));
#437=CARTESIAN_POINT('',(0.,26.5,-8.25));
#438=CARTESIAN_POINT('',(0.,0.,0.));
#439=CARTESIAN_POINT('',(0.,7.,0.));
#440=CARTESIAN_POINT('',(0.,7.,-8.25));
#441=CARTESIAN_POINT('',(0.,7.,0.));
#442=CARTESIAN_POINT('',(4.90747728811179,6.09647305414815,8.50000000000005));
#443=CARTESIAN_POINT('',(5.70877509994896,6.55910256151341,7.1121114779043));
#444=CARTESIAN_POINT('',(6.93565337391163,7.00192969020366,4.98709597269856));
#445=CARTESIAN_POINT('',(8.60723442878907,6.71072800131881,2.09183265668125));
#446=CARTESIAN_POINT('',(9.4138062499321,6.32807614831735,0.694809282508155));
#447=CARTESIAN_POINT('',(9.81495457622365,6.09647305414795,-2.88347505979416E-14));
#448=CARTESIAN_POINT('',(4.90747728811182,6.09647305414774,8.5));
#449=CARTESIAN_POINT('',(9.81495457622364,6.09647305414775,0.));
#450=CARTESIAN_POINT('',(9.81495457622367,6.09647305414815,5.07115780019842E-14));
#451=CARTESIAN_POINT('',(9.01365676438649,6.55910256151341,-1.3878885220957));
#452=CARTESIAN_POINT('',(7.78677849042383,7.00192969020366,-3.51290402730145));
#453=CARTESIAN_POINT('',(6.11519743554639,6.71072800131881,-6.40816734331875));
#454=CARTESIAN_POINT('',(5.30862561440335,6.32807614831735,-7.80519071749185));
#455=CARTESIAN_POINT('',(4.9074772881118,6.09647305414795,-8.50000000000003));
#456=CARTESIAN_POINT('',(4.90747728811182,6.09647305414774,-8.5));
#457=CARTESIAN_POINT('',(4.90747728811182,6.09647305414774,-8.5));
#458=CARTESIAN_POINT('',(4.10830898477056,6.32717307167869,-8.5));
#459=CARTESIAN_POINT('',(2.49925374348877,6.70895657359999,-8.5));
#460=CARTESIAN_POINT('',(0.00206760106418729,6.92902255089142,-8.5));
#461=CARTESIAN_POINT('',(-2.50077362927858,6.708927561113,-8.5));
#462=CARTESIAN_POINT('',(-4.1087847396785,6.32703573306661,-8.5));
#463=CARTESIAN_POINT('',(-4.90747728811182,6.09647305414774,-8.5));
#464=CARTESIAN_POINT('',(-4.90747728811182,6.09647305414774,-8.5));
#465=CARTESIAN_POINT('',(-4.90747728811179,6.09647305414815,-8.50000000000005));
#466=CARTESIAN_POINT('',(-5.70877509994896,6.55910256151341,-7.1121114779043));
#467=CARTESIAN_POINT('',(-6.93565337391163,7.00192969020366,-4.98709597269856));
#468=CARTESIAN_POINT('',(-8.60723442878907,6.71072800131881,-2.09183265668125));
#469=CARTESIAN_POINT('',(-9.4138062499321,6.32807614831735,-0.694809282508155));
#470=CARTESIAN_POINT('',(-9.81495457622365,6.09647305414795,2.88347505979416E-14));
#471=CARTESIAN_POINT('',(-9.81495457622364,6.09647305414775,0.));
#472=CARTESIAN_POINT('',(-9.81495457622367,6.09647305414815,-5.07115780019842E-14));
#473=CARTESIAN_POINT('',(-9.01365676438649,6.55910256151341,1.3878885220957));
#474=CARTESIAN_POINT('',(-7.78677849042383,7.00192969020366,3.51290402730145));
#475=CARTESIAN_POINT('',(-6.11519743554639,6.71072800131881,6.40816734331875));
#476=CARTESIAN_POINT('',(-5.30862561440335,6.32807614831735,7.80519071749185));
#477=CARTESIAN_POINT('',(-4.9074772881118,6.09647305414795,8.50000000000003));
#478=CARTESIAN_POINT('',(-4.90747728811182,6.09647305414774,8.5));
#479=CARTESIAN_POINT('',(-4.90747728811182,6.09647305414774,8.5));
#480=CARTESIAN_POINT('',(-4.10830898477056,6.32717307167869,8.5));
#481=CARTESIAN_POINT('',(-2.4992537434888,6.70895657359998,8.5));
#482=CARTESIAN_POINT('',(-0.00206760106417249,6.92902255089142,8.5));
#483=CARTESIAN_POINT('',(2.50077362927857,6.708927561113,8.5));
#484=CARTESIAN_POINT('',(4.10878473967851,6.32703573306661,8.5));
#485=CARTESIAN_POINT('',(4.90747728811182,6.09647305414774,8.5));
#486=CARTESIAN_POINT('',(-4.90747728811182,7.,-8.5));
#487=CARTESIAN_POINT('',(-4.90747728811182,7.,-8.5));
#488=CARTESIAN_POINT('',(-4.90747728811182,0.903526945852254,-8.5));
#489=CARTESIAN_POINT('',(-9.81495457622367,0.903526945851844,5.06465400991416E-14));
#490=CARTESIAN_POINT('',(-9.01365676438649,0.440897438486588,-1.3878885220957));
#491=CARTESIAN_POINT('',(-7.78677849042383,-0.00192969020366286,-3.51290402730145));
#492=CARTESIAN_POINT('',(-6.11519743554639,0.289271998681185,-6.40816734331875));
#493=CARTESIAN_POINT('',(-5.30862561440335,0.67192385168265,-7.80519071749185));
#494=CARTESIAN_POINT('',(-4.9074772881118,0.903526945852046,-8.50000000000003));
#495=CARTESIAN_POINT('',(-9.81495457622364,0.903526945852253,-5.1456949077495E-17));
#496=CARTESIAN_POINT('',(-9.81495457622364,7.,0.));
#497=CARTESIAN_POINT('',(4.90747728811182,7.,-8.5));
#498=CARTESIAN_POINT('',(4.90747728811182,7.,-8.5));
#499=CARTESIAN_POINT('',(4.90747728811182,0.903526945852255,-8.5));
#500=CARTESIAN_POINT('',(-4.90747728811182,0.903526945852253,-8.5));
#501=CARTESIAN_POINT('',(-4.10830898477056,0.672826928321307,-8.5));
#502=CARTESIAN_POINT('',(-2.49925374348879,0.291043426400018,-8.5));
#503=CARTESIAN_POINT('',(-0.00206760106418028,0.0709774491085772,-8.5));
#504=CARTESIAN_POINT('',(2.50077362927858,0.291072438887003,-8.5));
#505=CARTESIAN_POINT('',(4.10878473967851,0.672964266933393,-8.5));
#506=CARTESIAN_POINT('',(4.90747728811182,0.903526945852255,-8.5));
#507=CARTESIAN_POINT('',(9.81495457622364,7.,0.));
#508=CARTESIAN_POINT('',(9.81495457622364,7.,0.));
#509=CARTESIAN_POINT('',(9.81495457622364,0.903526945852253,0.));
#510=CARTESIAN_POINT('',(4.90747728811179,0.903526945851846,-8.50000000000005));
#511=CARTESIAN_POINT('',(5.70877509994897,0.440897438486591,-7.1121114779043));
#512=CARTESIAN_POINT('',(6.93565337391163,-0.00192969020366084,-4.98709597269856));
#513=CARTESIAN_POINT('',(8.60723442878906,0.289271998681186,-2.09183265668125));
#514=CARTESIAN_POINT('',(9.4138062499321,0.671923851682649,-0.694809282508156));
#515=CARTESIAN_POINT('',(9.81495457622365,0.903526945852044,2.80508608963369E-14));
#516=CARTESIAN_POINT('',(4.90747728811182,7.,8.5));
#517=CARTESIAN_POINT('',(4.90747728811182,7.,8.5));
#518=CARTESIAN_POINT('',(4.90747728811182,0.903526945852254,8.5));
#519=CARTESIAN_POINT('',(9.81495457622367,0.903526945851844,-5.0693243543707E-14));
#520=CARTESIAN_POINT('',(9.01365676438649,0.440897438486588,1.3878885220957));
#521=CARTESIAN_POINT('',(7.78677849042383,-0.00192969020366286,3.51290402730145));
#522=CARTESIAN_POINT('',(6.11519743554639,0.289271998681185,6.40816734331875));
#523=CARTESIAN_POINT('',(5.30862561440335,0.67192385168265,7.80519071749185));
#524=CARTESIAN_POINT('',(4.9074772881118,0.903526945852046,8.50000000000003));
#525=CARTESIAN_POINT('',(-4.90747728811182,7.,8.5));
#526=CARTESIAN_POINT('',(-4.90747728811182,7.,8.5));
#527=CARTESIAN_POINT('',(-4.90747728811182,0.903526945852255,8.5));
#528=CARTESIAN_POINT('',(4.90747728811182,0.903526945852253,8.5));
#529=CARTESIAN_POINT('',(4.10830898477056,0.672826928321307,8.5));
#530=CARTESIAN_POINT('',(2.49925374348879,0.291043426400018,8.5));
#531=CARTESIAN_POINT('',(0.00206760106418028,0.0709774491085772,8.5));
#532=CARTESIAN_POINT('',(-2.50077362927858,0.291072438887003,8.5));
#533=CARTESIAN_POINT('',(-4.10878473967851,0.672964266933393,8.5));
#534=CARTESIAN_POINT('',(-4.90747728811182,0.903526945852255,8.5));
#535=CARTESIAN_POINT('',(-9.81495457622364,7.,0.));
#536=CARTESIAN_POINT('',(-4.90747728811179,0.903526945851846,8.50000000000005));
#537=CARTESIAN_POINT('',(-5.70877509994897,0.440897438486591,7.1121114779043));
#538=CARTESIAN_POINT('',(-6.93565337391163,-0.00192969020366084,4.98709597269856));
#539=CARTESIAN_POINT('',(-8.60723442878906,0.289271998681186,2.09183265668125));
#540=CARTESIAN_POINT('',(-9.4138062499321,0.671923851682649,0.694809282508156));
#541=CARTESIAN_POINT('',(-9.81495457622365,0.903526945852044,-2.80508608963369E-14));
#542=CARTESIAN_POINT('',(8.25,0.,0.));
#543=CARTESIAN_POINT('',(0.,-1.0842021724855E-16,0.));
#544=CARTESIAN_POINT('',(0.,-1.0842021724855E-16,-6.5785));
#545=CARTESIAN_POINT('',(0.,0.,0.));
#546=CARTESIAN_POINT('',(0.,0.,-8.25));
#547=CARTESIAN_POINT('',(0.,1.12583302491977,0.));
#548=CARTESIAN_POINT('',(0.,0.,0.));
#549=CARTESIAN_POINT('',(0.,25.2990381056767,0.));
#550=CARTESIAN_POINT('',(0.,25.2990381056767,-3.5));
#551=CARTESIAN_POINT('',(0.,25.2990381056767,0.));
#552=CARTESIAN_POINT('',(0.,24.,0.));
#553=CARTESIAN_POINT('',(0.,24.,-5.75));
#554=CARTESIAN_POINT('',(0.,0.,0.));
#555=CARTESIAN_POINT('',(0.,11.,0.));
#556=CARTESIAN_POINT('',(0.,11.,-5.75));
#557=CARTESIAN_POINT('',(5.75,11.,0.));
#558=CARTESIAN_POINT('',(0.,11.,0.));
#559=CARTESIAN_POINT('',(0.,11.,-5.7225));
#560=CARTESIAN_POINT('',(0.,0.,0.));
#561=CARTESIAN_POINT('',(0.,0.855999999999999,0.));
#562=CARTESIAN_POINT('',(0.,0.855999999999999,-5.7225));
#563=CARTESIAN_POINT('',(0.,0.855999999999999,0.));
#564=MECHANICAL_DESIGN_GEOMETRIC_PRESENTATION_REPRESENTATION('',(#295),
#565);
#565=(
GEOMETRIC_REPRESENTATION_CONTEXT(3)
GLOBAL_UNCERTAINTY_ASSIGNED_CONTEXT((#566))
GLOBAL_UNIT_ASSIGNED_CONTEXT((#569,#568,#567))
REPRESENTATION_CONTEXT('12314L35','TOP_LEVEL_ASSEMBLY_PART')
);
#566=UNCERTAINTY_MEASURE_WITH_UNIT(LENGTH_MEASURE(0.005),#569,
'DISTANCE_ACCURACY_VALUE','Maximum Tolerance applied to model');
#567=(
NAMED_UNIT(*)
SI_UNIT($,.STERADIAN.)
SOLID_ANGLE_UNIT()
);
#568=(
NAMED_UNIT(*)
PLANE_ANGLE_UNIT()
SI_UNIT($,.RADIAN.)
);
#569=(
LENGTH_UNIT()
NAMED_UNIT(*)
SI_UNIT(.MILLI.,.METRE.)
);
#570=PRODUCT_DEFINITION_SHAPE('','',#571);
#571=PRODUCT_DEFINITION('','',#573,#572);
#572=PRODUCT_DEFINITION_CONTEXT('',#579,'design');
#573=PRODUCT_DEFINITION_FORMATION_WITH_SPECIFIED_SOURCE('','',#575,
 .NOT_KNOWN.);
#574=PRODUCT_RELATED_PRODUCT_CATEGORY('','',(#575));
#575=PRODUCT('12314L35','12314L35','12314L35',(#577));
#576=PRODUCT_CATEGORY('','');
#577=PRODUCT_CONTEXT('',#579,'mechanical');
#578=APPLICATION_PROTOCOL_DEFINITION('international standard',
'automotive_design',2010,#579);
#579=APPLICATION_CONTEXT(
'core data for automotive mechanical design processes');
ENDSEC;
END-ISO-10303-21;
