ISO-10303-21;
HEADER;
/* Generated by software containing ST-Developer
 * from STEP Tools, Inc. (www.steptools.com) 
 */
/* OPTION: strings as raw bytes, not using required /X/ escapes */

FILE_DESCRIPTION(
/* description */ ('Unknown'),
/* implementation_level */ '2;1');

FILE_NAME(
/* name */ 'A25.1;8.L32',
/* time_stamp */ '2021-05-11T09:50:19-04:00',
/* author */ ('Unknown'),
/* organization */ ('Unknown'),
/* preprocessor_version */ 'ST-DEVELOPER v16.7',
/* originating_system */ 'Solid Edge',
/* authorisation */ 'Unknown');

FILE_SCHEMA (('AUTOMOTIVE_DESIGN {1 0 10303 214 3 1 1}'));
ENDSEC;

DATA;
#10=PROPERTY_DEFINITION_REPRESENTATION(#14,#12);
#11=PROPERTY_DEFINITION_REPRESENTATION(#15,#13);
#12=REPRESENTATION('',(#16),#531);
#13=REPRESENTATION('',(#17),#531);
#14=PROPERTY_DEFINITION('pmi validation property','',#536);
#15=PROPERTY_DEFINITION('pmi validation property','',#536);
#16=VALUE_REPRESENTATION_ITEM('number of annotations',COUNT_MEASURE(0.));
#17=VALUE_REPRESENTATION_ITEM('number of views',COUNT_MEASURE(0.));
#18=SHAPE_REPRESENTATION_RELATIONSHIP('','',#368,#19);
#19=ADVANCED_BREP_SHAPE_REPRESENTATION('',(#366),#531);
#20=LINE('',#472,#38);
#21=LINE('',#475,#39);
#22=LINE('',#477,#40);
#23=LINE('',#479,#41);
#24=LINE('',#481,#42);
#25=LINE('',#483,#43);
#26=LINE('',#485,#44);
#27=LINE('',#487,#45);
#28=LINE('',#489,#46);
#29=LINE('',#491,#47);
#30=LINE('',#493,#48);
#31=LINE('',#495,#49);
#32=LINE('',#497,#50);
#33=LINE('',#499,#51);
#34=LINE('',#501,#52);
#35=LINE('',#503,#53);
#36=LINE('',#505,#54);
#37=LINE('',#506,#55);
#38=VECTOR('',#405,1000.);
#39=VECTOR('',#406,1000.);
#40=VECTOR('',#407,1000.);
#41=VECTOR('',#408,1000.);
#42=VECTOR('',#411,1000.);
#43=VECTOR('',#412,1000.);
#44=VECTOR('',#413,1000.);
#45=VECTOR('',#416,1000.);
#46=VECTOR('',#417,1000.);
#47=VECTOR('',#418,1000.);
#48=VECTOR('',#421,1000.);
#49=VECTOR('',#422,1000.);
#50=VECTOR('',#423,1000.);
#51=VECTOR('',#426,1000.);
#52=VECTOR('',#427,1000.);
#53=VECTOR('',#428,1000.);
#54=VECTOR('',#431,1000.);
#55=VECTOR('',#432,1000.);
#56=PLANE('',#373);
#57=PLANE('',#374);
#58=PLANE('',#375);
#59=PLANE('',#376);
#60=PLANE('',#377);
#61=PLANE('',#378);
#62=PLANE('',#379);
#63=PLANE('',#381);
#64=PLANE('',#385);
#65=PLANE('',#389);
#66=PLANE('',#392);
#67=ORIENTED_EDGE('',*,*,#121,.T.);
#68=ORIENTED_EDGE('',*,*,#122,.T.);
#69=ORIENTED_EDGE('',*,*,#123,.F.);
#70=ORIENTED_EDGE('',*,*,#124,.F.);
#71=ORIENTED_EDGE('',*,*,#125,.T.);
#72=ORIENTED_EDGE('',*,*,#126,.T.);
#73=ORIENTED_EDGE('',*,*,#127,.F.);
#74=ORIENTED_EDGE('',*,*,#126,.F.);
#75=ORIENTED_EDGE('',*,*,#128,.T.);
#76=ORIENTED_EDGE('',*,*,#129,.T.);
#77=ORIENTED_EDGE('',*,*,#130,.F.);
#78=ORIENTED_EDGE('',*,*,#129,.F.);
#79=ORIENTED_EDGE('',*,*,#131,.T.);
#80=ORIENTED_EDGE('',*,*,#132,.T.);
#81=ORIENTED_EDGE('',*,*,#133,.F.);
#82=ORIENTED_EDGE('',*,*,#132,.F.);
#83=ORIENTED_EDGE('',*,*,#134,.T.);
#84=ORIENTED_EDGE('',*,*,#135,.T.);
#85=ORIENTED_EDGE('',*,*,#136,.F.);
#86=ORIENTED_EDGE('',*,*,#135,.F.);
#87=ORIENTED_EDGE('',*,*,#137,.T.);
#88=ORIENTED_EDGE('',*,*,#138,.T.);
#89=ORIENTED_EDGE('',*,*,#139,.F.);
#90=ORIENTED_EDGE('',*,*,#138,.F.);
#91=ORIENTED_EDGE('',*,*,#140,.T.);
#92=ORIENTED_EDGE('',*,*,#124,.T.);
#93=ORIENTED_EDGE('',*,*,#141,.T.);
#94=ORIENTED_EDGE('',*,*,#125,.F.);
#95=ORIENTED_EDGE('',*,*,#140,.F.);
#96=ORIENTED_EDGE('',*,*,#137,.F.);
#97=ORIENTED_EDGE('',*,*,#134,.F.);
#98=ORIENTED_EDGE('',*,*,#131,.F.);
#99=ORIENTED_EDGE('',*,*,#128,.F.);
#100=ORIENTED_EDGE('',*,*,#142,.T.);
#101=ORIENTED_EDGE('',*,*,#123,.T.);
#102=ORIENTED_EDGE('',*,*,#127,.T.);
#103=ORIENTED_EDGE('',*,*,#130,.T.);
#104=ORIENTED_EDGE('',*,*,#133,.T.);
#105=ORIENTED_EDGE('',*,*,#136,.T.);
#106=ORIENTED_EDGE('',*,*,#139,.T.);
#107=ORIENTED_EDGE('',*,*,#143,.T.);
#108=ORIENTED_EDGE('',*,*,#141,.F.);
#109=ORIENTED_EDGE('',*,*,#144,.T.);
#110=ORIENTED_EDGE('',*,*,#143,.F.);
#111=ORIENTED_EDGE('',*,*,#145,.T.);
#112=ORIENTED_EDGE('',*,*,#144,.F.);
#113=ORIENTED_EDGE('',*,*,#146,.T.);
#114=ORIENTED_EDGE('',*,*,#145,.F.);
#115=ORIENTED_EDGE('',*,*,#121,.F.);
#116=ORIENTED_EDGE('',*,*,#142,.F.);
#117=ORIENTED_EDGE('',*,*,#147,.F.);
#118=ORIENTED_EDGE('',*,*,#122,.F.);
#119=ORIENTED_EDGE('',*,*,#146,.F.);
#120=ORIENTED_EDGE('',*,*,#147,.T.);
#121=EDGE_CURVE('',#148,#148,#169,.T.);
#122=EDGE_CURVE('',#149,#149,#170,.T.);
#123=EDGE_CURVE('',#150,#151,#20,.T.);
#124=EDGE_CURVE('',#152,#150,#21,.T.);
#125=EDGE_CURVE('',#152,#153,#22,.T.);
#126=EDGE_CURVE('',#153,#151,#23,.T.);
#127=EDGE_CURVE('',#151,#154,#24,.T.);
#128=EDGE_CURVE('',#153,#155,#25,.T.);
#129=EDGE_CURVE('',#155,#154,#26,.T.);
#130=EDGE_CURVE('',#154,#156,#27,.T.);
#131=EDGE_CURVE('',#155,#157,#28,.T.);
#132=EDGE_CURVE('',#157,#156,#29,.T.);
#133=EDGE_CURVE('',#156,#158,#30,.T.);
#134=EDGE_CURVE('',#157,#159,#31,.T.);
#135=EDGE_CURVE('',#159,#158,#32,.T.);
#136=EDGE_CURVE('',#158,#160,#33,.T.);
#137=EDGE_CURVE('',#159,#161,#34,.T.);
#138=EDGE_CURVE('',#161,#160,#35,.T.);
#139=EDGE_CURVE('',#160,#150,#36,.T.);
#140=EDGE_CURVE('',#161,#152,#37,.T.);
#141=EDGE_CURVE('',#162,#162,#171,.T.);
#142=EDGE_CURVE('',#163,#163,#172,.T.);
#143=EDGE_CURVE('',#164,#164,#173,.T.);
#144=EDGE_CURVE('',#165,#165,#174,.T.);
#145=EDGE_CURVE('',#166,#166,#175,.T.);
#146=EDGE_CURVE('',#167,#167,#176,.T.);
#147=EDGE_CURVE('',#168,#168,#177,.F.);
#148=VERTEX_POINT('',#468);
#149=VERTEX_POINT('',#470);
#150=VERTEX_POINT('',#473);
#151=VERTEX_POINT('',#474);
#152=VERTEX_POINT('',#476);
#153=VERTEX_POINT('',#478);
#154=VERTEX_POINT('',#482);
#155=VERTEX_POINT('',#484);
#156=VERTEX_POINT('',#488);
#157=VERTEX_POINT('',#490);
#158=VERTEX_POINT('',#494);
#159=VERTEX_POINT('',#496);
#160=VERTEX_POINT('',#500);
#161=VERTEX_POINT('',#502);
#162=VERTEX_POINT('',#509);
#163=VERTEX_POINT('',#512);
#164=VERTEX_POINT('',#515);
#165=VERTEX_POINT('',#518);
#166=VERTEX_POINT('',#521);
#167=VERTEX_POINT('',#524);
#168=VERTEX_POINT('',#528);
#169=CIRCLE('',#371,4.283);
#170=CIRCLE('',#372,4.283);
#171=CIRCLE('',#380,6.775);
#172=CIRCLE('',#382,4.283);
#173=CIRCLE('',#384,6.775);
#174=CIRCLE('',#386,4.864);
#175=CIRCLE('',#388,4.864);
#176=CIRCLE('',#390,2.5);
#177=CIRCLE('',#393,2.5);
#178=EDGE_LOOP('',(#67));
#179=EDGE_LOOP('',(#68));
#180=EDGE_LOOP('',(#69,#70,#71,#72));
#181=EDGE_LOOP('',(#73,#74,#75,#76));
#182=EDGE_LOOP('',(#77,#78,#79,#80));
#183=EDGE_LOOP('',(#81,#82,#83,#84));
#184=EDGE_LOOP('',(#85,#86,#87,#88));
#185=EDGE_LOOP('',(#89,#90,#91,#92));
#186=EDGE_LOOP('',(#93));
#187=EDGE_LOOP('',(#94,#95,#96,#97,#98,#99));
#188=EDGE_LOOP('',(#100));
#189=EDGE_LOOP('',(#101,#102,#103,#104,#105,#106));
#190=EDGE_LOOP('',(#107));
#191=EDGE_LOOP('',(#108));
#192=EDGE_LOOP('',(#109));
#193=EDGE_LOOP('',(#110));
#194=EDGE_LOOP('',(#111));
#195=EDGE_LOOP('',(#112));
#196=EDGE_LOOP('',(#113));
#197=EDGE_LOOP('',(#114));
#198=EDGE_LOOP('',(#115));
#199=EDGE_LOOP('',(#116));
#200=EDGE_LOOP('',(#117));
#201=EDGE_LOOP('',(#118));
#202=EDGE_LOOP('',(#119));
#203=EDGE_LOOP('',(#120));
#204=FACE_BOUND('',#178,.T.);
#205=FACE_BOUND('',#179,.T.);
#206=FACE_BOUND('',#180,.T.);
#207=FACE_BOUND('',#181,.T.);
#208=FACE_BOUND('',#182,.T.);
#209=FACE_BOUND('',#183,.T.);
#210=FACE_BOUND('',#184,.T.);
#211=FACE_BOUND('',#185,.T.);
#212=FACE_BOUND('',#186,.T.);
#213=FACE_BOUND('',#187,.T.);
#214=FACE_BOUND('',#188,.T.);
#215=FACE_BOUND('',#189,.T.);
#216=FACE_BOUND('',#190,.T.);
#217=FACE_BOUND('',#191,.T.);
#218=FACE_BOUND('',#192,.T.);
#219=FACE_BOUND('',#193,.T.);
#220=FACE_BOUND('',#194,.T.);
#221=FACE_BOUND('',#195,.T.);
#222=FACE_BOUND('',#196,.T.);
#223=FACE_BOUND('',#197,.T.);
#224=FACE_BOUND('',#198,.T.);
#225=FACE_BOUND('',#199,.T.);
#226=FACE_BOUND('',#200,.T.);
#227=FACE_BOUND('',#201,.T.);
#228=FACE_BOUND('',#202,.T.);
#229=FACE_BOUND('',#203,.T.);
#230=CYLINDRICAL_SURFACE('',#370,4.283);
#231=CYLINDRICAL_SURFACE('',#383,6.775);
#232=CYLINDRICAL_SURFACE('',#387,4.864);
#233=CYLINDRICAL_SURFACE('',#391,4.283);
#234=CYLINDRICAL_SURFACE('',#394,2.5);
#235=STYLED_ITEM('',(#251),#349);
#236=STYLED_ITEM('',(#252),#350);
#237=STYLED_ITEM('',(#253),#351);
#238=STYLED_ITEM('',(#254),#352);
#239=STYLED_ITEM('',(#255),#353);
#240=STYLED_ITEM('',(#256),#354);
#241=STYLED_ITEM('',(#257),#355);
#242=STYLED_ITEM('',(#258),#356);
#243=STYLED_ITEM('',(#259),#357);
#244=STYLED_ITEM('',(#260),#358);
#245=STYLED_ITEM('',(#261),#359);
#246=STYLED_ITEM('',(#262),#360);
#247=STYLED_ITEM('',(#263),#361);
#248=STYLED_ITEM('',(#264),#362);
#249=STYLED_ITEM('',(#265),#363);
#250=STYLED_ITEM('',(#266),#364);
#251=PRESENTATION_STYLE_ASSIGNMENT((#267));
#252=PRESENTATION_STYLE_ASSIGNMENT((#268));
#253=PRESENTATION_STYLE_ASSIGNMENT((#269));
#254=PRESENTATION_STYLE_ASSIGNMENT((#270));
#255=PRESENTATION_STYLE_ASSIGNMENT((#271));
#256=PRESENTATION_STYLE_ASSIGNMENT((#272));
#257=PRESENTATION_STYLE_ASSIGNMENT((#273));
#258=PRESENTATION_STYLE_ASSIGNMENT((#274));
#259=PRESENTATION_STYLE_ASSIGNMENT((#275));
#260=PRESENTATION_STYLE_ASSIGNMENT((#276));
#261=PRESENTATION_STYLE_ASSIGNMENT((#277));
#262=PRESENTATION_STYLE_ASSIGNMENT((#278));
#263=PRESENTATION_STYLE_ASSIGNMENT((#279));
#264=PRESENTATION_STYLE_ASSIGNMENT((#280));
#265=PRESENTATION_STYLE_ASSIGNMENT((#281));
#266=PRESENTATION_STYLE_ASSIGNMENT((#282));
#267=SURFACE_STYLE_USAGE(.BOTH.,#283);
#268=SURFACE_STYLE_USAGE(.BOTH.,#284);
#269=SURFACE_STYLE_USAGE(.BOTH.,#285);
#270=SURFACE_STYLE_USAGE(.BOTH.,#286);
#271=SURFACE_STYLE_USAGE(.BOTH.,#287);
#272=SURFACE_STYLE_USAGE(.BOTH.,#288);
#273=SURFACE_STYLE_USAGE(.BOTH.,#289);
#274=SURFACE_STYLE_USAGE(.BOTH.,#290);
#275=SURFACE_STYLE_USAGE(.BOTH.,#291);
#276=SURFACE_STYLE_USAGE(.BOTH.,#292);
#277=SURFACE_STYLE_USAGE(.BOTH.,#293);
#278=SURFACE_STYLE_USAGE(.BOTH.,#294);
#279=SURFACE_STYLE_USAGE(.BOTH.,#295);
#280=SURFACE_STYLE_USAGE(.BOTH.,#296);
#281=SURFACE_STYLE_USAGE(.BOTH.,#297);
#282=SURFACE_STYLE_USAGE(.BOTH.,#298);
#283=SURFACE_SIDE_STYLE('',(#299));
#284=SURFACE_SIDE_STYLE('',(#300));
#285=SURFACE_SIDE_STYLE('',(#301));
#286=SURFACE_SIDE_STYLE('',(#302));
#287=SURFACE_SIDE_STYLE('',(#303));
#288=SURFACE_SIDE_STYLE('',(#304));
#289=SURFACE_SIDE_STYLE('',(#305));
#290=SURFACE_SIDE_STYLE('',(#306));
#291=SURFACE_SIDE_STYLE('',(#307));
#292=SURFACE_SIDE_STYLE('',(#308));
#293=SURFACE_SIDE_STYLE('',(#309));
#294=SURFACE_SIDE_STYLE('',(#310));
#295=SURFACE_SIDE_STYLE('',(#311));
#296=SURFACE_SIDE_STYLE('',(#312));
#297=SURFACE_SIDE_STYLE('',(#313));
#298=SURFACE_SIDE_STYLE('',(#314));
#299=SURFACE_STYLE_FILL_AREA(#315);
#300=SURFACE_STYLE_FILL_AREA(#316);
#301=SURFACE_STYLE_FILL_AREA(#317);
#302=SURFACE_STYLE_FILL_AREA(#318);
#303=SURFACE_STYLE_FILL_AREA(#319);
#304=SURFACE_STYLE_FILL_AREA(#320);
#305=SURFACE_STYLE_FILL_AREA(#321);
#306=SURFACE_STYLE_FILL_AREA(#322);
#307=SURFACE_STYLE_FILL_AREA(#323);
#308=SURFACE_STYLE_FILL_AREA(#324);
#309=SURFACE_STYLE_FILL_AREA(#325);
#310=SURFACE_STYLE_FILL_AREA(#326);
#311=SURFACE_STYLE_FILL_AREA(#327);
#312=SURFACE_STYLE_FILL_AREA(#328);
#313=SURFACE_STYLE_FILL_AREA(#329);
#314=SURFACE_STYLE_FILL_AREA(#330);
#315=FILL_AREA_STYLE('',(#331));
#316=FILL_AREA_STYLE('',(#332));
#317=FILL_AREA_STYLE('',(#333));
#318=FILL_AREA_STYLE('',(#334));
#319=FILL_AREA_STYLE('',(#335));
#320=FILL_AREA_STYLE('',(#336));
#321=FILL_AREA_STYLE('',(#337));
#322=FILL_AREA_STYLE('',(#338));
#323=FILL_AREA_STYLE('',(#339));
#324=FILL_AREA_STYLE('',(#340));
#325=FILL_AREA_STYLE('',(#341));
#326=FILL_AREA_STYLE('',(#342));
#327=FILL_AREA_STYLE('',(#343));
#328=FILL_AREA_STYLE('',(#344));
#329=FILL_AREA_STYLE('',(#345));
#330=FILL_AREA_STYLE('',(#346));
#331=FILL_AREA_STYLE_COLOUR('',#347);
#332=FILL_AREA_STYLE_COLOUR('',#347);
#333=FILL_AREA_STYLE_COLOUR('',#347);
#334=FILL_AREA_STYLE_COLOUR('',#347);
#335=FILL_AREA_STYLE_COLOUR('',#347);
#336=FILL_AREA_STYLE_COLOUR('',#347);
#337=FILL_AREA_STYLE_COLOUR('',#347);
#338=FILL_AREA_STYLE_COLOUR('',#347);
#339=FILL_AREA_STYLE_COLOUR('',#347);
#340=FILL_AREA_STYLE_COLOUR('',#347);
#341=FILL_AREA_STYLE_COLOUR('',#347);
#342=FILL_AREA_STYLE_COLOUR('',#348);
#343=FILL_AREA_STYLE_COLOUR('',#347);
#344=FILL_AREA_STYLE_COLOUR('',#348);
#345=FILL_AREA_STYLE_COLOUR('',#347);
#346=FILL_AREA_STYLE_COLOUR('',#347);
#347=COLOUR_RGB('',0.506983280181885,0.531564235687256,0.550000011920929);
#348=COLOUR_RGB('',0.1875,0.75,0.581249892711639);
#349=ADVANCED_FACE('',(#204,#205),#230,.F.);
#350=ADVANCED_FACE('',(#206),#56,.T.);
#351=ADVANCED_FACE('',(#207),#57,.T.);
#352=ADVANCED_FACE('',(#208),#58,.T.);
#353=ADVANCED_FACE('',(#209),#59,.T.);
#354=ADVANCED_FACE('',(#210),#60,.T.);
#355=ADVANCED_FACE('',(#211),#61,.T.);
#356=ADVANCED_FACE('',(#212,#213),#62,.F.);
#357=ADVANCED_FACE('',(#214,#215),#63,.T.);
#358=ADVANCED_FACE('',(#216,#217),#231,.T.);
#359=ADVANCED_FACE('',(#218,#219),#64,.F.);
#360=ADVANCED_FACE('',(#220,#221),#232,.T.);
#361=ADVANCED_FACE('',(#222,#223),#65,.F.);
#362=ADVANCED_FACE('',(#224,#225),#233,.F.);
#363=ADVANCED_FACE('',(#226,#227),#66,.F.);
#364=ADVANCED_FACE('',(#228,#229),#234,.F.);
#365=CLOSED_SHELL('',(#349,#350,#351,#352,#353,#354,#355,#356,#357,#358,
#359,#360,#361,#362,#363,#364));
#366=MANIFOLD_SOLID_BREP('',#365);
#367=SHAPE_DEFINITION_REPRESENTATION(#536,#368);
#368=SHAPE_REPRESENTATION('A25.1;8.L32',(#369),#531);
#369=AXIS2_PLACEMENT_3D('',#465,#395,#396);
#370=AXIS2_PLACEMENT_3D('',#466,#397,#398);
#371=AXIS2_PLACEMENT_3D('',#467,#399,#400);
#372=AXIS2_PLACEMENT_3D('',#469,#401,#402);
#373=AXIS2_PLACEMENT_3D('',#471,#403,#404);
#374=AXIS2_PLACEMENT_3D('',#480,#409,#410);
#375=AXIS2_PLACEMENT_3D('',#486,#414,#415);
#376=AXIS2_PLACEMENT_3D('',#492,#419,#420);
#377=AXIS2_PLACEMENT_3D('',#498,#424,#425);
#378=AXIS2_PLACEMENT_3D('',#504,#429,#430);
#379=AXIS2_PLACEMENT_3D('',#507,#433,#434);
#380=AXIS2_PLACEMENT_3D('',#508,#435,#436);
#381=AXIS2_PLACEMENT_3D('',#510,#437,#438);
#382=AXIS2_PLACEMENT_3D('',#511,#439,#440);
#383=AXIS2_PLACEMENT_3D('',#513,#441,#442);
#384=AXIS2_PLACEMENT_3D('',#514,#443,#444);
#385=AXIS2_PLACEMENT_3D('',#516,#445,#446);
#386=AXIS2_PLACEMENT_3D('',#517,#447,#448);
#387=AXIS2_PLACEMENT_3D('',#519,#449,#450);
#388=AXIS2_PLACEMENT_3D('',#520,#451,#452);
#389=AXIS2_PLACEMENT_3D('',#522,#453,#454);
#390=AXIS2_PLACEMENT_3D('',#523,#455,#456);
#391=AXIS2_PLACEMENT_3D('',#525,#457,#458);
#392=AXIS2_PLACEMENT_3D('',#526,#459,#460);
#393=AXIS2_PLACEMENT_3D('',#527,#461,#462);
#394=AXIS2_PLACEMENT_3D('',#529,#463,#464);
#395=DIRECTION('',(0.,0.,1.));
#396=DIRECTION('',(1.,0.,0.));
#397=DIRECTION('',(0.,1.,0.));
#398=DIRECTION('',(0.,0.,-1.));
#399=DIRECTION('',(0.,-1.,0.));
#400=DIRECTION('',(0.,0.,-1.));
#401=DIRECTION('',(0.,1.,0.));
#402=DIRECTION('',(1.,0.,0.));
#403=DIRECTION('',(-1.,0.,-1.60962278436124E-15));
#404=DIRECTION('',(-1.60962278436124E-15,0.,1.));
#405=DIRECTION('',(1.60962278436124E-15,0.,-1.));
#406=DIRECTION('',(0.,-1.,0.));
#407=DIRECTION('',(1.60962278436124E-15,0.,-1.));
#408=DIRECTION('',(0.,-1.,0.));
#409=DIRECTION('',(-0.499999999999998,0.,-0.86602540378444));
#410=DIRECTION('',(-0.86602540378444,0.,0.499999999999998));
#411=DIRECTION('',(0.86602540378444,0.,-0.499999999999998));
#412=DIRECTION('',(0.86602540378444,0.,-0.499999999999998));
#413=DIRECTION('',(0.,-1.,0.));
#414=DIRECTION('',(0.500000000000002,0.,-0.866025403784437));
#415=DIRECTION('',(-0.866025403784437,0.,-0.500000000000002));
#416=DIRECTION('',(0.866025403784437,0.,0.500000000000002));
#417=DIRECTION('',(0.866025403784437,0.,0.500000000000002));
#418=DIRECTION('',(0.,-1.,0.));
#419=DIRECTION('',(1.,0.,3.21924556872248E-15));
#420=DIRECTION('',(3.21924556872248E-15,0.,-1.));
#421=DIRECTION('',(-3.21924556872248E-15,0.,1.));
#422=DIRECTION('',(-3.21924556872248E-15,0.,1.));
#423=DIRECTION('',(0.,-1.,0.));
#424=DIRECTION('',(0.499999999999998,0.,0.86602540378444));
#425=DIRECTION('',(0.86602540378444,0.,-0.499999999999998));
#426=DIRECTION('',(-0.86602540378444,0.,0.499999999999998));
#427=DIRECTION('',(-0.86602540378444,0.,0.499999999999998));
#428=DIRECTION('',(0.,-1.,0.));
#429=DIRECTION('',(-0.500000000000001,0.,0.866025403784438));
#430=DIRECTION('',(0.866025403784438,0.,0.500000000000001));
#431=DIRECTION('',(-0.866025403784438,0.,-0.500000000000001));
#432=DIRECTION('',(-0.866025403784438,0.,-0.500000000000001));
#433=DIRECTION('',(0.,-1.,0.));
#434=DIRECTION('',(0.,0.,-1.));
#435=DIRECTION('',(0.,-1.,0.));
#436=DIRECTION('',(3.43386193997065E-15,0.,-1.));
#437=DIRECTION('',(0.,-1.,0.));
#438=DIRECTION('',(0.,0.,-1.));
#439=DIRECTION('',(0.,1.,0.));
#440=DIRECTION('',(0.,0.,-1.));
#441=DIRECTION('',(0.,-1.,0.));
#442=DIRECTION('',(0.,0.,-1.));
#443=DIRECTION('',(0.,-1.,0.));
#444=DIRECTION('',(3.43386193997065E-15,0.,-1.));
#445=DIRECTION('',(0.,-1.,0.));
#446=DIRECTION('',(0.,0.,-1.));
#447=DIRECTION('',(0.,-1.,0.));
#448=DIRECTION('',(0.,0.,-1.));
#449=DIRECTION('',(0.,-1.,0.));
#450=DIRECTION('',(0.,0.,-1.));
#451=DIRECTION('',(0.,-1.,0.));
#452=DIRECTION('',(0.,0.,-1.));
#453=DIRECTION('',(0.,-1.,0.));
#454=DIRECTION('',(0.,0.,-1.));
#455=DIRECTION('',(0.,-1.,0.));
#456=DIRECTION('',(-1.,0.,0.));
#457=DIRECTION('',(0.,1.,0.));
#458=DIRECTION('',(0.,0.,-1.));
#459=DIRECTION('',(0.,1.,0.));
#460=DIRECTION('',(0.,0.,1.));
#461=DIRECTION('',(0.,1.,0.));
#462=DIRECTION('',(0.,0.,1.));
#463=DIRECTION('',(0.,1.,0.));
#464=DIRECTION('',(0.,0.,1.));
#465=CARTESIAN_POINT('',(0.,0.,0.));
#466=CARTESIAN_POINT('',(0.,0.,0.));
#467=CARTESIAN_POINT('',(0.,2.,0.));
#468=CARTESIAN_POINT('',(0.,2.,-4.283));
#469=CARTESIAN_POINT('',(0.,25.5,0.));
#470=CARTESIAN_POINT('',(4.283,25.5,0.));
#471=CARTESIAN_POINT('',(-7.,6.,4.04145188432738));
#472=CARTESIAN_POINT('',(-7.,0.,4.04145188432738));
#473=CARTESIAN_POINT('',(-7.,0.,4.04145188432738));
#474=CARTESIAN_POINT('',(-6.99999999999999,0.,-4.04145188432738));
#475=CARTESIAN_POINT('',(-7.,6.,4.04145188432738));
#476=CARTESIAN_POINT('',(-7.,6.,4.04145188432738));
#477=CARTESIAN_POINT('',(-7.,6.,4.04145188432738));
#478=CARTESIAN_POINT('',(-6.99999999999999,6.,-4.04145188432738));
#479=CARTESIAN_POINT('',(-6.99999999999999,6.,-4.04145188432738));
#480=CARTESIAN_POINT('',(-6.99999999999999,6.,-4.04145188432738));
#481=CARTESIAN_POINT('',(-6.99999999999999,0.,-4.04145188432738));
#482=CARTESIAN_POINT('',(2.25514051876985E-14,0.,-8.08290376865475));
#483=CARTESIAN_POINT('',(-6.99999999999999,6.,-4.04145188432738));
#484=CARTESIAN_POINT('',(2.25514051876985E-14,6.,-8.08290376865475));
#485=CARTESIAN_POINT('',(2.25514051876985E-14,6.,-8.08290376865475));
#486=CARTESIAN_POINT('',(2.25514051876985E-14,6.,-8.08290376865475));
#487=CARTESIAN_POINT('',(2.25514051876985E-14,0.,-8.08290376865475));
#488=CARTESIAN_POINT('',(7.00000000000001,0.,-4.04145188432735));
#489=CARTESIAN_POINT('',(2.25514051876985E-14,6.,-8.08290376865475));
#490=CARTESIAN_POINT('',(7.00000000000001,6.,-4.04145188432735));
#491=CARTESIAN_POINT('',(7.00000000000001,6.,-4.04145188432735));
#492=CARTESIAN_POINT('',(7.00000000000001,6.,-4.04145188432735));
#493=CARTESIAN_POINT('',(7.00000000000001,0.,-4.04145188432735));
#494=CARTESIAN_POINT('',(6.99999999999999,0.,4.04145188432741));
#495=CARTESIAN_POINT('',(7.00000000000001,6.,-4.04145188432735));
#496=CARTESIAN_POINT('',(6.99999999999999,6.,4.04145188432741));
#497=CARTESIAN_POINT('',(6.99999999999999,6.,4.04145188432741));
#498=CARTESIAN_POINT('',(6.99999999999999,6.,4.04145188432741));
#499=CARTESIAN_POINT('',(6.99999999999999,0.,4.04145188432741));
#500=CARTESIAN_POINT('',(-8.67361737988404E-16,0.,8.08290376865476));
#501=CARTESIAN_POINT('',(6.99999999999999,6.,4.04145188432741));
#502=CARTESIAN_POINT('',(-8.67361737988404E-16,6.,8.08290376865476));
#503=CARTESIAN_POINT('',(-8.67361737988404E-16,6.,8.08290376865476));
#504=CARTESIAN_POINT('',(-8.67361737988404E-16,6.,8.08290376865476));
#505=CARTESIAN_POINT('',(-8.67361737988404E-16,0.,8.08290376865476));
#506=CARTESIAN_POINT('',(-8.67361737988404E-16,6.,8.08290376865476));
#507=CARTESIAN_POINT('',(0.,6.,0.));
#508=CARTESIAN_POINT('',(1.73472347597681E-15,6.,5.63785129692462E-15));
#509=CARTESIAN_POINT('',(2.4999138119278E-14,6.,-6.775));
#510=CARTESIAN_POINT('',(0.,0.,0.));
#511=CARTESIAN_POINT('',(0.,0.,0.));
#512=CARTESIAN_POINT('',(0.,0.,-4.283));
#513=CARTESIAN_POINT('',(1.73472347597681E-15,26.,5.63785129692462E-15));
#514=CARTESIAN_POINT('',(1.73472347597681E-15,26.,5.63785129692462E-15));
#515=CARTESIAN_POINT('',(2.4999138119278E-14,26.,-6.775));
#516=CARTESIAN_POINT('',(1.73472347597681E-15,26.,5.63785129692462E-15));
#517=CARTESIAN_POINT('',(1.73472347597681E-15,26.,5.63785129692462E-15));
#518=CARTESIAN_POINT('',(1.73472347597681E-15,26.,-4.864));
#519=CARTESIAN_POINT('',(1.73472347597681E-15,31.9,5.63785129692462E-15));
#520=CARTESIAN_POINT('',(1.73472347597681E-15,32.,5.63785129692462E-15));
#521=CARTESIAN_POINT('',(1.73472347597681E-15,32.,-4.864));
#522=CARTESIAN_POINT('',(1.73472347597681E-15,32.,5.63785129692462E-15));
#523=CARTESIAN_POINT('',(1.73472347597681E-15,32.,5.63785129692462E-15));
#524=CARTESIAN_POINT('',(-2.5,32.,5.63785129692462E-15));
#525=CARTESIAN_POINT('',(0.,0.,0.));
#526=CARTESIAN_POINT('',(0.,25.5,0.));
#527=CARTESIAN_POINT('',(1.73472347597681E-15,25.5,5.63785129692462E-15));
#528=CARTESIAN_POINT('',(1.73472347597681E-15,25.5,2.50000000000001));
#529=CARTESIAN_POINT('',(1.73472347597681E-15,19.1182069590275,5.63785129692462E-15));
#530=MECHANICAL_DESIGN_GEOMETRIC_PRESENTATION_REPRESENTATION('',(#235,#236,
#237,#238,#239,#240,#241,#242,#243,#244,#245,#246,#247,#248,#249,#250),
#531);
#531=(
GEOMETRIC_REPRESENTATION_CONTEXT(3)
GLOBAL_UNCERTAINTY_ASSIGNED_CONTEXT((#532))
GLOBAL_UNIT_ASSIGNED_CONTEXT((#535,#534,#533))
REPRESENTATION_CONTEXT('A25.1;8.L32','TOP_LEVEL_ASSEMBLY_PART')
);
#532=UNCERTAINTY_MEASURE_WITH_UNIT(LENGTH_MEASURE(0.005),#535,
'DISTANCE_ACCURACY_VALUE','Maximum Tolerance applied to model');
#533=(
NAMED_UNIT(*)
SI_UNIT($,.STERADIAN.)
SOLID_ANGLE_UNIT()
);
#534=(
NAMED_UNIT(*)
PLANE_ANGLE_UNIT()
SI_UNIT($,.RADIAN.)
);
#535=(
LENGTH_UNIT()
NAMED_UNIT(*)
SI_UNIT(.MILLI.,.METRE.)
);
#536=PRODUCT_DEFINITION_SHAPE('','',#537);
#537=PRODUCT_DEFINITION('','',#539,#538);
#538=PRODUCT_DEFINITION_CONTEXT('',#545,'design');
#539=PRODUCT_DEFINITION_FORMATION_WITH_SPECIFIED_SOURCE('','',#541,
 .NOT_KNOWN.);
#540=PRODUCT_RELATED_PRODUCT_CATEGORY('','',(#541));
#541=PRODUCT('A25.1;8.L32','A25.1;8.L32','A25.1;8.L32',(#543));
#542=PRODUCT_CATEGORY('','');
#543=PRODUCT_CONTEXT('',#545,'mechanical');
#544=APPLICATION_PROTOCOL_DEFINITION('international standard',
'automotive_design',2010,#545);
#545=APPLICATION_CONTEXT(
'core data for automotive mechanical design processes');
ENDSEC;
END-ISO-10303-21;
