ISO-10303-21;
HEADER;
/* Generated by software containing ST-Developer
 * from STEP Tools, Inc. (www.steptools.com) 
 */
/* OPTION: strings as raw bytes, not using required /X/ escapes */

FILE_DESCRIPTION(
/* description */ ('Unknown'),
/* implementation_level */ '2;1');

FILE_NAME(
/* name */ 'A25.1;8.L51',
/* time_stamp */ '2021-08-17T15:05:17-04:00',
/* author */ ('Unknown'),
/* organization */ ('Unknown'),
/* preprocessor_version */ 'ST-DEVELOPER v16.7',
/* originating_system */ 'Solid Edge',
/* authorisation */ 'Unknown');

FILE_SCHEMA (('AUTOMOTIVE_DESIGN {1 0 10303 214 3 1 1}'));
ENDSEC;

DATA;
#10=PROPERTY_DEFINITION_REPRESENTATION(#14,#12);
#11=PROPERTY_DEFINITION_REPRESENTATION(#15,#13);
#12=REPRESENTATION('',(#16),#505);
#13=REPRESENTATION('',(#17),#505);
#14=PROPERTY_DEFINITION('pmi validation property','',#510);
#15=PROPERTY_DEFINITION('pmi validation property','',#510);
#16=VALUE_REPRESENTATION_ITEM('number of annotations',COUNT_MEASURE(0.));
#17=VALUE_REPRESENTATION_ITEM('number of views',COUNT_MEASURE(0.));
#18=SHAPE_REPRESENTATION_RELATIONSHIP('','',#351,#19);
#19=ADVANCED_BREP_SHAPE_REPRESENTATION('',(#349),#505);
#20=LINE('',#464,#38);
#21=LINE('',#467,#39);
#22=LINE('',#469,#40);
#23=LINE('',#471,#41);
#24=LINE('',#473,#42);
#25=LINE('',#475,#43);
#26=LINE('',#479,#44);
#27=LINE('',#482,#45);
#28=LINE('',#484,#46);
#29=LINE('',#486,#47);
#30=LINE('',#488,#48);
#31=LINE('',#490,#49);
#32=LINE('',#492,#50);
#33=LINE('',#493,#51);
#34=LINE('',#495,#52);
#35=LINE('',#497,#53);
#36=LINE('',#499,#54);
#37=LINE('',#501,#55);
#38=VECTOR('',#406,1000.);
#39=VECTOR('',#407,1000.);
#40=VECTOR('',#408,1000.);
#41=VECTOR('',#409,1000.);
#42=VECTOR('',#410,1000.);
#43=VECTOR('',#411,1000.);
#44=VECTOR('',#416,1000.);
#45=VECTOR('',#417,1000.);
#46=VECTOR('',#418,1000.);
#47=VECTOR('',#419,1000.);
#48=VECTOR('',#420,1000.);
#49=VECTOR('',#421,1000.);
#50=VECTOR('',#424,1000.);
#51=VECTOR('',#425,1000.);
#52=VECTOR('',#428,1000.);
#53=VECTOR('',#431,1000.);
#54=VECTOR('',#434,1000.);
#55=VECTOR('',#437,1000.);
#56=PLANE('',#356);
#57=PLANE('',#358);
#58=PLANE('',#362);
#59=PLANE('',#366);
#60=PLANE('',#368);
#61=PLANE('',#369);
#62=PLANE('',#370);
#63=PLANE('',#371);
#64=PLANE('',#372);
#65=PLANE('',#373);
#66=PLANE('',#374);
#67=ORIENTED_EDGE('',*,*,#119,.F.);
#68=ORIENTED_EDGE('',*,*,#120,.F.);
#69=ORIENTED_EDGE('',*,*,#121,.F.);
#70=ORIENTED_EDGE('',*,*,#119,.T.);
#71=ORIENTED_EDGE('',*,*,#122,.F.);
#72=ORIENTED_EDGE('',*,*,#120,.T.);
#73=ORIENTED_EDGE('',*,*,#123,.F.);
#74=ORIENTED_EDGE('',*,*,#122,.T.);
#75=ORIENTED_EDGE('',*,*,#124,.F.);
#76=ORIENTED_EDGE('',*,*,#123,.T.);
#77=ORIENTED_EDGE('',*,*,#125,.F.);
#78=ORIENTED_EDGE('',*,*,#124,.T.);
#79=ORIENTED_EDGE('',*,*,#126,.T.);
#80=ORIENTED_EDGE('',*,*,#127,.T.);
#81=ORIENTED_EDGE('',*,*,#128,.T.);
#82=ORIENTED_EDGE('',*,*,#129,.T.);
#83=ORIENTED_EDGE('',*,*,#130,.T.);
#84=ORIENTED_EDGE('',*,*,#131,.T.);
#85=ORIENTED_EDGE('',*,*,#132,.T.);
#86=ORIENTED_EDGE('',*,*,#133,.F.);
#87=ORIENTED_EDGE('',*,*,#134,.F.);
#88=ORIENTED_EDGE('',*,*,#135,.F.);
#89=ORIENTED_EDGE('',*,*,#136,.F.);
#90=ORIENTED_EDGE('',*,*,#137,.F.);
#91=ORIENTED_EDGE('',*,*,#138,.F.);
#92=ORIENTED_EDGE('',*,*,#125,.T.);
#93=ORIENTED_EDGE('',*,*,#131,.F.);
#94=ORIENTED_EDGE('',*,*,#139,.F.);
#95=ORIENTED_EDGE('',*,*,#134,.T.);
#96=ORIENTED_EDGE('',*,*,#140,.T.);
#97=ORIENTED_EDGE('',*,*,#130,.F.);
#98=ORIENTED_EDGE('',*,*,#141,.F.);
#99=ORIENTED_EDGE('',*,*,#135,.T.);
#100=ORIENTED_EDGE('',*,*,#139,.T.);
#101=ORIENTED_EDGE('',*,*,#129,.F.);
#102=ORIENTED_EDGE('',*,*,#142,.F.);
#103=ORIENTED_EDGE('',*,*,#136,.T.);
#104=ORIENTED_EDGE('',*,*,#141,.T.);
#105=ORIENTED_EDGE('',*,*,#128,.F.);
#106=ORIENTED_EDGE('',*,*,#143,.F.);
#107=ORIENTED_EDGE('',*,*,#137,.T.);
#108=ORIENTED_EDGE('',*,*,#142,.T.);
#109=ORIENTED_EDGE('',*,*,#127,.F.);
#110=ORIENTED_EDGE('',*,*,#144,.F.);
#111=ORIENTED_EDGE('',*,*,#138,.T.);
#112=ORIENTED_EDGE('',*,*,#143,.T.);
#113=ORIENTED_EDGE('',*,*,#126,.F.);
#114=ORIENTED_EDGE('',*,*,#140,.F.);
#115=ORIENTED_EDGE('',*,*,#133,.T.);
#116=ORIENTED_EDGE('',*,*,#144,.T.);
#117=ORIENTED_EDGE('',*,*,#121,.T.);
#118=ORIENTED_EDGE('',*,*,#132,.F.);
#119=EDGE_CURVE('',#145,#145,#165,.T.);
#120=EDGE_CURVE('',#146,#146,#166,.T.);
#121=EDGE_CURVE('',#147,#147,#167,.T.);
#122=EDGE_CURVE('',#148,#148,#168,.T.);
#123=EDGE_CURVE('',#149,#149,#169,.T.);
#124=EDGE_CURVE('',#150,#150,#170,.T.);
#125=EDGE_CURVE('',#151,#151,#171,.T.);
#126=EDGE_CURVE('',#152,#153,#20,.T.);
#127=EDGE_CURVE('',#153,#154,#21,.T.);
#128=EDGE_CURVE('',#154,#155,#22,.T.);
#129=EDGE_CURVE('',#155,#156,#23,.T.);
#130=EDGE_CURVE('',#156,#157,#24,.T.);
#131=EDGE_CURVE('',#157,#152,#25,.T.);
#132=EDGE_CURVE('',#158,#158,#172,.T.);
#133=EDGE_CURVE('',#159,#160,#26,.T.);
#134=EDGE_CURVE('',#161,#159,#27,.T.);
#135=EDGE_CURVE('',#162,#161,#28,.T.);
#136=EDGE_CURVE('',#163,#162,#29,.T.);
#137=EDGE_CURVE('',#164,#163,#30,.T.);
#138=EDGE_CURVE('',#160,#164,#31,.T.);
#139=EDGE_CURVE('',#161,#157,#32,.T.);
#140=EDGE_CURVE('',#159,#152,#33,.T.);
#141=EDGE_CURVE('',#162,#156,#34,.T.);
#142=EDGE_CURVE('',#163,#155,#35,.T.);
#143=EDGE_CURVE('',#164,#154,#36,.T.);
#144=EDGE_CURVE('',#160,#153,#37,.T.);
#145=VERTEX_POINT('',#445);
#146=VERTEX_POINT('',#447);
#147=VERTEX_POINT('',#450);
#148=VERTEX_POINT('',#453);
#149=VERTEX_POINT('',#456);
#150=VERTEX_POINT('',#459);
#151=VERTEX_POINT('',#462);
#152=VERTEX_POINT('',#465);
#153=VERTEX_POINT('',#466);
#154=VERTEX_POINT('',#468);
#155=VERTEX_POINT('',#470);
#156=VERTEX_POINT('',#472);
#157=VERTEX_POINT('',#474);
#158=VERTEX_POINT('',#477);
#159=VERTEX_POINT('',#480);
#160=VERTEX_POINT('',#481);
#161=VERTEX_POINT('',#483);
#162=VERTEX_POINT('',#485);
#163=VERTEX_POINT('',#487);
#164=VERTEX_POINT('',#489);
#165=CIRCLE('',#354,2.5);
#166=CIRCLE('',#355,2.5);
#167=CIRCLE('',#357,4.283);
#168=CIRCLE('',#359,4.864);
#169=CIRCLE('',#361,4.864);
#170=CIRCLE('',#363,6.775);
#171=CIRCLE('',#365,6.775);
#172=CIRCLE('',#367,4.283);
#173=EDGE_LOOP('',(#67));
#174=EDGE_LOOP('',(#68));
#175=EDGE_LOOP('',(#69));
#176=EDGE_LOOP('',(#70));
#177=EDGE_LOOP('',(#71));
#178=EDGE_LOOP('',(#72));
#179=EDGE_LOOP('',(#73));
#180=EDGE_LOOP('',(#74));
#181=EDGE_LOOP('',(#75));
#182=EDGE_LOOP('',(#76));
#183=EDGE_LOOP('',(#77));
#184=EDGE_LOOP('',(#78));
#185=EDGE_LOOP('',(#79,#80,#81,#82,#83,#84));
#186=EDGE_LOOP('',(#85));
#187=EDGE_LOOP('',(#86,#87,#88,#89,#90,#91));
#188=EDGE_LOOP('',(#92));
#189=EDGE_LOOP('',(#93,#94,#95,#96));
#190=EDGE_LOOP('',(#97,#98,#99,#100));
#191=EDGE_LOOP('',(#101,#102,#103,#104));
#192=EDGE_LOOP('',(#105,#106,#107,#108));
#193=EDGE_LOOP('',(#109,#110,#111,#112));
#194=EDGE_LOOP('',(#113,#114,#115,#116));
#195=EDGE_LOOP('',(#117));
#196=EDGE_LOOP('',(#118));
#197=FACE_BOUND('',#173,.T.);
#198=FACE_BOUND('',#174,.T.);
#199=FACE_BOUND('',#175,.T.);
#200=FACE_BOUND('',#176,.T.);
#201=FACE_BOUND('',#177,.T.);
#202=FACE_BOUND('',#178,.T.);
#203=FACE_BOUND('',#179,.T.);
#204=FACE_BOUND('',#180,.T.);
#205=FACE_BOUND('',#181,.T.);
#206=FACE_BOUND('',#182,.T.);
#207=FACE_BOUND('',#183,.T.);
#208=FACE_BOUND('',#184,.T.);
#209=FACE_BOUND('',#185,.T.);
#210=FACE_BOUND('',#186,.T.);
#211=FACE_BOUND('',#187,.T.);
#212=FACE_BOUND('',#188,.T.);
#213=FACE_BOUND('',#189,.T.);
#214=FACE_BOUND('',#190,.T.);
#215=FACE_BOUND('',#191,.T.);
#216=FACE_BOUND('',#192,.T.);
#217=FACE_BOUND('',#193,.T.);
#218=FACE_BOUND('',#194,.T.);
#219=FACE_BOUND('',#195,.T.);
#220=FACE_BOUND('',#196,.T.);
#221=CYLINDRICAL_SURFACE('',#353,2.5);
#222=CYLINDRICAL_SURFACE('',#360,4.864);
#223=CYLINDRICAL_SURFACE('',#364,6.775);
#224=CYLINDRICAL_SURFACE('',#375,4.283);
#225=STYLED_ITEM('',(#240),#333);
#226=STYLED_ITEM('',(#241),#334);
#227=STYLED_ITEM('',(#242),#335);
#228=STYLED_ITEM('',(#243),#336);
#229=STYLED_ITEM('',(#244),#337);
#230=STYLED_ITEM('',(#245),#338);
#231=STYLED_ITEM('',(#246),#339);
#232=STYLED_ITEM('',(#247),#340);
#233=STYLED_ITEM('',(#248),#341);
#234=STYLED_ITEM('',(#249),#342);
#235=STYLED_ITEM('',(#250),#343);
#236=STYLED_ITEM('',(#251),#344);
#237=STYLED_ITEM('',(#252),#345);
#238=STYLED_ITEM('',(#253),#346);
#239=STYLED_ITEM('',(#254),#347);
#240=PRESENTATION_STYLE_ASSIGNMENT((#255));
#241=PRESENTATION_STYLE_ASSIGNMENT((#256));
#242=PRESENTATION_STYLE_ASSIGNMENT((#257));
#243=PRESENTATION_STYLE_ASSIGNMENT((#258));
#244=PRESENTATION_STYLE_ASSIGNMENT((#259));
#245=PRESENTATION_STYLE_ASSIGNMENT((#260));
#246=PRESENTATION_STYLE_ASSIGNMENT((#261));
#247=PRESENTATION_STYLE_ASSIGNMENT((#262));
#248=PRESENTATION_STYLE_ASSIGNMENT((#263));
#249=PRESENTATION_STYLE_ASSIGNMENT((#264));
#250=PRESENTATION_STYLE_ASSIGNMENT((#265));
#251=PRESENTATION_STYLE_ASSIGNMENT((#266));
#252=PRESENTATION_STYLE_ASSIGNMENT((#267));
#253=PRESENTATION_STYLE_ASSIGNMENT((#268));
#254=PRESENTATION_STYLE_ASSIGNMENT((#269));
#255=SURFACE_STYLE_USAGE(.BOTH.,#270);
#256=SURFACE_STYLE_USAGE(.BOTH.,#271);
#257=SURFACE_STYLE_USAGE(.BOTH.,#272);
#258=SURFACE_STYLE_USAGE(.BOTH.,#273);
#259=SURFACE_STYLE_USAGE(.BOTH.,#274);
#260=SURFACE_STYLE_USAGE(.BOTH.,#275);
#261=SURFACE_STYLE_USAGE(.BOTH.,#276);
#262=SURFACE_STYLE_USAGE(.BOTH.,#277);
#263=SURFACE_STYLE_USAGE(.BOTH.,#278);
#264=SURFACE_STYLE_USAGE(.BOTH.,#279);
#265=SURFACE_STYLE_USAGE(.BOTH.,#280);
#266=SURFACE_STYLE_USAGE(.BOTH.,#281);
#267=SURFACE_STYLE_USAGE(.BOTH.,#282);
#268=SURFACE_STYLE_USAGE(.BOTH.,#283);
#269=SURFACE_STYLE_USAGE(.BOTH.,#284);
#270=SURFACE_SIDE_STYLE('',(#285));
#271=SURFACE_SIDE_STYLE('',(#286));
#272=SURFACE_SIDE_STYLE('',(#287));
#273=SURFACE_SIDE_STYLE('',(#288));
#274=SURFACE_SIDE_STYLE('',(#289));
#275=SURFACE_SIDE_STYLE('',(#290));
#276=SURFACE_SIDE_STYLE('',(#291));
#277=SURFACE_SIDE_STYLE('',(#292));
#278=SURFACE_SIDE_STYLE('',(#293));
#279=SURFACE_SIDE_STYLE('',(#294));
#280=SURFACE_SIDE_STYLE('',(#295));
#281=SURFACE_SIDE_STYLE('',(#296));
#282=SURFACE_SIDE_STYLE('',(#297));
#283=SURFACE_SIDE_STYLE('',(#298));
#284=SURFACE_SIDE_STYLE('',(#299));
#285=SURFACE_STYLE_FILL_AREA(#300);
#286=SURFACE_STYLE_FILL_AREA(#301);
#287=SURFACE_STYLE_FILL_AREA(#302);
#288=SURFACE_STYLE_FILL_AREA(#303);
#289=SURFACE_STYLE_FILL_AREA(#304);
#290=SURFACE_STYLE_FILL_AREA(#305);
#291=SURFACE_STYLE_FILL_AREA(#306);
#292=SURFACE_STYLE_FILL_AREA(#307);
#293=SURFACE_STYLE_FILL_AREA(#308);
#294=SURFACE_STYLE_FILL_AREA(#309);
#295=SURFACE_STYLE_FILL_AREA(#310);
#296=SURFACE_STYLE_FILL_AREA(#311);
#297=SURFACE_STYLE_FILL_AREA(#312);
#298=SURFACE_STYLE_FILL_AREA(#313);
#299=SURFACE_STYLE_FILL_AREA(#314);
#300=FILL_AREA_STYLE('',(#315));
#301=FILL_AREA_STYLE('',(#316));
#302=FILL_AREA_STYLE('',(#317));
#303=FILL_AREA_STYLE('',(#318));
#304=FILL_AREA_STYLE('',(#319));
#305=FILL_AREA_STYLE('',(#320));
#306=FILL_AREA_STYLE('',(#321));
#307=FILL_AREA_STYLE('',(#322));
#308=FILL_AREA_STYLE('',(#323));
#309=FILL_AREA_STYLE('',(#324));
#310=FILL_AREA_STYLE('',(#325));
#311=FILL_AREA_STYLE('',(#326));
#312=FILL_AREA_STYLE('',(#327));
#313=FILL_AREA_STYLE('',(#328));
#314=FILL_AREA_STYLE('',(#329));
#315=FILL_AREA_STYLE_COLOUR('',#330);
#316=FILL_AREA_STYLE_COLOUR('',#330);
#317=FILL_AREA_STYLE_COLOUR('',#330);
#318=FILL_AREA_STYLE_COLOUR('',#331);
#319=FILL_AREA_STYLE_COLOUR('',#330);
#320=FILL_AREA_STYLE_COLOUR('',#330);
#321=FILL_AREA_STYLE_COLOUR('',#330);
#322=FILL_AREA_STYLE_COLOUR('',#330);
#323=FILL_AREA_STYLE_COLOUR('',#330);
#324=FILL_AREA_STYLE_COLOUR('',#330);
#325=FILL_AREA_STYLE_COLOUR('',#330);
#326=FILL_AREA_STYLE_COLOUR('',#330);
#327=FILL_AREA_STYLE_COLOUR('',#330);
#328=FILL_AREA_STYLE_COLOUR('',#330);
#329=FILL_AREA_STYLE_COLOUR('',#332);
#330=COLOUR_RGB('',0.439215689897537,0.501960813999176,0.501960813999176);
#331=COLOUR_RGB('',0.125490203499794,0.690196096897125,0.501960813999176);
#332=COLOUR_RGB('',0.506983280181885,0.531564235687256,0.550000011920929);
#333=ADVANCED_FACE('',(#197,#198),#221,.F.);
#334=ADVANCED_FACE('',(#199,#200),#56,.F.);
#335=ADVANCED_FACE('',(#201,#202),#57,.F.);
#336=ADVANCED_FACE('',(#203,#204),#222,.T.);
#337=ADVANCED_FACE('',(#205,#206),#58,.F.);
#338=ADVANCED_FACE('',(#207,#208),#223,.T.);
#339=ADVANCED_FACE('',(#209,#210),#59,.T.);
#340=ADVANCED_FACE('',(#211,#212),#60,.F.);
#341=ADVANCED_FACE('',(#213),#61,.T.);
#342=ADVANCED_FACE('',(#214),#62,.T.);
#343=ADVANCED_FACE('',(#215),#63,.T.);
#344=ADVANCED_FACE('',(#216),#64,.T.);
#345=ADVANCED_FACE('',(#217),#65,.T.);
#346=ADVANCED_FACE('',(#218),#66,.T.);
#347=ADVANCED_FACE('',(#219,#220),#224,.F.);
#348=CLOSED_SHELL('',(#333,#334,#335,#336,#337,#338,#339,#340,#341,#342,
#343,#344,#345,#346,#347));
#349=MANIFOLD_SOLID_BREP('',#348);
#350=SHAPE_DEFINITION_REPRESENTATION(#510,#351);
#351=SHAPE_REPRESENTATION('A25.1;8.L51',(#352),#505);
#352=AXIS2_PLACEMENT_3D('',#442,#376,#377);
#353=AXIS2_PLACEMENT_3D('',#443,#378,#379);
#354=AXIS2_PLACEMENT_3D('',#444,#380,#381);
#355=AXIS2_PLACEMENT_3D('',#446,#382,#383);
#356=AXIS2_PLACEMENT_3D('',#448,#384,#385);
#357=AXIS2_PLACEMENT_3D('',#449,#386,#387);
#358=AXIS2_PLACEMENT_3D('',#451,#388,#389);
#359=AXIS2_PLACEMENT_3D('',#452,#390,#391);
#360=AXIS2_PLACEMENT_3D('',#454,#392,#393);
#361=AXIS2_PLACEMENT_3D('',#455,#394,#395);
#362=AXIS2_PLACEMENT_3D('',#457,#396,#397);
#363=AXIS2_PLACEMENT_3D('',#458,#398,#399);
#364=AXIS2_PLACEMENT_3D('',#460,#400,#401);
#365=AXIS2_PLACEMENT_3D('',#461,#402,#403);
#366=AXIS2_PLACEMENT_3D('',#463,#404,#405);
#367=AXIS2_PLACEMENT_3D('',#476,#412,#413);
#368=AXIS2_PLACEMENT_3D('',#478,#414,#415);
#369=AXIS2_PLACEMENT_3D('',#491,#422,#423);
#370=AXIS2_PLACEMENT_3D('',#494,#426,#427);
#371=AXIS2_PLACEMENT_3D('',#496,#429,#430);
#372=AXIS2_PLACEMENT_3D('',#498,#432,#433);
#373=AXIS2_PLACEMENT_3D('',#500,#435,#436);
#374=AXIS2_PLACEMENT_3D('',#502,#438,#439);
#375=AXIS2_PLACEMENT_3D('',#503,#440,#441);
#376=DIRECTION('',(0.,0.,1.));
#377=DIRECTION('',(1.,0.,0.));
#378=DIRECTION('',(0.,1.,0.));
#379=DIRECTION('',(0.,0.,1.));
#380=DIRECTION('',(0.,1.,0.));
#381=DIRECTION('',(0.,0.,1.));
#382=DIRECTION('',(0.,-1.,0.));
#383=DIRECTION('',(-1.,0.,0.));
#384=DIRECTION('',(0.,1.,0.));
#385=DIRECTION('',(0.,0.,1.));
#386=DIRECTION('',(0.,1.,0.));
#387=DIRECTION('',(1.,0.,0.));
#388=DIRECTION('',(0.,-1.,0.));
#389=DIRECTION('',(0.,0.,-1.));
#390=DIRECTION('',(0.,-1.,0.));
#391=DIRECTION('',(0.,0.,-1.));
#392=DIRECTION('',(0.,-1.,0.));
#393=DIRECTION('',(0.,0.,-1.));
#394=DIRECTION('',(0.,-1.,0.));
#395=DIRECTION('',(0.,0.,-1.));
#396=DIRECTION('',(0.,-1.,0.));
#397=DIRECTION('',(0.,0.,-1.));
#398=DIRECTION('',(0.,-1.,0.));
#399=DIRECTION('',(3.43386193997065E-15,0.,-1.));
#400=DIRECTION('',(0.,-1.,0.));
#401=DIRECTION('',(0.,0.,-1.));
#402=DIRECTION('',(0.,-1.,0.));
#403=DIRECTION('',(3.43386193997065E-15,0.,-1.));
#404=DIRECTION('',(0.,-1.,0.));
#405=DIRECTION('',(0.,0.,-1.));
#406=DIRECTION('',(1.60962278436124E-15,0.,-1.));
#407=DIRECTION('',(0.86602540378444,0.,-0.499999999999998));
#408=DIRECTION('',(0.866025403784437,0.,0.500000000000002));
#409=DIRECTION('',(-3.21924556872248E-15,0.,1.));
#410=DIRECTION('',(-0.86602540378444,0.,0.499999999999998));
#411=DIRECTION('',(-0.866025403784438,0.,-0.500000000000001));
#412=DIRECTION('',(0.,1.,0.));
#413=DIRECTION('',(0.,0.,-1.));
#414=DIRECTION('',(0.,-1.,0.));
#415=DIRECTION('',(0.,0.,-1.));
#416=DIRECTION('',(1.60962278436124E-15,0.,-1.));
#417=DIRECTION('',(-0.866025403784438,0.,-0.500000000000001));
#418=DIRECTION('',(-0.86602540378444,0.,0.499999999999998));
#419=DIRECTION('',(-3.21924556872248E-15,0.,1.));
#420=DIRECTION('',(0.866025403784437,0.,0.500000000000002));
#421=DIRECTION('',(0.86602540378444,0.,-0.499999999999998));
#422=DIRECTION('',(-0.500000000000001,0.,0.866025403784438));
#423=DIRECTION('',(0.866025403784438,0.,0.500000000000001));
#424=DIRECTION('',(0.,-1.,0.));
#425=DIRECTION('',(0.,-1.,0.));
#426=DIRECTION('',(0.499999999999998,0.,0.86602540378444));
#427=DIRECTION('',(0.86602540378444,0.,-0.499999999999998));
#428=DIRECTION('',(0.,-1.,0.));
#429=DIRECTION('',(1.,0.,3.21924556872248E-15));
#430=DIRECTION('',(3.21924556872248E-15,0.,-1.));
#431=DIRECTION('',(0.,-1.,0.));
#432=DIRECTION('',(0.500000000000002,0.,-0.866025403784437));
#433=DIRECTION('',(-0.866025403784437,0.,-0.500000000000002));
#434=DIRECTION('',(0.,-1.,0.));
#435=DIRECTION('',(-0.499999999999998,0.,-0.86602540378444));
#436=DIRECTION('',(-0.86602540378444,0.,0.499999999999998));
#437=DIRECTION('',(0.,-1.,0.));
#438=DIRECTION('',(-1.,0.,-1.60962278436124E-15));
#439=DIRECTION('',(-1.60962278436124E-15,0.,1.));
#440=DIRECTION('',(0.,1.,0.));
#441=DIRECTION('',(0.,0.,-1.));
#442=CARTESIAN_POINT('',(0.,0.,0.));
#443=CARTESIAN_POINT('',(1.73472347597681E-15,38.1182069590275,5.63785129692462E-15));
#444=CARTESIAN_POINT('',(1.73472347597681E-15,44.5,5.63785129692462E-15));
#445=CARTESIAN_POINT('',(1.73472347597681E-15,44.5,2.50000000000001));
#446=CARTESIAN_POINT('',(1.73472347597681E-15,51.,5.63785129692462E-15));
#447=CARTESIAN_POINT('',(-2.5,51.,5.63785129692462E-15));
#448=CARTESIAN_POINT('',(0.,44.5,0.));
#449=CARTESIAN_POINT('',(0.,44.5,0.));
#450=CARTESIAN_POINT('',(4.283,44.5,0.));
#451=CARTESIAN_POINT('',(1.73472347597681E-15,51.,5.63785129692462E-15));
#452=CARTESIAN_POINT('',(1.73472347597681E-15,51.,5.63785129692462E-15));
#453=CARTESIAN_POINT('',(1.73472347597681E-15,51.,-4.864));
#454=CARTESIAN_POINT('',(1.73472347597681E-15,50.9,5.63785129692462E-15));
#455=CARTESIAN_POINT('',(1.73472347597681E-15,45.,5.63785129692462E-15));
#456=CARTESIAN_POINT('',(1.73472347597681E-15,45.,-4.864));
#457=CARTESIAN_POINT('',(1.73472347597681E-15,45.,5.63785129692462E-15));
#458=CARTESIAN_POINT('',(1.73472347597681E-15,45.,5.63785129692462E-15));
#459=CARTESIAN_POINT('',(2.4999138119278E-14,45.,-6.775));
#460=CARTESIAN_POINT('',(1.73472347597681E-15,26.,5.63785129692462E-15));
#461=CARTESIAN_POINT('',(1.73472347597681E-15,6.,5.63785129692462E-15));
#462=CARTESIAN_POINT('',(2.4999138119278E-14,6.,-6.775));
#463=CARTESIAN_POINT('',(0.,0.,0.));
#464=CARTESIAN_POINT('',(-7.,0.,4.04145188432738));
#465=CARTESIAN_POINT('',(-7.,0.,4.04145188432738));
#466=CARTESIAN_POINT('',(-6.99999999999999,0.,-4.04145188432738));
#467=CARTESIAN_POINT('',(-6.99999999999999,0.,-4.04145188432738));
#468=CARTESIAN_POINT('',(2.25514051876985E-14,0.,-8.08290376865475));
#469=CARTESIAN_POINT('',(2.25514051876985E-14,0.,-8.08290376865475));
#470=CARTESIAN_POINT('',(7.00000000000001,0.,-4.04145188432735));
#471=CARTESIAN_POINT('',(7.00000000000001,0.,-4.04145188432735));
#472=CARTESIAN_POINT('',(6.99999999999999,0.,4.04145188432741));
#473=CARTESIAN_POINT('',(6.99999999999999,0.,4.04145188432741));
#474=CARTESIAN_POINT('',(-8.67361737988404E-16,0.,8.08290376865476));
#475=CARTESIAN_POINT('',(-8.67361737988404E-16,0.,8.08290376865476));
#476=CARTESIAN_POINT('',(0.,0.,0.));
#477=CARTESIAN_POINT('',(0.,0.,-4.283));
#478=CARTESIAN_POINT('',(0.,6.,0.));
#479=CARTESIAN_POINT('',(-7.,6.,4.04145188432738));
#480=CARTESIAN_POINT('',(-7.,6.,4.04145188432738));
#481=CARTESIAN_POINT('',(-6.99999999999999,6.,-4.04145188432738));
#482=CARTESIAN_POINT('',(-8.67361737988404E-16,6.,8.08290376865476));
#483=CARTESIAN_POINT('',(-8.67361737988404E-16,6.,8.08290376865476));
#484=CARTESIAN_POINT('',(6.99999999999999,6.,4.04145188432741));
#485=CARTESIAN_POINT('',(6.99999999999999,6.,4.04145188432741));
#486=CARTESIAN_POINT('',(7.00000000000001,6.,-4.04145188432735));
#487=CARTESIAN_POINT('',(7.00000000000001,6.,-4.04145188432735));
#488=CARTESIAN_POINT('',(2.25514051876985E-14,6.,-8.08290376865475));
#489=CARTESIAN_POINT('',(2.25514051876985E-14,6.,-8.08290376865475));
#490=CARTESIAN_POINT('',(-6.99999999999999,6.,-4.04145188432738));
#491=CARTESIAN_POINT('',(-8.67361737988404E-16,6.,8.08290376865476));
#492=CARTESIAN_POINT('',(-8.67361737988404E-16,6.,8.08290376865476));
#493=CARTESIAN_POINT('',(-7.,6.,4.04145188432738));
#494=CARTESIAN_POINT('',(6.99999999999999,6.,4.04145188432741));
#495=CARTESIAN_POINT('',(6.99999999999999,6.,4.04145188432741));
#496=CARTESIAN_POINT('',(7.00000000000001,6.,-4.04145188432735));
#497=CARTESIAN_POINT('',(7.00000000000001,6.,-4.04145188432735));
#498=CARTESIAN_POINT('',(2.25514051876985E-14,6.,-8.08290376865475));
#499=CARTESIAN_POINT('',(2.25514051876985E-14,6.,-8.08290376865475));
#500=CARTESIAN_POINT('',(-6.99999999999999,6.,-4.04145188432738));
#501=CARTESIAN_POINT('',(-6.99999999999999,6.,-4.04145188432738));
#502=CARTESIAN_POINT('',(-7.,6.,4.04145188432738));
#503=CARTESIAN_POINT('',(0.,0.,0.));
#504=MECHANICAL_DESIGN_GEOMETRIC_PRESENTATION_REPRESENTATION('',(#225,#226,
#227,#228,#229,#230,#231,#232,#233,#234,#235,#236,#237,#238,#239),#505);
#505=(
GEOMETRIC_REPRESENTATION_CONTEXT(3)
GLOBAL_UNCERTAINTY_ASSIGNED_CONTEXT((#506))
GLOBAL_UNIT_ASSIGNED_CONTEXT((#509,#508,#507))
REPRESENTATION_CONTEXT('A25.1;8.L51','TOP_LEVEL_ASSEMBLY_PART')
);
#506=UNCERTAINTY_MEASURE_WITH_UNIT(LENGTH_MEASURE(0.005),#509,
'DISTANCE_ACCURACY_VALUE','Maximum Tolerance applied to model');
#507=(
NAMED_UNIT(*)
SI_UNIT($,.STERADIAN.)
SOLID_ANGLE_UNIT()
);
#508=(
NAMED_UNIT(*)
PLANE_ANGLE_UNIT()
SI_UNIT($,.RADIAN.)
);
#509=(
LENGTH_UNIT()
NAMED_UNIT(*)
SI_UNIT(.MILLI.,.METRE.)
);
#510=PRODUCT_DEFINITION_SHAPE('','',#511);
#511=PRODUCT_DEFINITION('','',#513,#512);
#512=PRODUCT_DEFINITION_CONTEXT('',#519,'design');
#513=PRODUCT_DEFINITION_FORMATION_WITH_SPECIFIED_SOURCE('','',#515,
 .NOT_KNOWN.);
#514=PRODUCT_RELATED_PRODUCT_CATEGORY('','',(#515));
#515=PRODUCT('A25.1;8.L51','A25.1;8.L51','A25.1;8.L51',(#517));
#516=PRODUCT_CATEGORY('','');
#517=PRODUCT_CONTEXT('',#519,'mechanical');
#518=APPLICATION_PROTOCOL_DEFINITION('international standard',
'automotive_design',2010,#519);
#519=APPLICATION_CONTEXT(
'core data for automotive mechanical design processes');
ENDSEC;
END-ISO-10303-21;
