ISO-10303-21;
HEADER;
/* Generated by software containing ST-Developer
 * from STEP Tools, Inc. (www.steptools.com) 
 */
/* OPTION: strings as raw bytes, not using required /X/ escapes */

FILE_DESCRIPTION(
/* description */ ('Unknown'),
/* implementation_level */ '2;1');

FILE_NAME(
/* name */ 'A3.M5',
/* time_stamp */ '2020-10-19T08:31:08-04:00',
/* author */ ('Unknown'),
/* organization */ ('Unknown'),
/* preprocessor_version */ 'ST-DEVELOPER v16.7',
/* originating_system */ 'Solid Edge',
/* authorisation */ 'Unknown');

FILE_SCHEMA (('AUTOMOTIVE_DESIGN {1 0 10303 214 3 1 1}'));
ENDSEC;

DATA;
#10=PROPERTY_DEFINITION_REPRESENTATION(#14,#12);
#11=PROPERTY_DEFINITION_REPRESENTATION(#15,#13);
#12=REPRESENTATION('',(#16),#582);
#13=REPRESENTATION('',(#17),#582);
#14=PROPERTY_DEFINITION('pmi validation property','',#587);
#15=PROPERTY_DEFINITION('pmi validation property','',#587);
#16=VALUE_REPRESENTATION_ITEM('number of annotations',COUNT_MEASURE(0.));
#17=VALUE_REPRESENTATION_ITEM('number of views',COUNT_MEASURE(0.));
#18=SHAPE_REPRESENTATION_RELATIONSHIP('','',#374,#19);
#19=ADVANCED_BREP_SHAPE_REPRESENTATION('',(#372),#582);
#20=CYLINDRICAL_SURFACE('',#387,3.825);
#21=CYLINDRICAL_SURFACE('',#394,3.825);
#22=CYLINDRICAL_SURFACE('',#396,2.067);
#23=CIRCLE('',#383,3.825);
#24=CIRCLE('',#385,2.367);
#25=CIRCLE('',#386,3.525);
#26=CIRCLE('',#388,3.825);
#27=CIRCLE('',#390,3.825);
#28=CIRCLE('',#392,2.367);
#29=CIRCLE('',#393,3.525);
#30=CIRCLE('',#395,3.825);
#31=CIRCLE('',#397,2.067);
#32=CIRCLE('',#398,2.067);
#33=CONICAL_SURFACE('',#382,4.618802153517,1.20946118359764);
#34=CONICAL_SURFACE('',#389,3.825,1.20946118359764);
#35=CONICAL_SURFACE('',#399,3.825,0.785398163397449);
#36=CONICAL_SURFACE('',#400,3.825,0.785398163397448);
#37=CONICAL_SURFACE('',#401,2.067,0.785398163397448);
#38=CONICAL_SURFACE('',#402,2.367,0.785398163397448);
#39=LINE('',#474,#45);
#40=LINE('',#482,#46);
#41=LINE('',#490,#47);
#42=LINE('',#504,#48);
#43=LINE('',#518,#49);
#44=LINE('',#532,#50);
#45=VECTOR('',#407,1000.);
#46=VECTOR('',#408,1000.);
#47=VECTOR('',#411,1000.);
#48=VECTOR('',#414,1000.);
#49=VECTOR('',#417,1000.);
#50=VECTOR('',#420,1000.);
#51=ORIENTED_EDGE('',*,*,#107,.F.);
#52=ORIENTED_EDGE('',*,*,#108,.T.);
#53=ORIENTED_EDGE('',*,*,#109,.F.);
#54=ORIENTED_EDGE('',*,*,#110,.F.);
#55=ORIENTED_EDGE('',*,*,#111,.F.);
#56=ORIENTED_EDGE('',*,*,#112,.T.);
#57=ORIENTED_EDGE('',*,*,#113,.F.);
#58=ORIENTED_EDGE('',*,*,#108,.F.);
#59=ORIENTED_EDGE('',*,*,#114,.F.);
#60=ORIENTED_EDGE('',*,*,#115,.T.);
#61=ORIENTED_EDGE('',*,*,#116,.F.);
#62=ORIENTED_EDGE('',*,*,#112,.F.);
#63=ORIENTED_EDGE('',*,*,#117,.F.);
#64=ORIENTED_EDGE('',*,*,#118,.T.);
#65=ORIENTED_EDGE('',*,*,#119,.F.);
#66=ORIENTED_EDGE('',*,*,#115,.F.);
#67=ORIENTED_EDGE('',*,*,#120,.F.);
#68=ORIENTED_EDGE('',*,*,#121,.T.);
#69=ORIENTED_EDGE('',*,*,#122,.F.);
#70=ORIENTED_EDGE('',*,*,#118,.F.);
#71=ORIENTED_EDGE('',*,*,#123,.F.);
#72=ORIENTED_EDGE('',*,*,#110,.T.);
#73=ORIENTED_EDGE('',*,*,#124,.F.);
#74=ORIENTED_EDGE('',*,*,#121,.F.);
#75=ORIENTED_EDGE('',*,*,#125,.T.);
#76=ORIENTED_EDGE('',*,*,#109,.T.);
#77=ORIENTED_EDGE('',*,*,#113,.T.);
#78=ORIENTED_EDGE('',*,*,#116,.T.);
#79=ORIENTED_EDGE('',*,*,#119,.T.);
#80=ORIENTED_EDGE('',*,*,#122,.T.);
#81=ORIENTED_EDGE('',*,*,#124,.T.);
#82=ORIENTED_EDGE('',*,*,#126,.T.);
#83=ORIENTED_EDGE('',*,*,#127,.T.);
#84=ORIENTED_EDGE('',*,*,#128,.T.);
#85=ORIENTED_EDGE('',*,*,#125,.F.);
#86=ORIENTED_EDGE('',*,*,#114,.T.);
#87=ORIENTED_EDGE('',*,*,#111,.T.);
#88=ORIENTED_EDGE('',*,*,#107,.T.);
#89=ORIENTED_EDGE('',*,*,#123,.T.);
#90=ORIENTED_EDGE('',*,*,#120,.T.);
#91=ORIENTED_EDGE('',*,*,#117,.T.);
#92=ORIENTED_EDGE('',*,*,#129,.T.);
#93=ORIENTED_EDGE('',*,*,#130,.T.);
#94=ORIENTED_EDGE('',*,*,#131,.T.);
#95=ORIENTED_EDGE('',*,*,#132,.T.);
#96=ORIENTED_EDGE('',*,*,#129,.F.);
#97=ORIENTED_EDGE('',*,*,#133,.T.);
#98=ORIENTED_EDGE('',*,*,#134,.T.);
#99=ORIENTED_EDGE('',*,*,#131,.F.);
#100=ORIENTED_EDGE('',*,*,#132,.F.);
#101=ORIENTED_EDGE('',*,*,#127,.F.);
#102=ORIENTED_EDGE('',*,*,#128,.F.);
#103=ORIENTED_EDGE('',*,*,#130,.F.);
#104=ORIENTED_EDGE('',*,*,#133,.F.);
#105=ORIENTED_EDGE('',*,*,#134,.F.);
#106=ORIENTED_EDGE('',*,*,#126,.F.);
#107=EDGE_CURVE('',#135,#136,#157,.T.);
#108=EDGE_CURVE('',#135,#137,#39,.T.);
#109=EDGE_CURVE('',#138,#137,#158,.T.);
#110=EDGE_CURVE('',#136,#138,#40,.T.);
#111=EDGE_CURVE('',#139,#135,#159,.T.);
#112=EDGE_CURVE('',#139,#140,#41,.T.);
#113=EDGE_CURVE('',#137,#140,#160,.T.);
#114=EDGE_CURVE('',#141,#139,#161,.T.);
#115=EDGE_CURVE('',#141,#142,#42,.T.);
#116=EDGE_CURVE('',#140,#142,#162,.T.);
#117=EDGE_CURVE('',#143,#141,#163,.T.);
#118=EDGE_CURVE('',#143,#144,#43,.T.);
#119=EDGE_CURVE('',#142,#144,#164,.T.);
#120=EDGE_CURVE('',#145,#143,#165,.T.);
#121=EDGE_CURVE('',#145,#146,#44,.T.);
#122=EDGE_CURVE('',#144,#146,#166,.T.);
#123=EDGE_CURVE('',#136,#145,#167,.T.);
#124=EDGE_CURVE('',#146,#138,#168,.T.);
#125=EDGE_CURVE('',#147,#147,#23,.T.);
#126=EDGE_CURVE('',#148,#148,#24,.T.);
#127=EDGE_CURVE('',#149,#149,#25,.F.);
#128=EDGE_CURVE('',#150,#150,#26,.T.);
#129=EDGE_CURVE('',#151,#151,#27,.T.);
#130=EDGE_CURVE('',#152,#152,#28,.T.);
#131=EDGE_CURVE('',#153,#153,#29,.F.);
#132=EDGE_CURVE('',#154,#154,#30,.T.);
#133=EDGE_CURVE('',#155,#155,#31,.F.);
#134=EDGE_CURVE('',#156,#156,#32,.F.);
#135=VERTEX_POINT('',#472);
#136=VERTEX_POINT('',#473);
#137=VERTEX_POINT('',#475);
#138=VERTEX_POINT('',#481);
#139=VERTEX_POINT('',#489);
#140=VERTEX_POINT('',#491);
#141=VERTEX_POINT('',#503);
#142=VERTEX_POINT('',#505);
#143=VERTEX_POINT('',#517);
#144=VERTEX_POINT('',#519);
#145=VERTEX_POINT('',#531);
#146=VERTEX_POINT('',#533);
#147=VERTEX_POINT('',#552);
#148=VERTEX_POINT('',#555);
#149=VERTEX_POINT('',#557);
#150=VERTEX_POINT('',#560);
#151=VERTEX_POINT('',#563);
#152=VERTEX_POINT('',#566);
#153=VERTEX_POINT('',#568);
#154=VERTEX_POINT('',#571);
#155=VERTEX_POINT('',#574);
#156=VERTEX_POINT('',#576);
#157=B_SPLINE_CURVE_WITH_KNOTS('',3,(#467,#468,#469,#470,#471),
 .UNSPECIFIED.,.F.,.F.,(4,1,4),(0.00479907066435142,0.00712298898083723,
0.00944690729732304),.UNSPECIFIED.);
#158=B_SPLINE_CURVE_WITH_KNOTS('',3,(#476,#477,#478,#479,#480),
 .UNSPECIFIED.,.F.,.F.,(4,1,4),(0.00479907066435142,0.00712298898083723,
0.00944690729732304),.UNSPECIFIED.);
#159=B_SPLINE_CURVE_WITH_KNOTS('',3,(#484,#485,#486,#487,#488),
 .UNSPECIFIED.,.F.,.F.,(4,1,4),(2.30940107684905E-7,0.00230963201686619,
0.00461903309362469),.UNSPECIFIED.);
#160=B_SPLINE_CURVE_WITH_KNOTS('',3,(#492,#493,#494,#495,#496),
 .UNSPECIFIED.,.F.,.F.,(4,1,4),(2.30940107668426E-7,0.00230963201686617,
0.00461903309362467),.UNSPECIFIED.);
#161=B_SPLINE_CURVE_WITH_KNOTS('',3,(#498,#499,#500,#501,#502),
 .UNSPECIFIED.,.F.,.F.,(4,1,4),(2.3094010767854E-7,0.00230963201686619,
0.0046190330936247),.UNSPECIFIED.);
#162=B_SPLINE_CURVE_WITH_KNOTS('',3,(#506,#507,#508,#509,#510),
 .UNSPECIFIED.,.F.,.F.,(4,1,4),(2.30940107662634E-7,0.00230963201686617,
0.00461903309362468),.UNSPECIFIED.);
#163=B_SPLINE_CURVE_WITH_KNOTS('',3,(#512,#513,#514,#515,#516),
 .UNSPECIFIED.,.F.,.F.,(4,1,4),(0.00479907066435142,0.00712298898083723,
0.00944690729732305),.UNSPECIFIED.);
#164=B_SPLINE_CURVE_WITH_KNOTS('',3,(#520,#521,#522,#523,#524),
 .UNSPECIFIED.,.F.,.F.,(4,1,4),(0.00479907066435141,0.00712298898083723,
0.00944690729732304),.UNSPECIFIED.);
#165=B_SPLINE_CURVE_WITH_KNOTS('',3,(#526,#527,#528,#529,#530),
 .UNSPECIFIED.,.F.,.F.,(4,1,4),(2.30940107674595E-7,0.00230963201686617,
0.00461903309362466),.UNSPECIFIED.);
#166=B_SPLINE_CURVE_WITH_KNOTS('',3,(#534,#535,#536,#537,#538),
 .UNSPECIFIED.,.F.,.F.,(4,1,4),(2.30940107676604E-7,0.00230963201686617,
0.00461903309362467),.UNSPECIFIED.);
#167=B_SPLINE_CURVE_WITH_KNOTS('',3,(#540,#541,#542,#543,#544),
 .UNSPECIFIED.,.F.,.F.,(4,1,4),(2.30940107675419E-7,0.00230963201686618,
0.00461903309362468),.UNSPECIFIED.);
#168=B_SPLINE_CURVE_WITH_KNOTS('',3,(#545,#546,#547,#548,#549),
 .UNSPECIFIED.,.F.,.F.,(4,1,4),(2.30940107675995E-7,0.00230963201686618,
0.00461903309362468),.UNSPECIFIED.);
#169=EDGE_LOOP('',(#51,#52,#53,#54));
#170=EDGE_LOOP('',(#55,#56,#57,#58));
#171=EDGE_LOOP('',(#59,#60,#61,#62));
#172=EDGE_LOOP('',(#63,#64,#65,#66));
#173=EDGE_LOOP('',(#67,#68,#69,#70));
#174=EDGE_LOOP('',(#71,#72,#73,#74));
#175=EDGE_LOOP('',(#75));
#176=EDGE_LOOP('',(#76,#77,#78,#79,#80,#81));
#177=EDGE_LOOP('',(#82));
#178=EDGE_LOOP('',(#83));
#179=EDGE_LOOP('',(#84));
#180=EDGE_LOOP('',(#85));
#181=EDGE_LOOP('',(#86,#87,#88,#89,#90,#91));
#182=EDGE_LOOP('',(#92));
#183=EDGE_LOOP('',(#93));
#184=EDGE_LOOP('',(#94));
#185=EDGE_LOOP('',(#95));
#186=EDGE_LOOP('',(#96));
#187=EDGE_LOOP('',(#97));
#188=EDGE_LOOP('',(#98));
#189=EDGE_LOOP('',(#99));
#190=EDGE_LOOP('',(#100));
#191=EDGE_LOOP('',(#101));
#192=EDGE_LOOP('',(#102));
#193=EDGE_LOOP('',(#103));
#194=EDGE_LOOP('',(#104));
#195=EDGE_LOOP('',(#105));
#196=EDGE_LOOP('',(#106));
#197=FACE_BOUND('',#169,.T.);
#198=FACE_BOUND('',#170,.T.);
#199=FACE_BOUND('',#171,.T.);
#200=FACE_BOUND('',#172,.T.);
#201=FACE_BOUND('',#173,.T.);
#202=FACE_BOUND('',#174,.T.);
#203=FACE_BOUND('',#175,.T.);
#204=FACE_BOUND('',#176,.T.);
#205=FACE_BOUND('',#177,.T.);
#206=FACE_BOUND('',#178,.T.);
#207=FACE_BOUND('',#179,.T.);
#208=FACE_BOUND('',#180,.T.);
#209=FACE_BOUND('',#181,.T.);
#210=FACE_BOUND('',#182,.T.);
#211=FACE_BOUND('',#183,.T.);
#212=FACE_BOUND('',#184,.T.);
#213=FACE_BOUND('',#185,.T.);
#214=FACE_BOUND('',#186,.T.);
#215=FACE_BOUND('',#187,.T.);
#216=FACE_BOUND('',#188,.T.);
#217=FACE_BOUND('',#189,.T.);
#218=FACE_BOUND('',#190,.T.);
#219=FACE_BOUND('',#191,.T.);
#220=FACE_BOUND('',#192,.T.);
#221=FACE_BOUND('',#193,.T.);
#222=FACE_BOUND('',#194,.T.);
#223=FACE_BOUND('',#195,.T.);
#224=FACE_BOUND('',#196,.T.);
#225=PLANE('',#376);
#226=PLANE('',#377);
#227=PLANE('',#378);
#228=PLANE('',#379);
#229=PLANE('',#380);
#230=PLANE('',#381);
#231=PLANE('',#384);
#232=PLANE('',#391);
#233=STYLED_ITEM('',(#250),#354);
#234=STYLED_ITEM('',(#251),#355);
#235=STYLED_ITEM('',(#252),#356);
#236=STYLED_ITEM('',(#253),#357);
#237=STYLED_ITEM('',(#254),#358);
#238=STYLED_ITEM('',(#255),#359);
#239=STYLED_ITEM('',(#256),#360);
#240=STYLED_ITEM('',(#257),#361);
#241=STYLED_ITEM('',(#258),#362);
#242=STYLED_ITEM('',(#259),#363);
#243=STYLED_ITEM('',(#260),#364);
#244=STYLED_ITEM('',(#261),#365);
#245=STYLED_ITEM('',(#262),#366);
#246=STYLED_ITEM('',(#263),#367);
#247=STYLED_ITEM('',(#264),#368);
#248=STYLED_ITEM('',(#265),#369);
#249=STYLED_ITEM('',(#266),#370);
#250=PRESENTATION_STYLE_ASSIGNMENT((#267));
#251=PRESENTATION_STYLE_ASSIGNMENT((#268));
#252=PRESENTATION_STYLE_ASSIGNMENT((#269));
#253=PRESENTATION_STYLE_ASSIGNMENT((#270));
#254=PRESENTATION_STYLE_ASSIGNMENT((#271));
#255=PRESENTATION_STYLE_ASSIGNMENT((#272));
#256=PRESENTATION_STYLE_ASSIGNMENT((#273));
#257=PRESENTATION_STYLE_ASSIGNMENT((#274));
#258=PRESENTATION_STYLE_ASSIGNMENT((#275));
#259=PRESENTATION_STYLE_ASSIGNMENT((#276));
#260=PRESENTATION_STYLE_ASSIGNMENT((#277));
#261=PRESENTATION_STYLE_ASSIGNMENT((#278));
#262=PRESENTATION_STYLE_ASSIGNMENT((#279));
#263=PRESENTATION_STYLE_ASSIGNMENT((#280));
#264=PRESENTATION_STYLE_ASSIGNMENT((#281));
#265=PRESENTATION_STYLE_ASSIGNMENT((#282));
#266=PRESENTATION_STYLE_ASSIGNMENT((#283));
#267=SURFACE_STYLE_USAGE(.BOTH.,#284);
#268=SURFACE_STYLE_USAGE(.BOTH.,#285);
#269=SURFACE_STYLE_USAGE(.BOTH.,#286);
#270=SURFACE_STYLE_USAGE(.BOTH.,#287);
#271=SURFACE_STYLE_USAGE(.BOTH.,#288);
#272=SURFACE_STYLE_USAGE(.BOTH.,#289);
#273=SURFACE_STYLE_USAGE(.BOTH.,#290);
#274=SURFACE_STYLE_USAGE(.BOTH.,#291);
#275=SURFACE_STYLE_USAGE(.BOTH.,#292);
#276=SURFACE_STYLE_USAGE(.BOTH.,#293);
#277=SURFACE_STYLE_USAGE(.BOTH.,#294);
#278=SURFACE_STYLE_USAGE(.BOTH.,#295);
#279=SURFACE_STYLE_USAGE(.BOTH.,#296);
#280=SURFACE_STYLE_USAGE(.BOTH.,#297);
#281=SURFACE_STYLE_USAGE(.BOTH.,#298);
#282=SURFACE_STYLE_USAGE(.BOTH.,#299);
#283=SURFACE_STYLE_USAGE(.BOTH.,#300);
#284=SURFACE_SIDE_STYLE('',(#301));
#285=SURFACE_SIDE_STYLE('',(#302));
#286=SURFACE_SIDE_STYLE('',(#303));
#287=SURFACE_SIDE_STYLE('',(#304));
#288=SURFACE_SIDE_STYLE('',(#305));
#289=SURFACE_SIDE_STYLE('',(#306));
#290=SURFACE_SIDE_STYLE('',(#307));
#291=SURFACE_SIDE_STYLE('',(#308));
#292=SURFACE_SIDE_STYLE('',(#309));
#293=SURFACE_SIDE_STYLE('',(#310));
#294=SURFACE_SIDE_STYLE('',(#311));
#295=SURFACE_SIDE_STYLE('',(#312));
#296=SURFACE_SIDE_STYLE('',(#313));
#297=SURFACE_SIDE_STYLE('',(#314));
#298=SURFACE_SIDE_STYLE('',(#315));
#299=SURFACE_SIDE_STYLE('',(#316));
#300=SURFACE_SIDE_STYLE('',(#317));
#301=SURFACE_STYLE_FILL_AREA(#318);
#302=SURFACE_STYLE_FILL_AREA(#319);
#303=SURFACE_STYLE_FILL_AREA(#320);
#304=SURFACE_STYLE_FILL_AREA(#321);
#305=SURFACE_STYLE_FILL_AREA(#322);
#306=SURFACE_STYLE_FILL_AREA(#323);
#307=SURFACE_STYLE_FILL_AREA(#324);
#308=SURFACE_STYLE_FILL_AREA(#325);
#309=SURFACE_STYLE_FILL_AREA(#326);
#310=SURFACE_STYLE_FILL_AREA(#327);
#311=SURFACE_STYLE_FILL_AREA(#328);
#312=SURFACE_STYLE_FILL_AREA(#329);
#313=SURFACE_STYLE_FILL_AREA(#330);
#314=SURFACE_STYLE_FILL_AREA(#331);
#315=SURFACE_STYLE_FILL_AREA(#332);
#316=SURFACE_STYLE_FILL_AREA(#333);
#317=SURFACE_STYLE_FILL_AREA(#334);
#318=FILL_AREA_STYLE('',(#335));
#319=FILL_AREA_STYLE('',(#336));
#320=FILL_AREA_STYLE('',(#337));
#321=FILL_AREA_STYLE('',(#338));
#322=FILL_AREA_STYLE('',(#339));
#323=FILL_AREA_STYLE('',(#340));
#324=FILL_AREA_STYLE('',(#341));
#325=FILL_AREA_STYLE('',(#342));
#326=FILL_AREA_STYLE('',(#343));
#327=FILL_AREA_STYLE('',(#344));
#328=FILL_AREA_STYLE('',(#345));
#329=FILL_AREA_STYLE('',(#346));
#330=FILL_AREA_STYLE('',(#347));
#331=FILL_AREA_STYLE('',(#348));
#332=FILL_AREA_STYLE('',(#349));
#333=FILL_AREA_STYLE('',(#350));
#334=FILL_AREA_STYLE('',(#351));
#335=FILL_AREA_STYLE_COLOUR('',#352);
#336=FILL_AREA_STYLE_COLOUR('',#352);
#337=FILL_AREA_STYLE_COLOUR('',#352);
#338=FILL_AREA_STYLE_COLOUR('',#352);
#339=FILL_AREA_STYLE_COLOUR('',#352);
#340=FILL_AREA_STYLE_COLOUR('',#352);
#341=FILL_AREA_STYLE_COLOUR('',#352);
#342=FILL_AREA_STYLE_COLOUR('',#352);
#343=FILL_AREA_STYLE_COLOUR('',#352);
#344=FILL_AREA_STYLE_COLOUR('',#352);
#345=FILL_AREA_STYLE_COLOUR('',#352);
#346=FILL_AREA_STYLE_COLOUR('',#352);
#347=FILL_AREA_STYLE_COLOUR('',#353);
#348=FILL_AREA_STYLE_COLOUR('',#352);
#349=FILL_AREA_STYLE_COLOUR('',#352);
#350=FILL_AREA_STYLE_COLOUR('',#352);
#351=FILL_AREA_STYLE_COLOUR('',#352);
#352=COLOUR_RGB('',0.506983280181885,0.531564235687256,0.550000011920929);
#353=COLOUR_RGB('',0.1875,0.75,0.581249892711639);
#354=ADVANCED_FACE('',(#197),#225,.T.);
#355=ADVANCED_FACE('',(#198),#226,.T.);
#356=ADVANCED_FACE('',(#199),#227,.T.);
#357=ADVANCED_FACE('',(#200),#228,.T.);
#358=ADVANCED_FACE('',(#201),#229,.T.);
#359=ADVANCED_FACE('',(#202),#230,.T.);
#360=ADVANCED_FACE('',(#203,#204),#33,.T.);
#361=ADVANCED_FACE('',(#205,#206),#231,.F.);
#362=ADVANCED_FACE('',(#207,#208),#20,.T.);
#363=ADVANCED_FACE('',(#209,#210),#34,.T.);
#364=ADVANCED_FACE('',(#211,#212),#232,.F.);
#365=ADVANCED_FACE('',(#213,#214),#21,.T.);
#366=ADVANCED_FACE('',(#215,#216),#22,.F.);
#367=ADVANCED_FACE('',(#217,#218),#35,.T.);
#368=ADVANCED_FACE('',(#219,#220),#36,.T.);
#369=ADVANCED_FACE('',(#221,#222),#37,.F.);
#370=ADVANCED_FACE('',(#223,#224),#38,.F.);
#371=CLOSED_SHELL('',(#354,#355,#356,#357,#358,#359,#360,#361,#362,#363,
#364,#365,#366,#367,#368,#369,#370));
#372=MANIFOLD_SOLID_BREP('',#371);
#373=SHAPE_DEFINITION_REPRESENTATION(#587,#374);
#374=SHAPE_REPRESENTATION('A3.M5',(#375),#582);
#375=AXIS2_PLACEMENT_3D('',#465,#403,#404);
#376=AXIS2_PLACEMENT_3D('',#466,#405,#406);
#377=AXIS2_PLACEMENT_3D('',#483,#409,#410);
#378=AXIS2_PLACEMENT_3D('',#497,#412,#413);
#379=AXIS2_PLACEMENT_3D('',#511,#415,#416);
#380=AXIS2_PLACEMENT_3D('',#525,#418,#419);
#381=AXIS2_PLACEMENT_3D('',#539,#421,#422);
#382=AXIS2_PLACEMENT_3D('',#550,#423,#424);
#383=AXIS2_PLACEMENT_3D('',#551,#425,#426);
#384=AXIS2_PLACEMENT_3D('',#553,#427,#428);
#385=AXIS2_PLACEMENT_3D('',#554,#429,#430);
#386=AXIS2_PLACEMENT_3D('',#556,#431,#432);
#387=AXIS2_PLACEMENT_3D('',#558,#433,#434);
#388=AXIS2_PLACEMENT_3D('',#559,#435,#436);
#389=AXIS2_PLACEMENT_3D('',#561,#437,#438);
#390=AXIS2_PLACEMENT_3D('',#562,#439,#440);
#391=AXIS2_PLACEMENT_3D('',#564,#441,#442);
#392=AXIS2_PLACEMENT_3D('',#565,#443,#444);
#393=AXIS2_PLACEMENT_3D('',#567,#445,#446);
#394=AXIS2_PLACEMENT_3D('',#569,#447,#448);
#395=AXIS2_PLACEMENT_3D('',#570,#449,#450);
#396=AXIS2_PLACEMENT_3D('',#572,#451,#452);
#397=AXIS2_PLACEMENT_3D('',#573,#453,#454);
#398=AXIS2_PLACEMENT_3D('',#575,#455,#456);
#399=AXIS2_PLACEMENT_3D('',#577,#457,#458);
#400=AXIS2_PLACEMENT_3D('',#578,#459,#460);
#401=AXIS2_PLACEMENT_3D('',#579,#461,#462);
#402=AXIS2_PLACEMENT_3D('',#580,#463,#464);
#403=DIRECTION('',(0.,0.,1.));
#404=DIRECTION('',(1.,0.,0.));
#405=DIRECTION('',(-1.,0.,-1.50231459873716E-15));
#406=DIRECTION('',(-1.50231459873716E-15,0.,1.));
#407=DIRECTION('',(0.,-1.,0.));
#408=DIRECTION('',(0.,-1.,0.));
#409=DIRECTION('',(-0.499999999999998,0.,-0.86602540378444));
#410=DIRECTION('',(-0.86602540378444,0.,0.499999999999998));
#411=DIRECTION('',(0.,-1.,0.));
#412=DIRECTION('',(0.500000000000002,0.,-0.866025403784437));
#413=DIRECTION('',(-0.866025403784437,0.,-0.500000000000003));
#414=DIRECTION('',(0.,-1.,0.));
#415=DIRECTION('',(1.,0.,3.19241852231646E-15));
#416=DIRECTION('',(3.19241852231646E-15,0.,-1.));
#417=DIRECTION('',(0.,-1.,0.));
#418=DIRECTION('',(0.499999999999998,0.,0.86602540378444));
#419=DIRECTION('',(0.86602540378444,0.,-0.499999999999998));
#420=DIRECTION('',(0.,-1.,0.));
#421=DIRECTION('',(-0.500000000000001,0.,0.866025403784438));
#422=DIRECTION('',(0.866025403784438,0.,0.500000000000001));
#423=DIRECTION('',(0.,1.,0.));
#424=DIRECTION('',(0.,0.,1.));
#425=DIRECTION('',(0.,1.,0.));
#426=DIRECTION('',(1.,0.,0.));
#427=DIRECTION('',(0.,1.,0.));
#428=DIRECTION('',(0.,0.,1.));
#429=DIRECTION('',(0.,1.,0.));
#430=DIRECTION('',(0.,0.,1.));
#431=DIRECTION('',(0.,1.,0.));
#432=DIRECTION('',(0.,0.,1.));
#433=DIRECTION('',(0.,1.,0.));
#434=DIRECTION('',(0.,0.,1.));
#435=DIRECTION('',(0.,1.,0.));
#436=DIRECTION('',(0.,0.,1.));
#437=DIRECTION('',(0.,-1.,0.));
#438=DIRECTION('',(0.,0.,-1.));
#439=DIRECTION('',(0.,-1.,0.));
#440=DIRECTION('',(-0.866025403784437,0.,-0.500000000000002));
#441=DIRECTION('',(0.,-1.,0.));
#442=DIRECTION('',(0.,0.,-1.));
#443=DIRECTION('',(0.,-1.,0.));
#444=DIRECTION('',(0.,0.,-1.));
#445=DIRECTION('',(0.,-1.,0.));
#446=DIRECTION('',(0.,0.,-1.));
#447=DIRECTION('',(0.,-1.,0.));
#448=DIRECTION('',(0.,0.,-1.));
#449=DIRECTION('',(0.,-1.,0.));
#450=DIRECTION('',(0.,0.,-1.));
#451=DIRECTION('',(0.,-1.,0.));
#452=DIRECTION('',(0.,0.,-1.));
#453=DIRECTION('',(0.,-1.,0.));
#454=DIRECTION('',(0.,0.,-1.));
#455=DIRECTION('',(0.,1.,0.));
#456=DIRECTION('',(0.,0.,1.));
#457=DIRECTION('',(0.,-1.,0.));
#458=DIRECTION('',(0.,0.,-1.));
#459=DIRECTION('',(0.,1.,0.));
#460=DIRECTION('',(0.,0.,1.));
#461=DIRECTION('',(0.,1.,0.));
#462=DIRECTION('',(0.,0.,1.));
#463=DIRECTION('',(0.,-1.,0.));
#464=DIRECTION('',(0.,0.,-1.));
#465=CARTESIAN_POINT('',(0.,0.,0.));
#466=CARTESIAN_POINT('',(-4.,4.,2.3094010767585));
#467=CARTESIAN_POINT('',(-3.99999999999999,3.7,-2.3094010767585));
#468=CARTESIAN_POINT('',(-3.99999999999999,3.84397352520195,-1.54749111439355));
#469=CARTESIAN_POINT('',(-4.,4.02461554192876,0.0282113238473293));
#470=CARTESIAN_POINT('',(-4.,3.84219465350213,1.55690492896788));
#471=CARTESIAN_POINT('',(-4.,3.7,2.3094010767585));
#472=CARTESIAN_POINT('',(-4.,3.7,-2.3094010767585));
#473=CARTESIAN_POINT('',(-4.,3.7,2.3094010767585));
#474=CARTESIAN_POINT('',(-3.99999999999999,4.,-2.30940107675851));
#475=CARTESIAN_POINT('',(-4.,0.3,-2.3094010767585));
#476=CARTESIAN_POINT('',(-4.,0.299999999999999,2.3094010767585));
#477=CARTESIAN_POINT('',(-4.,0.156026474798049,1.54749111439355));
#478=CARTESIAN_POINT('',(-4.,-0.0246155419287646,-0.0282113238473308));
#479=CARTESIAN_POINT('',(-3.99999999999999,0.15780534649787,-1.55690492896788));
#480=CARTESIAN_POINT('',(-3.99999999999999,0.299999999999998,-2.3094010767585));
#481=CARTESIAN_POINT('',(-4.,0.3,2.3094010767585));
#482=CARTESIAN_POINT('',(-4.,4.,2.3094010767585));
#483=CARTESIAN_POINT('',(-3.99999999999999,4.,-2.30940107675851));
#484=CARTESIAN_POINT('',(4.32934790160498E-15,3.7,-4.618802153517));
#485=CARTESIAN_POINT('',(-0.666666666666663,3.84546452579692,-4.23390197405725));
#486=CARTESIAN_POINT('',(-2.,4.02226070077901,-3.46410161513775));
#487=CARTESIAN_POINT('',(-3.33333333333333,3.84546452579692,-2.69430125621825));
#488=CARTESIAN_POINT('',(-4.,3.7,-2.3094010767585));
#489=CARTESIAN_POINT('',(-7.9219230277709E-16,3.7,-4.618802153517));
#490=CARTESIAN_POINT('',(1.21430643318376E-14,4.,-4.618802153517));
#491=CARTESIAN_POINT('',(-5.84009222627286E-16,0.3,-4.618802153517));
#492=CARTESIAN_POINT('',(-4.,0.3,-2.3094010767585));
#493=CARTESIAN_POINT('',(-3.33333333333333,0.154535474203079,-2.69430125621825));
#494=CARTESIAN_POINT('',(-2.,-0.0222607007790134,-3.46410161513775));
#495=CARTESIAN_POINT('',(-0.666666666666663,0.154535474203077,-4.23390197405725));
#496=CARTESIAN_POINT('',(3.71164100561441E-15,0.299999999999996,-4.618802153517));
#497=CARTESIAN_POINT('',(1.21430643318376E-14,4.,-4.618802153517));
#498=CARTESIAN_POINT('',(4.,3.7,-2.30940107675849));
#499=CARTESIAN_POINT('',(3.33333333333334,3.84546452579692,-2.69430125621824));
#500=CARTESIAN_POINT('',(2.,4.02226070077902,-3.46410161513775));
#501=CARTESIAN_POINT('',(0.666666666666668,3.84546452579692,-4.23390197405725));
#502=CARTESIAN_POINT('',(1.05724748361987E-15,3.7,-4.61880215351701));
#503=CARTESIAN_POINT('',(4.00000000000001,3.7,-2.30940107675849));
#504=CARTESIAN_POINT('',(4.00000000000001,4.,-2.30940107675849));
#505=CARTESIAN_POINT('',(4.00000000000001,0.3,-2.30940107675849));
#506=CARTESIAN_POINT('',(5.12960145324439E-16,0.300000000000001,-4.61880215351701));
#507=CARTESIAN_POINT('',(0.666666666666668,0.15453547420308,-4.23390197405725));
#508=CARTESIAN_POINT('',(2.,-0.0222607007790144,-3.46410161513775));
#509=CARTESIAN_POINT('',(3.33333333333334,0.154535474203078,-2.69430125621824));
#510=CARTESIAN_POINT('',(4.00000000000001,0.299999999999999,-2.30940107675849));
#511=CARTESIAN_POINT('',(4.00000000000001,4.,-2.30940107675849));
#512=CARTESIAN_POINT('',(3.99999999999999,3.7,2.30940107675852));
#513=CARTESIAN_POINT('',(3.99999999999999,3.84397352520195,1.54749111439357));
#514=CARTESIAN_POINT('',(4.,4.02461554192876,-0.0282113238473138));
#515=CARTESIAN_POINT('',(4.,3.84219465350213,-1.55690492896787));
#516=CARTESIAN_POINT('',(4.00000000000001,3.7,-2.30940107675849));
#517=CARTESIAN_POINT('',(3.99999999999999,3.7,2.30940107675852));
#518=CARTESIAN_POINT('',(3.99999999999999,4.,2.30940107675852));
#519=CARTESIAN_POINT('',(3.99999999999999,0.3,2.30940107675852));
#520=CARTESIAN_POINT('',(4.00000000000001,0.3,-2.30940107675849));
#521=CARTESIAN_POINT('',(4.,0.156026474798049,-1.54749111439354));
#522=CARTESIAN_POINT('',(4.,-0.024615541928764,0.0282113238473436));
#523=CARTESIAN_POINT('',(3.99999999999999,0.157805346497872,1.55690492896789));
#524=CARTESIAN_POINT('',(3.99999999999999,0.3,2.30940107675852));
#525=CARTESIAN_POINT('',(3.99999999999999,4.,2.30940107675852));
#526=CARTESIAN_POINT('',(-1.73142340612091E-15,3.7,4.618802153517));
#527=CARTESIAN_POINT('',(0.666666666666663,3.84546452579692,4.23390197405726));
#528=CARTESIAN_POINT('',(2.,4.02226070077901,3.46410161513776));
#529=CARTESIAN_POINT('',(3.33333333333332,3.84546452579692,2.69430125621827));
#530=CARTESIAN_POINT('',(3.99999999999999,3.7,2.30940107675852));
#531=CARTESIAN_POINT('',(-1.30104260698261E-15,3.7,4.61880215351701));
#532=CARTESIAN_POINT('',(-8.67361737988404E-16,4.,4.618802153517));
#533=CARTESIAN_POINT('',(-8.67361737988404E-16,0.3,4.618802153517));
#534=CARTESIAN_POINT('',(3.99999999999999,0.3,2.30940107675852));
#535=CARTESIAN_POINT('',(3.33333333333332,0.154535474203081,2.69430125621827));
#536=CARTESIAN_POINT('',(1.99999999999999,-0.0222607007790092,3.46410161513776));
#537=CARTESIAN_POINT('',(0.666666666666664,0.154535474203081,4.23390197405726));
#538=CARTESIAN_POINT('',(-1.49560738562007E-15,0.3,4.618802153517));
#539=CARTESIAN_POINT('',(-8.67361737988404E-16,4.,4.618802153517));
#540=CARTESIAN_POINT('',(-4.,3.7,2.3094010767585));
#541=CARTESIAN_POINT('',(-3.33333333333333,3.84546452579692,2.69430125621825));
#542=CARTESIAN_POINT('',(-2.,4.02226070077901,3.46410161513775));
#543=CARTESIAN_POINT('',(-0.666666666666667,3.84546452579692,4.23390197405725));
#544=CARTESIAN_POINT('',(-2.16840434497101E-16,3.7,4.618802153517));
#545=CARTESIAN_POINT('',(-9.21792404339643E-16,0.3,4.618802153517));
#546=CARTESIAN_POINT('',(-0.666666666666668,0.15453547420308,4.23390197405725));
#547=CARTESIAN_POINT('',(-2.,-0.0222607007790124,3.46410161513775));
#548=CARTESIAN_POINT('',(-3.33333333333334,0.15453547420308,2.69430125621825));
#549=CARTESIAN_POINT('',(-4.,0.3,2.3094010767585));
#550=CARTESIAN_POINT('',(0.,0.3,0.));
#551=CARTESIAN_POINT('',(0.,0.,0.));
#552=CARTESIAN_POINT('',(3.825,0.,0.));
#553=CARTESIAN_POINT('',(0.,-3.6,0.));
#554=CARTESIAN_POINT('',(0.,-3.6,0.));
#555=CARTESIAN_POINT('',(0.,-3.6,2.367));
#556=CARTESIAN_POINT('',(0.,-3.6,0.));
#557=CARTESIAN_POINT('',(0.,-3.6,3.525));
#558=CARTESIAN_POINT('',(0.,-3.6,0.));
#559=CARTESIAN_POINT('',(0.,-3.3,0.));
#560=CARTESIAN_POINT('',(0.,-3.3,3.825));
#561=CARTESIAN_POINT('',(0.,4.,0.));
#562=CARTESIAN_POINT('',(4.33680868994202E-16,4.,2.16840434497101E-15));
#563=CARTESIAN_POINT('',(-3.31254716947547,4.,-1.91250000000001));
#564=CARTESIAN_POINT('',(4.33680868994202E-16,7.6,2.16840434497101E-15));
#565=CARTESIAN_POINT('',(0.,7.6,0.));
#566=CARTESIAN_POINT('',(0.,7.6,-2.367));
#567=CARTESIAN_POINT('',(4.33680868994202E-16,7.6,2.16840434497101E-15));
#568=CARTESIAN_POINT('',(4.33680868994202E-16,7.6,-3.525));
#569=CARTESIAN_POINT('',(4.33680868994202E-16,7.6,2.16840434497101E-15));
#570=CARTESIAN_POINT('',(4.33680868994202E-16,7.3,2.16840434497101E-15));
#571=CARTESIAN_POINT('',(4.33680868994202E-16,7.3,-3.825));
#572=CARTESIAN_POINT('',(0.,7.6,0.));
#573=CARTESIAN_POINT('',(0.,7.3,0.));
#574=CARTESIAN_POINT('',(0.,7.3,-2.067));
#575=CARTESIAN_POINT('',(0.,-3.3,0.));
#576=CARTESIAN_POINT('',(0.,-3.3,2.067));
#577=CARTESIAN_POINT('',(4.33680868994202E-16,7.3,2.16840434497101E-15));
#578=CARTESIAN_POINT('',(0.,-3.3,0.));
#579=CARTESIAN_POINT('',(0.,7.3,0.));
#580=CARTESIAN_POINT('',(0.,-3.6,0.));
#581=MECHANICAL_DESIGN_GEOMETRIC_PRESENTATION_REPRESENTATION('',(#233,#234,
#235,#236,#237,#238,#239,#240,#241,#242,#243,#244,#245,#246,#247,#248,#249),
#582);
#582=(
GEOMETRIC_REPRESENTATION_CONTEXT(3)
GLOBAL_UNCERTAINTY_ASSIGNED_CONTEXT((#583))
GLOBAL_UNIT_ASSIGNED_CONTEXT((#586,#585,#584))
REPRESENTATION_CONTEXT('A3.M5','TOP_LEVEL_ASSEMBLY_PART')
);
#583=UNCERTAINTY_MEASURE_WITH_UNIT(LENGTH_MEASURE(0.005),#586,
'DISTANCE_ACCURACY_VALUE','Maximum Tolerance applied to model');
#584=(
NAMED_UNIT(*)
SI_UNIT($,.STERADIAN.)
SOLID_ANGLE_UNIT()
);
#585=(
NAMED_UNIT(*)
PLANE_ANGLE_UNIT()
SI_UNIT($,.RADIAN.)
);
#586=(
LENGTH_UNIT()
NAMED_UNIT(*)
SI_UNIT(.MILLI.,.METRE.)
);
#587=PRODUCT_DEFINITION_SHAPE('','',#588);
#588=PRODUCT_DEFINITION('','',#590,#589);
#589=PRODUCT_DEFINITION_CONTEXT('',#596,'design');
#590=PRODUCT_DEFINITION_FORMATION_WITH_SPECIFIED_SOURCE('','',#592,
 .NOT_KNOWN.);
#591=PRODUCT_RELATED_PRODUCT_CATEGORY('','',(#592));
#592=PRODUCT('A3.M5','A3.M5','A3.M5',(#594));
#593=PRODUCT_CATEGORY('','');
#594=PRODUCT_CONTEXT('',#596,'mechanical');
#595=APPLICATION_PROTOCOL_DEFINITION('international standard',
'automotive_design',2010,#596);
#596=APPLICATION_CONTEXT(
'core data for automotive mechanical design processes');
ENDSEC;
END-ISO-10303-21;
