ISO-10303-21;
HEADER;
/* Generated by software containing ST-Developer
 * from STEP Tools, Inc. (www.steptools.com) 
 */
/* OPTION: using custom renumber hook */

FILE_DESCRIPTION(
/* description */ ('STEP AP214'),
/* implementation_level */ '2;1');

FILE_NAME(
/* name */ '104Z3818',
/* time_stamp */ '2022-09-01T19:27:57+02:00',
/* author */ ('License CC BY-ND 4.0'),
/* organization */ ('CADENAS'),
/* preprocessor_version */ 'ST-DEVELOPER v18.102',
/* originating_system */ 'PARTsolutions',
/* authorisation */ '  ');

FILE_SCHEMA (('AUTOMOTIVE_DESIGN {1 0 10303 214 3 1 1}'));
ENDSEC;

DATA;
#10=PROPERTY_DEFINITION_REPRESENTATION(#14,#12);
#11=PROPERTY_DEFINITION_REPRESENTATION(#15,#13);
#12=REPRESENTATION('',(#16),#547);
#13=REPRESENTATION('',(#17),#547);
#14=PROPERTY_DEFINITION('pmi validation property','',#552);
#15=PROPERTY_DEFINITION('pmi validation property','',#552);
#16=VALUE_REPRESENTATION_ITEM('number of annotations',COUNT_MEASURE(0.));
#17=VALUE_REPRESENTATION_ITEM('number of views',COUNT_MEASURE(0.));
#18=SHAPE_REPRESENTATION_RELATIONSHIP('','',#312,#19);
#19=ADVANCED_BREP_SHAPE_REPRESENTATION('',(#310),#547);
#20=B_SPLINE_CURVE_WITH_KNOTS('',3,(#457,#458,#459,#460),.UNSPECIFIED.,
 .F.,.F.,(4,4),(0.00554998538376565,0.0110789827011018),.UNSPECIFIED.);
#21=B_SPLINE_CURVE_WITH_KNOTS('',3,(#462,#463,#464,#465),.UNSPECIFIED.,
 .F.,.F.,(4,4),(2.38073068976286E-7,0.00554998538376565),.UNSPECIFIED.);
#22=B_SPLINE_CURVE_WITH_KNOTS('',3,(#469,#470,#471,#472),.UNSPECIFIED.,
 .F.,.F.,(4,4),(0.0175544782364875,0.0231317040774414),.UNSPECIFIED.);
#23=B_SPLINE_CURVE_WITH_KNOTS('',3,(#474,#475,#476,#477),.UNSPECIFIED.,
 .F.,.F.,(4,4),(0.0119744564780727,0.0175544782364875),.UNSPECIFIED.);
#24=B_SPLINE_CURVE_WITH_KNOTS('',3,(#481,#482,#483,#484),.UNSPECIFIED.,
 .F.,.F.,(4,4),(0.00554998538376566,0.0110789827011018),.UNSPECIFIED.);
#25=B_SPLINE_CURVE_WITH_KNOTS('',3,(#486,#487,#488,#489),.UNSPECIFIED.,
 .F.,.F.,(4,4),(2.38073068975556E-7,0.00554998538376566),.UNSPECIFIED.);
#26=B_SPLINE_CURVE_WITH_KNOTS('',3,(#493,#494,#495,#496),.UNSPECIFIED.,
 .F.,.F.,(4,4),(0.00554998538376566,0.0110789827011018),.UNSPECIFIED.);
#27=B_SPLINE_CURVE_WITH_KNOTS('',3,(#498,#499,#500,#501),.UNSPECIFIED.,
 .F.,.F.,(4,4),(2.38073068976286E-7,0.00554998538376566),.UNSPECIFIED.);
#28=B_SPLINE_CURVE_WITH_KNOTS('',3,(#505,#506,#507,#508),.UNSPECIFIED.,
 .F.,.F.,(4,4),(0.0175544782364875,0.0231317040774414),.UNSPECIFIED.);
#29=B_SPLINE_CURVE_WITH_KNOTS('',3,(#510,#511,#512,#513),.UNSPECIFIED.,
 .F.,.F.,(4,4),(0.0119744564780727,0.0175544782364875),.UNSPECIFIED.);
#30=B_SPLINE_CURVE_WITH_KNOTS('',3,(#515,#516,#517,#518),.UNSPECIFIED.,
 .F.,.F.,(4,4),(0.00554998538376566,0.0110789827011018),.UNSPECIFIED.);
#31=B_SPLINE_CURVE_WITH_KNOTS('',3,(#520,#521,#522,#523),.UNSPECIFIED.,
 .F.,.F.,(4,4),(2.38073068975556E-7,0.00554998538376566),.UNSPECIFIED.);
#32=LINE('',#440,#44);
#33=LINE('',#443,#45);
#34=LINE('',#445,#46);
#35=LINE('',#447,#47);
#36=LINE('',#449,#48);
#37=LINE('',#451,#49);
#38=LINE('',#453,#50);
#39=LINE('',#455,#51);
#40=LINE('',#467,#52);
#41=LINE('',#479,#53);
#42=LINE('',#491,#54);
#43=LINE('',#503,#55);
#44=VECTOR('',#365,1000.);
#45=VECTOR('',#366,1000.);
#46=VECTOR('',#367,1000.);
#47=VECTOR('',#368,1000.);
#48=VECTOR('',#369,1000.);
#49=VECTOR('',#370,1000.);
#50=VECTOR('',#373,1000.);
#51=VECTOR('',#374,1000.);
#52=VECTOR('',#377,1000.);
#53=VECTOR('',#380,1000.);
#54=VECTOR('',#383,1000.);
#55=VECTOR('',#386,1000.);
#56=PLANE('',#319);
#57=PLANE('',#321);
#58=PLANE('',#322);
#59=PLANE('',#323);
#60=PLANE('',#324);
#61=PLANE('',#325);
#62=PLANE('',#326);
#63=PLANE('',#327);
#64=PLANE('',#338);
#65=CONICAL_SURFACE('',#317,8.331,0.785398163397449);
#66=CONICAL_SURFACE('',#328,11.4,1.0471975511966);
#67=CONICAL_SURFACE('',#330,11.4,1.0471975511966);
#68=CONICAL_SURFACE('',#332,11.4,1.0471975511966);
#69=CONICAL_SURFACE('',#334,11.4,1.0471975511966);
#70=CONICAL_SURFACE('',#336,11.4,1.0471975511966);
#71=CONICAL_SURFACE('',#341,11.4,1.0471975511966);
#72=CONICAL_SURFACE('',#342,4.864,0.785398163397448);
#73=CONICAL_SURFACE('',#346,4.283,0.785398163397448);
#74=ORIENTED_EDGE('',*,*,#148,.F.);
#75=ORIENTED_EDGE('',*,*,#149,.T.);
#76=ORIENTED_EDGE('',*,*,#150,.F.);
#77=ORIENTED_EDGE('',*,*,#148,.T.);
#78=ORIENTED_EDGE('',*,*,#151,.F.);
#79=ORIENTED_EDGE('',*,*,#150,.T.);
#80=ORIENTED_EDGE('',*,*,#152,.F.);
#81=ORIENTED_EDGE('',*,*,#153,.F.);
#82=ORIENTED_EDGE('',*,*,#154,.F.);
#83=ORIENTED_EDGE('',*,*,#155,.F.);
#84=ORIENTED_EDGE('',*,*,#156,.F.);
#85=ORIENTED_EDGE('',*,*,#157,.F.);
#86=ORIENTED_EDGE('',*,*,#149,.F.);
#87=ORIENTED_EDGE('',*,*,#158,.T.);
#88=ORIENTED_EDGE('',*,*,#153,.T.);
#89=ORIENTED_EDGE('',*,*,#159,.F.);
#90=ORIENTED_EDGE('',*,*,#160,.F.);
#91=ORIENTED_EDGE('',*,*,#161,.F.);
#92=ORIENTED_EDGE('',*,*,#162,.T.);
#93=ORIENTED_EDGE('',*,*,#154,.T.);
#94=ORIENTED_EDGE('',*,*,#158,.F.);
#95=ORIENTED_EDGE('',*,*,#163,.F.);
#96=ORIENTED_EDGE('',*,*,#164,.F.);
#97=ORIENTED_EDGE('',*,*,#165,.T.);
#98=ORIENTED_EDGE('',*,*,#155,.T.);
#99=ORIENTED_EDGE('',*,*,#162,.F.);
#100=ORIENTED_EDGE('',*,*,#166,.F.);
#101=ORIENTED_EDGE('',*,*,#167,.F.);
#102=ORIENTED_EDGE('',*,*,#168,.T.);
#103=ORIENTED_EDGE('',*,*,#156,.T.);
#104=ORIENTED_EDGE('',*,*,#165,.F.);
#105=ORIENTED_EDGE('',*,*,#169,.F.);
#106=ORIENTED_EDGE('',*,*,#170,.F.);
#107=ORIENTED_EDGE('',*,*,#171,.T.);
#108=ORIENTED_EDGE('',*,*,#157,.T.);
#109=ORIENTED_EDGE('',*,*,#168,.F.);
#110=ORIENTED_EDGE('',*,*,#172,.F.);
#111=ORIENTED_EDGE('',*,*,#173,.F.);
#112=ORIENTED_EDGE('',*,*,#159,.T.);
#113=ORIENTED_EDGE('',*,*,#152,.T.);
#114=ORIENTED_EDGE('',*,*,#171,.F.);
#115=ORIENTED_EDGE('',*,*,#174,.F.);
#116=ORIENTED_EDGE('',*,*,#175,.F.);
#117=ORIENTED_EDGE('',*,*,#176,.F.);
#118=ORIENTED_EDGE('',*,*,#163,.T.);
#119=ORIENTED_EDGE('',*,*,#161,.T.);
#120=ORIENTED_EDGE('',*,*,#177,.F.);
#121=ORIENTED_EDGE('',*,*,#166,.T.);
#122=ORIENTED_EDGE('',*,*,#164,.T.);
#123=ORIENTED_EDGE('',*,*,#169,.T.);
#124=ORIENTED_EDGE('',*,*,#167,.T.);
#125=ORIENTED_EDGE('',*,*,#178,.F.);
#126=ORIENTED_EDGE('',*,*,#172,.T.);
#127=ORIENTED_EDGE('',*,*,#170,.T.);
#128=ORIENTED_EDGE('',*,*,#179,.F.);
#129=ORIENTED_EDGE('',*,*,#180,.F.);
#130=ORIENTED_EDGE('',*,*,#160,.T.);
#131=ORIENTED_EDGE('',*,*,#175,.T.);
#132=ORIENTED_EDGE('',*,*,#181,.F.);
#133=ORIENTED_EDGE('',*,*,#176,.T.);
#134=ORIENTED_EDGE('',*,*,#180,.T.);
#135=ORIENTED_EDGE('',*,*,#182,.T.);
#136=ORIENTED_EDGE('',*,*,#179,.T.);
#137=ORIENTED_EDGE('',*,*,#178,.T.);
#138=ORIENTED_EDGE('',*,*,#177,.T.);
#139=ORIENTED_EDGE('',*,*,#174,.T.);
#140=ORIENTED_EDGE('',*,*,#173,.T.);
#141=ORIENTED_EDGE('',*,*,#182,.F.);
#142=ORIENTED_EDGE('',*,*,#183,.T.);
#143=ORIENTED_EDGE('',*,*,#181,.T.);
#144=ORIENTED_EDGE('',*,*,#184,.T.);
#145=ORIENTED_EDGE('',*,*,#183,.F.);
#146=ORIENTED_EDGE('',*,*,#151,.T.);
#147=ORIENTED_EDGE('',*,*,#184,.F.);
#148=EDGE_CURVE('',#185,#185,#210,.T.);
#149=EDGE_CURVE('',#186,#186,#211,.T.);
#150=EDGE_CURVE('',#187,#187,#212,.T.);
#151=EDGE_CURVE('',#188,#188,#213,.T.);
#152=EDGE_CURVE('',#189,#190,#32,.T.);
#153=EDGE_CURVE('',#191,#189,#33,.T.);
#154=EDGE_CURVE('',#192,#191,#34,.T.);
#155=EDGE_CURVE('',#193,#192,#35,.T.);
#156=EDGE_CURVE('',#194,#193,#36,.T.);
#157=EDGE_CURVE('',#190,#194,#37,.T.);
#158=EDGE_CURVE('',#195,#191,#38,.T.);
#159=EDGE_CURVE('',#196,#189,#39,.T.);
#160=EDGE_CURVE('',#197,#196,#20,.T.);
#161=EDGE_CURVE('',#195,#197,#21,.T.);
#162=EDGE_CURVE('',#198,#192,#40,.T.);
#163=EDGE_CURVE('',#199,#195,#22,.T.);
#164=EDGE_CURVE('',#198,#199,#23,.T.);
#165=EDGE_CURVE('',#200,#193,#41,.T.);
#166=EDGE_CURVE('',#201,#198,#24,.T.);
#167=EDGE_CURVE('',#200,#201,#25,.T.);
#168=EDGE_CURVE('',#202,#194,#42,.T.);
#169=EDGE_CURVE('',#203,#200,#26,.T.);
#170=EDGE_CURVE('',#202,#203,#27,.T.);
#171=EDGE_CURVE('',#204,#190,#43,.T.);
#172=EDGE_CURVE('',#205,#202,#28,.T.);
#173=EDGE_CURVE('',#204,#205,#29,.T.);
#174=EDGE_CURVE('',#206,#204,#30,.T.);
#175=EDGE_CURVE('',#196,#206,#31,.T.);
#176=EDGE_CURVE('',#199,#197,#214,.T.);
#177=EDGE_CURVE('',#201,#199,#215,.T.);
#178=EDGE_CURVE('',#203,#201,#216,.T.);
#179=EDGE_CURVE('',#205,#203,#217,.T.);
#180=EDGE_CURVE('',#197,#206,#218,.T.);
#181=EDGE_CURVE('',#207,#207,#219,.F.);
#182=EDGE_CURVE('',#206,#205,#220,.T.);
#183=EDGE_CURVE('',#208,#208,#221,.T.);
#184=EDGE_CURVE('',#209,#209,#222,.T.);
#185=VERTEX_POINT('',#430);
#186=VERTEX_POINT('',#432);
#187=VERTEX_POINT('',#435);
#188=VERTEX_POINT('',#438);
#189=VERTEX_POINT('',#441);
#190=VERTEX_POINT('',#442);
#191=VERTEX_POINT('',#444);
#192=VERTEX_POINT('',#446);
#193=VERTEX_POINT('',#448);
#194=VERTEX_POINT('',#450);
#195=VERTEX_POINT('',#454);
#196=VERTEX_POINT('',#456);
#197=VERTEX_POINT('',#461);
#198=VERTEX_POINT('',#468);
#199=VERTEX_POINT('',#473);
#200=VERTEX_POINT('',#480);
#201=VERTEX_POINT('',#485);
#202=VERTEX_POINT('',#492);
#203=VERTEX_POINT('',#497);
#204=VERTEX_POINT('',#504);
#205=VERTEX_POINT('',#509);
#206=VERTEX_POINT('',#519);
#207=VERTEX_POINT('',#536);
#208=VERTEX_POINT('',#541);
#209=VERTEX_POINT('',#544);
#210=CIRCLE('',#315,8.331);
#211=CIRCLE('',#316,8.331);
#212=CIRCLE('',#318,7.475);
#213=CIRCLE('',#320,4.864);
#214=CIRCLE('',#329,9.5);
#215=CIRCLE('',#331,9.5);
#216=CIRCLE('',#333,9.5);
#217=CIRCLE('',#335,9.5);
#218=CIRCLE('',#337,9.5);
#219=CIRCLE('',#339,4.864);
#220=CIRCLE('',#340,9.5);
#221=CIRCLE('',#343,4.283);
#222=CIRCLE('',#345,4.283);
#223=EDGE_LOOP('',(#74));
#224=EDGE_LOOP('',(#75));
#225=EDGE_LOOP('',(#76));
#226=EDGE_LOOP('',(#77));
#227=EDGE_LOOP('',(#78));
#228=EDGE_LOOP('',(#79));
#229=EDGE_LOOP('',(#80,#81,#82,#83,#84,#85));
#230=EDGE_LOOP('',(#86));
#231=EDGE_LOOP('',(#87,#88,#89,#90,#91));
#232=EDGE_LOOP('',(#92,#93,#94,#95,#96));
#233=EDGE_LOOP('',(#97,#98,#99,#100,#101));
#234=EDGE_LOOP('',(#102,#103,#104,#105,#106));
#235=EDGE_LOOP('',(#107,#108,#109,#110,#111));
#236=EDGE_LOOP('',(#112,#113,#114,#115,#116));
#237=EDGE_LOOP('',(#117,#118,#119));
#238=EDGE_LOOP('',(#120,#121,#122));
#239=EDGE_LOOP('',(#123,#124,#125));
#240=EDGE_LOOP('',(#126,#127,#128));
#241=EDGE_LOOP('',(#129,#130,#131));
#242=EDGE_LOOP('',(#132));
#243=EDGE_LOOP('',(#133,#134,#135,#136,#137,#138));
#244=EDGE_LOOP('',(#139,#140,#141));
#245=EDGE_LOOP('',(#142));
#246=EDGE_LOOP('',(#143));
#247=EDGE_LOOP('',(#144));
#248=EDGE_LOOP('',(#145));
#249=EDGE_LOOP('',(#146));
#250=EDGE_LOOP('',(#147));
#251=FACE_BOUND('',#223,.T.);
#252=FACE_BOUND('',#224,.T.);
#253=FACE_BOUND('',#225,.T.);
#254=FACE_BOUND('',#226,.T.);
#255=FACE_BOUND('',#227,.T.);
#256=FACE_BOUND('',#228,.T.);
#257=FACE_BOUND('',#229,.T.);
#258=FACE_BOUND('',#230,.T.);
#259=FACE_BOUND('',#231,.T.);
#260=FACE_BOUND('',#232,.T.);
#261=FACE_BOUND('',#233,.T.);
#262=FACE_BOUND('',#234,.T.);
#263=FACE_BOUND('',#235,.T.);
#264=FACE_BOUND('',#236,.T.);
#265=FACE_BOUND('',#237,.T.);
#266=FACE_BOUND('',#238,.T.);
#267=FACE_BOUND('',#239,.T.);
#268=FACE_BOUND('',#240,.T.);
#269=FACE_BOUND('',#241,.T.);
#270=FACE_BOUND('',#242,.T.);
#271=FACE_BOUND('',#243,.T.);
#272=FACE_BOUND('',#244,.T.);
#273=FACE_BOUND('',#245,.T.);
#274=FACE_BOUND('',#246,.T.);
#275=FACE_BOUND('',#247,.T.);
#276=FACE_BOUND('',#248,.T.);
#277=FACE_BOUND('',#249,.T.);
#278=FACE_BOUND('',#250,.T.);
#279=CYLINDRICAL_SURFACE('',#314,8.331);
#280=CYLINDRICAL_SURFACE('',#344,4.283);
#281=ADVANCED_FACE('',(#251,#252),#279,.T.);
#282=ADVANCED_FACE('',(#253,#254),#65,.T.);
#283=ADVANCED_FACE('',(#255,#256),#56,.F.);
#284=ADVANCED_FACE('',(#257,#258),#57,.F.);
#285=ADVANCED_FACE('',(#259),#58,.F.);
#286=ADVANCED_FACE('',(#260),#59,.F.);
#287=ADVANCED_FACE('',(#261),#60,.F.);
#288=ADVANCED_FACE('',(#262),#61,.F.);
#289=ADVANCED_FACE('',(#263),#62,.F.);
#290=ADVANCED_FACE('',(#264),#63,.F.);
#291=ADVANCED_FACE('',(#265),#66,.T.);
#292=ADVANCED_FACE('',(#266),#67,.T.);
#293=ADVANCED_FACE('',(#267),#68,.T.);
#294=ADVANCED_FACE('',(#268),#69,.T.);
#295=ADVANCED_FACE('',(#269),#70,.T.);
#296=ADVANCED_FACE('',(#270,#271),#64,.F.);
#297=ADVANCED_FACE('',(#272),#71,.T.);
#298=ADVANCED_FACE('',(#273,#274),#72,.F.);
#299=ADVANCED_FACE('',(#275,#276),#280,.F.);
#300=ADVANCED_FACE('',(#277,#278),#73,.F.);
#301=CLOSED_SHELL('',(#281,#282,#283,#284,#285,#286,#287,#288,#289,#290,
#291,#292,#293,#294,#295,#296,#297,#298,#299,#300));
#302=STYLED_ITEM('',(#303),#310);
#303=PRESENTATION_STYLE_ASSIGNMENT((#304));
#304=SURFACE_STYLE_USAGE(.BOTH.,#305);
#305=SURFACE_SIDE_STYLE('',(#306));
#306=SURFACE_STYLE_FILL_AREA(#307);
#307=FILL_AREA_STYLE('',(#308));
#308=FILL_AREA_STYLE_COLOUR('',#309);
#309=COLOUR_RGB('',0.689999997615814,0.689999997615814,0.689999997615814);
#310=MANIFOLD_SOLID_BREP('104Z3818',#301);
#311=SHAPE_DEFINITION_REPRESENTATION(#552,#312);
#312=SHAPE_REPRESENTATION('104Z3818',(#313),#547);
#313=AXIS2_PLACEMENT_3D('',#427,#347,#348);
#314=AXIS2_PLACEMENT_3D('',#428,#349,#350);
#315=AXIS2_PLACEMENT_3D('',#429,#351,#352);
#316=AXIS2_PLACEMENT_3D('',#431,#353,#354);
#317=AXIS2_PLACEMENT_3D('',#433,#355,#356);
#318=AXIS2_PLACEMENT_3D('',#434,#357,#358);
#319=AXIS2_PLACEMENT_3D('',#436,#359,#360);
#320=AXIS2_PLACEMENT_3D('',#437,#361,#362);
#321=AXIS2_PLACEMENT_3D('',#439,#363,#364);
#322=AXIS2_PLACEMENT_3D('',#452,#371,#372);
#323=AXIS2_PLACEMENT_3D('',#466,#375,#376);
#324=AXIS2_PLACEMENT_3D('',#478,#378,#379);
#325=AXIS2_PLACEMENT_3D('',#490,#381,#382);
#326=AXIS2_PLACEMENT_3D('',#502,#384,#385);
#327=AXIS2_PLACEMENT_3D('',#514,#387,#388);
#328=AXIS2_PLACEMENT_3D('',#524,#389,#390);
#329=AXIS2_PLACEMENT_3D('',#525,#391,#392);
#330=AXIS2_PLACEMENT_3D('',#526,#393,#394);
#331=AXIS2_PLACEMENT_3D('',#527,#395,#396);
#332=AXIS2_PLACEMENT_3D('',#528,#397,#398);
#333=AXIS2_PLACEMENT_3D('',#529,#399,#400);
#334=AXIS2_PLACEMENT_3D('',#530,#401,#402);
#335=AXIS2_PLACEMENT_3D('',#531,#403,#404);
#336=AXIS2_PLACEMENT_3D('',#532,#405,#406);
#337=AXIS2_PLACEMENT_3D('',#533,#407,#408);
#338=AXIS2_PLACEMENT_3D('',#534,#409,#410);
#339=AXIS2_PLACEMENT_3D('',#535,#411,#412);
#340=AXIS2_PLACEMENT_3D('',#537,#413,#414);
#341=AXIS2_PLACEMENT_3D('',#538,#415,#416);
#342=AXIS2_PLACEMENT_3D('',#539,#417,#418);
#343=AXIS2_PLACEMENT_3D('',#540,#419,#420);
#344=AXIS2_PLACEMENT_3D('',#542,#421,#422);
#345=AXIS2_PLACEMENT_3D('',#543,#423,#424);
#346=AXIS2_PLACEMENT_3D('',#545,#425,#426);
#347=DIRECTION('',(0.,0.,1.));
#348=DIRECTION('',(1.,0.,0.));
#349=DIRECTION('',(0.,-1.,0.));
#350=DIRECTION('',(0.,0.,-1.));
#351=DIRECTION('',(0.,-1.,0.));
#352=DIRECTION('',(0.,0.,-1.));
#353=DIRECTION('',(0.,-1.,0.));
#354=DIRECTION('',(0.,0.,-1.));
#355=DIRECTION('',(0.,1.,0.));
#356=DIRECTION('',(0.,0.,1.));
#357=DIRECTION('',(0.,-1.,0.));
#358=DIRECTION('',(0.,0.,-1.));
#359=DIRECTION('',(0.,1.,0.));
#360=DIRECTION('',(0.,0.,1.));
#361=DIRECTION('',(0.,-1.,0.));
#362=DIRECTION('',(0.,0.,-1.));
#363=DIRECTION('',(0.,1.,0.));
#364=DIRECTION('',(0.,0.,1.));
#365=DIRECTION('',(0.5,0.,0.866025403784439));
#366=DIRECTION('',(-0.5,0.,0.866025403784439));
#367=DIRECTION('',(-1.,0.,0.));
#368=DIRECTION('',(-0.5,0.,-0.866025403784439));
#369=DIRECTION('',(0.5,0.,-0.866025403784439));
#370=DIRECTION('',(1.,0.,0.));
#371=DIRECTION('',(0.866025403784438,0.,0.5));
#372=DIRECTION('',(0.5,0.,-0.866025403784439));
#373=DIRECTION('',(0.,-1.,0.));
#374=DIRECTION('',(0.,-1.,0.));
#375=DIRECTION('',(0.,0.,1.));
#376=DIRECTION('',(1.,0.,0.));
#377=DIRECTION('',(0.,-1.,0.));
#378=DIRECTION('',(-0.866025403784439,0.,0.5));
#379=DIRECTION('',(0.5,0.,0.866025403784439));
#380=DIRECTION('',(0.,-1.,0.));
#381=DIRECTION('',(-0.866025403784438,0.,-0.5));
#382=DIRECTION('',(-0.5,0.,0.866025403784439));
#383=DIRECTION('',(0.,-1.,0.));
#384=DIRECTION('',(0.,0.,-1.));
#385=DIRECTION('',(-1.,0.,0.));
#386=DIRECTION('',(0.,-1.,0.));
#387=DIRECTION('',(0.866025403784439,0.,-0.5));
#388=DIRECTION('',(-0.5,0.,-0.866025403784439));
#389=DIRECTION('',(0.,-1.,0.));
#390=DIRECTION('',(0.,0.,-1.));
#391=DIRECTION('',(0.,1.,0.));
#392=DIRECTION('',(0.,0.,1.));
#393=DIRECTION('',(0.,-1.,0.));
#394=DIRECTION('',(0.,0.,-1.));
#395=DIRECTION('',(0.,1.,0.));
#396=DIRECTION('',(0.,0.,1.));
#397=DIRECTION('',(0.,-1.,0.));
#398=DIRECTION('',(0.,0.,-1.));
#399=DIRECTION('',(0.,1.,0.));
#400=DIRECTION('',(0.,0.,1.));
#401=DIRECTION('',(0.,-1.,0.));
#402=DIRECTION('',(0.,0.,-1.));
#403=DIRECTION('',(0.,1.,0.));
#404=DIRECTION('',(0.,0.,1.));
#405=DIRECTION('',(0.,-1.,0.));
#406=DIRECTION('',(0.,0.,-1.));
#407=DIRECTION('',(0.,1.,0.));
#408=DIRECTION('',(0.,0.,1.));
#409=DIRECTION('',(0.,-1.,0.));
#410=DIRECTION('',(0.,0.,-1.));
#411=DIRECTION('',(0.,-1.,0.));
#412=DIRECTION('',(0.,0.,-1.));
#413=DIRECTION('',(0.,1.,0.));
#414=DIRECTION('',(0.,0.,1.));
#415=DIRECTION('',(0.,-1.,0.));
#416=DIRECTION('',(0.,0.,-1.));
#417=DIRECTION('',(0.,1.,0.));
#418=DIRECTION('',(0.,0.,1.));
#419=DIRECTION('',(0.,-1.,0.));
#420=DIRECTION('',(0.,0.,-1.));
#421=DIRECTION('',(0.,-1.,0.));
#422=DIRECTION('',(0.,0.,-1.));
#423=DIRECTION('',(0.,-1.,0.));
#424=DIRECTION('',(0.,0.,-1.));
#425=DIRECTION('',(0.,-1.,0.));
#426=DIRECTION('',(0.,0.,-1.));
#427=CARTESIAN_POINT('',(0.,0.,0.));
#428=CARTESIAN_POINT('',(0.,0.,0.));
#429=CARTESIAN_POINT('',(0.,0.855999999999999,0.));
#430=CARTESIAN_POINT('',(0.,0.855999999999999,-8.331));
#431=CARTESIAN_POINT('',(0.,9.,0.));
#432=CARTESIAN_POINT('',(0.,9.,-8.331));
#433=CARTESIAN_POINT('',(0.,0.855999999999999,0.));
#434=CARTESIAN_POINT('',(0.,-1.0842021724855E-16,0.));
#435=CARTESIAN_POINT('',(0.,-1.0842021724855E-16,-7.475));
#436=CARTESIAN_POINT('',(7.475,-5.42101086242752E-17,0.));
#437=CARTESIAN_POINT('',(0.,0.,0.));
#438=CARTESIAN_POINT('',(0.,0.,-4.864));
#439=CARTESIAN_POINT('',(0.,9.,0.));
#440=CARTESIAN_POINT('',(-10.9696551146029,9.,-1.77635683940025E-15));
#441=CARTESIAN_POINT('',(-10.9696551146029,9.,0.));
#442=CARTESIAN_POINT('',(-5.48482755730145,9.,9.5));
#443=CARTESIAN_POINT('',(-5.48482755730144,9.,-9.5));
#444=CARTESIAN_POINT('',(-5.48482755730144,9.,-9.5));
#445=CARTESIAN_POINT('',(5.48482755730145,9.,-9.5));
#446=CARTESIAN_POINT('',(5.48482755730145,9.,-9.5));
#447=CARTESIAN_POINT('',(10.9696551146029,9.,1.77635683940025E-15));
#448=CARTESIAN_POINT('',(10.9696551146029,9.,1.73472347597681E-15));
#449=CARTESIAN_POINT('',(5.48482755730144,9.,9.5));
#450=CARTESIAN_POINT('',(5.48482755730144,9.,9.5));
#451=CARTESIAN_POINT('',(-5.48482755730145,9.,9.5));
#452=CARTESIAN_POINT('',(-5.48482755730144,14.,-9.5));
#453=CARTESIAN_POINT('',(-5.48482755730144,14.,-9.5));
#454=CARTESIAN_POINT('',(-5.48482755730144,13.1514942239681,-9.5));
#455=CARTESIAN_POINT('',(-10.9696551146029,14.,-1.77635683940025E-15));
#456=CARTESIAN_POINT('',(-10.9696551146029,13.1514942239681,-1.77635683940025E-15));
#457=CARTESIAN_POINT('',(-8.22724133595216,14.,-4.75));
#458=CARTESIAN_POINT('',(-9.15819989170647,14.,-3.13753248169261));
#459=CARTESIAN_POINT('',(-10.0746499696211,13.6682256853496,-1.55019438414395));
#460=CARTESIAN_POINT('',(-10.9696551146029,13.1514942239683,2.23631310220656E-14));
#461=CARTESIAN_POINT('',(-8.22724133595217,14.,-4.75));
#462=CARTESIAN_POINT('',(-5.48482755730142,13.1514942239685,-9.50000000000004));
#463=CARTESIAN_POINT('',(-6.38207313318775,13.6695191987357,-7.94592507569851));
#464=CARTESIAN_POINT('',(-7.29278894890404,14.,-6.36851901162138));
#465=CARTESIAN_POINT('',(-8.22724133595217,14.,-4.75));
#466=CARTESIAN_POINT('',(5.48482755730145,14.,-9.5));
#467=CARTESIAN_POINT('',(5.48482755730145,14.,-9.5));
#468=CARTESIAN_POINT('',(5.48482755730145,13.1514942239681,-9.5));
#469=CARTESIAN_POINT('',(-1.3391623724821E-15,14.,-9.5));
#470=CARTESIAN_POINT('',(-1.87760076792756,14.,-9.5));
#471=CARTESIAN_POINT('',(-3.69997526860622,13.6667366986391,-9.5));
#472=CARTESIAN_POINT('',(-5.48482755730143,13.1514942239681,-9.5));
#473=CARTESIAN_POINT('',(0.,14.,-9.5));
#474=CARTESIAN_POINT('',(5.48482755730145,13.1514942239681,-9.5));
#475=CARTESIAN_POINT('',(3.69795912111962,13.6673187102861,-9.5));
#476=CARTESIAN_POINT('',(1.87854202742131,14.,-9.5));
#477=CARTESIAN_POINT('',(-1.3391623724821E-15,14.,-9.5));
#478=CARTESIAN_POINT('',(10.9696551146029,14.,1.77635683940025E-15));
#479=CARTESIAN_POINT('',(10.9696551146029,14.,1.73472347597681E-15));
#480=CARTESIAN_POINT('',(10.9696551146029,13.1514942239681,1.73472347597681E-15));
#481=CARTESIAN_POINT('',(8.22724133595217,14.,-4.75));
#482=CARTESIAN_POINT('',(7.29628278019787,14.,-6.36246751830739));
#483=CARTESIAN_POINT('',(6.3798327022832,13.6682256853496,-7.94980561585605));
#484=CARTESIAN_POINT('',(5.48482755730143,13.1514942239683,-9.50000000000003));
#485=CARTESIAN_POINT('',(8.22724133595217,14.,-4.75));
#486=CARTESIAN_POINT('',(10.9696551146029,13.1514942239685,4.77462240143072E-14));
#487=CARTESIAN_POINT('',(10.0724095387166,13.6695191987357,-1.55407492430149));
#488=CARTESIAN_POINT('',(9.1616937230003,14.,-3.13148098837862));
#489=CARTESIAN_POINT('',(8.22724133595217,14.,-4.75));
#490=CARTESIAN_POINT('',(5.48482755730144,14.,9.5));
#491=CARTESIAN_POINT('',(5.48482755730144,14.,9.5));
#492=CARTESIAN_POINT('',(5.48482755730144,13.1514942239681,9.5));
#493=CARTESIAN_POINT('',(8.22724133595217,14.,4.75));
#494=CARTESIAN_POINT('',(9.15819989170647,14.,3.13753248169261));
#495=CARTESIAN_POINT('',(10.0746499696211,13.6682256853496,1.55019438414394));
#496=CARTESIAN_POINT('',(10.9696551146029,13.1514942239683,-2.73576554188766E-14));
#497=CARTESIAN_POINT('',(8.22724133595217,14.,4.75));
#498=CARTESIAN_POINT('',(5.48482755730142,13.1514942239685,9.50000000000004));
#499=CARTESIAN_POINT('',(6.38207313318776,13.6695191987357,7.94592507569851));
#500=CARTESIAN_POINT('',(7.29278894890404,14.,6.36851901162138));
#501=CARTESIAN_POINT('',(8.22724133595217,14.,4.75));
#502=CARTESIAN_POINT('',(-5.48482755730145,14.,9.5));
#503=CARTESIAN_POINT('',(-5.48482755730145,14.,9.5));
#504=CARTESIAN_POINT('',(-5.48482755730145,13.1514942239681,9.5));
#505=CARTESIAN_POINT('',(1.3391623724821E-15,14.,9.5));
#506=CARTESIAN_POINT('',(1.87760076792756,14.,9.5));
#507=CARTESIAN_POINT('',(3.69997526860622,13.6667366986391,9.5));
#508=CARTESIAN_POINT('',(5.48482755730143,13.1514942239681,9.5));
#509=CARTESIAN_POINT('',(0.,14.,9.5));
#510=CARTESIAN_POINT('',(-5.48482755730145,13.1514942239681,9.5));
#511=CARTESIAN_POINT('',(-3.69795912111962,13.6673187102861,9.5));
#512=CARTESIAN_POINT('',(-1.87854202742131,14.,9.5));
#513=CARTESIAN_POINT('',(1.3391623724821E-15,14.,9.5));
#514=CARTESIAN_POINT('',(-10.9696551146029,14.,-1.77635683940025E-15));
#515=CARTESIAN_POINT('',(-8.22724133595217,14.,4.75));
#516=CARTESIAN_POINT('',(-7.29628278019787,14.,6.36246751830739));
#517=CARTESIAN_POINT('',(-6.3798327022832,13.6682256853496,7.94980561585605));
#518=CARTESIAN_POINT('',(-5.48482755730143,13.1514942239683,9.50000000000003));
#519=CARTESIAN_POINT('',(-8.22724133595217,14.,4.75));
#520=CARTESIAN_POINT('',(-10.9696551146029,13.1514942239685,-4.77762084843316E-14));
#521=CARTESIAN_POINT('',(-10.0724095387166,13.6695191987357,1.55407492430149));
#522=CARTESIAN_POINT('',(-9.1616937230003,14.,3.13148098837862));
#523=CARTESIAN_POINT('',(-8.22724133595217,14.,4.75));
#524=CARTESIAN_POINT('',(0.,12.9030344885397,0.));
#525=CARTESIAN_POINT('',(0.,14.,0.));
#526=CARTESIAN_POINT('',(0.,12.9030344885397,0.));
#527=CARTESIAN_POINT('',(0.,14.,0.));
#528=CARTESIAN_POINT('',(0.,12.9030344885397,0.));
#529=CARTESIAN_POINT('',(0.,14.,0.));
#530=CARTESIAN_POINT('',(0.,12.9030344885397,0.));
#531=CARTESIAN_POINT('',(0.,14.,0.));
#532=CARTESIAN_POINT('',(0.,12.9030344885397,0.));
#533=CARTESIAN_POINT('',(0.,14.,0.));
#534=CARTESIAN_POINT('',(-9.5,14.,0.));
#535=CARTESIAN_POINT('',(0.,14.,0.));
#536=CARTESIAN_POINT('',(0.,14.,-4.864));
#537=CARTESIAN_POINT('',(0.,14.,0.));
#538=CARTESIAN_POINT('',(0.,12.9030344885397,0.));
#539=CARTESIAN_POINT('',(0.,14.,0.));
#540=CARTESIAN_POINT('',(0.,13.419,0.));
#541=CARTESIAN_POINT('',(0.,13.419,-4.283));
#542=CARTESIAN_POINT('',(0.,0.,0.));
#543=CARTESIAN_POINT('',(0.,0.581,0.));
#544=CARTESIAN_POINT('',(0.,0.581,-4.283));
#545=CARTESIAN_POINT('',(0.,0.581,0.));
#546=MECHANICAL_DESIGN_GEOMETRIC_PRESENTATION_REPRESENTATION('',(#302),
#547);
#547=(
GEOMETRIC_REPRESENTATION_CONTEXT(3)
GLOBAL_UNCERTAINTY_ASSIGNED_CONTEXT((#548))
GLOBAL_UNIT_ASSIGNED_CONTEXT((#551,#550,#549))
REPRESENTATION_CONTEXT('104Z3818','TOP_LEVEL_ASSEMBLY_PART')
);
#548=UNCERTAINTY_MEASURE_WITH_UNIT(LENGTH_MEASURE(0.005),#551,
'DISTANCE_ACCURACY_VALUE','Maximum Tolerance applied to model');
#549=(
NAMED_UNIT(*)
SI_UNIT($,.STERADIAN.)
SOLID_ANGLE_UNIT()
);
#550=(
NAMED_UNIT(*)
PLANE_ANGLE_UNIT()
SI_UNIT($,.RADIAN.)
);
#551=(
LENGTH_UNIT()
NAMED_UNIT(*)
SI_UNIT(.MILLI.,.METRE.)
);
#552=PRODUCT_DEFINITION_SHAPE('','',#553);
#553=PRODUCT_DEFINITION('','',#555,#554);
#554=PRODUCT_DEFINITION_CONTEXT('',#561,'design');
#555=PRODUCT_DEFINITION_FORMATION_WITH_SPECIFIED_SOURCE('','',#557,
 .NOT_KNOWN.);
#556=PRODUCT_RELATED_PRODUCT_CATEGORY('','',(#557));
#557=PRODUCT('104Z3818','104Z3818','104Z3818',(#559));
#558=PRODUCT_CATEGORY('','');
#559=PRODUCT_CONTEXT('',#561,'mechanical');
#560=APPLICATION_PROTOCOL_DEFINITION('international standard',
'automotive_design',2010,#561);
#561=APPLICATION_CONTEXT(
'core data for automotive mechanical design processes');
ENDSEC;
END-ISO-10303-21;
