ISO-10303-21;
HEADER;
/****************************************************************
 * Generated by software with PDE/Lib inside                    *
 * PDE/Lib Version 3.2.6, created Mon Nov 19, 2001 at 18:43:38  *
 * International Technegroup Inc. (www.iti-oh.com)              *
 ****************************************************************/
FILE_DESCRIPTION((''),'2;1');
FILE_NAME('J:\\VARIE-3D\\Componenti\\raccordi\\107XX\\10738.stp','2003-05-26T16:53:07',('maffial1'),(''),'Autodesk Inventor (R) 6.0','Autodesk Inventor (R) 6.0','');
FILE_SCHEMA(('AUTOMOTIVE_DESIGN { 1 0 10303 214 1 1 1 1 }'));
ENDSEC;
DATA;
#5=APPLICATION_CONTEXT('automotive design');
#6=APPLICATION_PROTOCOL_DEFINITION('Draft International Standard','automotive_design',1998,#5);
#7=PRODUCT_CONTEXT('None',#5,'mechanical');
#8=PRODUCT('10738','10738','None',(#7));
#9=PRODUCT_RELATED_PRODUCT_CATEGORY('part','description',(#8));
#10=PRODUCT_DEFINITION_FORMATION('None','None',#8);
#11=PRODUCT_DEFINITION_CONTEXT('part definition',#5,'design');
#12=PRODUCT_DEFINITION('None','None',#10,#11);
#18=(NAMED_UNIT(*)PLANE_ANGLE_UNIT()SI_UNIT($,.RADIAN.));
#19=DIMENSIONAL_EXPONENTS(0.0,0.0,0.0,0.0,0.0,0.0,0.0);
#20=PLANE_ANGLE_MEASURE_WITH_UNIT(PLANE_ANGLE_MEASURE(0.017453292500000),#18);
#24=(CONVERSION_BASED_UNIT('DEGREE',#20)NAMED_UNIT(#19)PLANE_ANGLE_UNIT());
#28=(NAMED_UNIT(*)SI_UNIT($,.STERADIAN.)SOLID_ANGLE_UNIT());
#32=(LENGTH_UNIT()NAMED_UNIT(*)SI_UNIT(.MILLI.,.METRE.));
#34=UNCERTAINTY_MEASURE_WITH_UNIT(LENGTH_MEASURE(0.000001000000000),#32,'DISTANCE_ACCURACY_VALUE','');
#36=(GEOMETRIC_REPRESENTATION_CONTEXT(3)GLOBAL_UNCERTAINTY_ASSIGNED_CONTEXT((#34))GLOBAL_UNIT_ASSIGNED_CONTEXT((#24,#28,#32))REPRESENTATION_CONTEXT('None','None'));
#37=AXIS2_PLACEMENT_3D('',#38,#39,#40);
#38=CARTESIAN_POINT('',(0.0,0.0,0.0));
#39=DIRECTION('',(0.0,0.0,1.0));
#40=DIRECTION('',(1.0,0.0,0.0));
#41=SHAPE_REPRESENTATION('',(#37),#36);
#42=PRODUCT_DEFINITION_SHAPE('','',#12);
#43=SHAPE_DEFINITION_REPRESENTATION(#42,#41);
#44=CARTESIAN_POINT('',(0.0,3.750000000000000,0.0));
#45=DIRECTION('',(0.0,-1.0,0.0));
#46=DIRECTION('',(1.0,0.0,0.0));
#47=AXIS2_PLACEMENT_3D('',#44,#45,#46);
#48=CYLINDRICAL_SURFACE('',#47,8.300000000000001);
#49=CARTESIAN_POINT('',(8.300000000000001,7.500000000000000,0.0));
#50=VERTEX_POINT('',#49);
#51=CARTESIAN_POINT('',(8.300000000000001,0.0,0.0));
#52=VERTEX_POINT('',#51);
#53=CARTESIAN_POINT('',(8.300000000000001,7.500000000000000,0.0));
#54=DIRECTION('',(0.0,-1.0,0.0));
#55=VECTOR('',#54,7.500000000000000);
#56=LINE('',#53,#55);
#57=EDGE_CURVE('',#50,#52,#56,.T.);
#58=ORIENTED_EDGE('',*,*,#57,.F.);
#59=CARTESIAN_POINT('',(-8.300000000000001,7.500000000000000,1.016423E-015));
#60=VERTEX_POINT('',#59);
#61=CARTESIAN_POINT('',(0.0,7.500000000000000,0.0));
#62=DIRECTION('',(0.0,-1.0,0.0));
#63=DIRECTION('',(1.0,0.0,0.0));
#64=AXIS2_PLACEMENT_3D('',#61,#62,#63);
#65=CIRCLE('',#64,8.300000000000001);
#66=EDGE_CURVE('',#50,#60,#65,.T.);
#67=ORIENTED_EDGE('',*,*,#66,.T.);
#68=CARTESIAN_POINT('',(-8.300000000000001,0.0,1.016423E-015));
#69=VERTEX_POINT('',#68);
#70=CARTESIAN_POINT('',(-8.300000000000001,0.0,1.016423E-015));
#71=DIRECTION('',(0.0,1.0,0.0));
#72=VECTOR('',#71,7.500000000000000);
#73=LINE('',#70,#72);
#74=EDGE_CURVE('',#69,#60,#73,.T.);
#75=ORIENTED_EDGE('',*,*,#74,.F.);
#76=CARTESIAN_POINT('',(0.0,0.0,0.0));
#77=DIRECTION('',(0.0,-1.0,0.0));
#78=DIRECTION('',(1.0,0.0,0.0));
#79=AXIS2_PLACEMENT_3D('',#76,#77,#78);
#80=CIRCLE('',#79,8.300000000000001);
#81=EDGE_CURVE('',#52,#69,#80,.T.);
#82=ORIENTED_EDGE('',*,*,#81,.F.);
#83=EDGE_LOOP('',(#58,#67,#75,#82));
#84=FACE_OUTER_BOUND('',#83,.T.);
#85=ADVANCED_FACE('',(#84),#48,.T.);
#86=CARTESIAN_POINT('',(0.0,9.600000000000001,0.0));
#87=DIRECTION('',(0.0,-1.0,0.0));
#88=DIRECTION('',(1.0,0.0,0.0));
#89=AXIS2_PLACEMENT_3D('',#86,#87,#88);
#90=CYLINDRICAL_SURFACE('',#89,10.0);
#91=CARTESIAN_POINT('',(10.0,11.700000000000001,0.0));
#92=VERTEX_POINT('',#91);
#93=CARTESIAN_POINT('',(10.0,7.500000000000000,0.0));
#94=VERTEX_POINT('',#93);
#95=CARTESIAN_POINT('',(10.0,11.700000000000001,0.0));
#96=DIRECTION('',(0.0,-1.0,0.0));
#97=VECTOR('',#96,4.200000000000001);
#98=LINE('',#95,#97);
#99=EDGE_CURVE('',#92,#94,#98,.T.);
#100=ORIENTED_EDGE('',*,*,#99,.F.);
#101=CARTESIAN_POINT('',(-10.0,11.700000000000003,1.224606E-015));
#102=VERTEX_POINT('',#101);
#103=CARTESIAN_POINT('',(0.0,11.700000000000001,0.0));
#104=DIRECTION('',(0.0,-1.0,0.0));
#105=DIRECTION('',(1.0,0.0,0.0));
#106=AXIS2_PLACEMENT_3D('',#103,#104,#105);
#107=CIRCLE('',#106,10.0);
#108=EDGE_CURVE('',#92,#102,#107,.T.);
#109=ORIENTED_EDGE('',*,*,#108,.T.);
#110=CARTESIAN_POINT('',(-10.0,7.500000000000000,1.224606E-015));
#111=VERTEX_POINT('',#110);
#112=CARTESIAN_POINT('',(-10.0,7.500000000000000,1.224606E-015));
#113=DIRECTION('',(0.0,1.0,0.0));
#114=VECTOR('',#113,4.200000000000003);
#115=LINE('',#112,#114);
#116=EDGE_CURVE('',#111,#102,#115,.T.);
#117=ORIENTED_EDGE('',*,*,#116,.F.);
#118=CARTESIAN_POINT('',(0.0,7.500000000000000,0.0));
#119=DIRECTION('',(0.0,-1.0,0.0));
#120=DIRECTION('',(1.0,0.0,0.0));
#121=AXIS2_PLACEMENT_3D('',#118,#119,#120);
#122=CIRCLE('',#121,10.0);
#123=EDGE_CURVE('',#94,#111,#122,.T.);
#124=ORIENTED_EDGE('',*,*,#123,.F.);
#125=EDGE_LOOP('',(#100,#109,#117,#124));
#126=FACE_OUTER_BOUND('',#125,.T.);
#127=ADVANCED_FACE('',(#126),#90,.T.);
#128=CARTESIAN_POINT('',(0.0,11.850000000000001,0.0));
#129=DIRECTION('',(0.0,-1.0,0.0));
#130=DIRECTION('',(1.0,0.0,0.0));
#131=AXIS2_PLACEMENT_3D('',#128,#129,#130);
#132=CONICAL_SURFACE('',#131,9.850000000000000,45.000000000000007);
#133=CARTESIAN_POINT('',(9.699999999999999,12.000000000000002,0.0));
#134=VERTEX_POINT('',#133);
#135=CARTESIAN_POINT('',(9.699999999999999,12.000000000000002,0.0));
#136=DIRECTION('',(0.707106781186548,-0.707106781186548,0.0));
#137=VECTOR('',#136,0.424264068711930);
#138=LINE('',#135,#137);
#139=EDGE_CURVE('',#134,#92,#138,.T.);
#140=ORIENTED_EDGE('',*,*,#139,.F.);
#141=CARTESIAN_POINT('',(-9.699999999999999,12.0,1.187868E-015));
#142=VERTEX_POINT('',#141);
#143=CARTESIAN_POINT('',(0.0,12.000000000000002,0.0));
#144=DIRECTION('',(0.0,-1.0,0.0));
#145=DIRECTION('',(1.0,0.0,0.0));
#146=AXIS2_PLACEMENT_3D('',#143,#144,#145);
#147=CIRCLE('',#146,9.699999999999999);
#148=EDGE_CURVE('',#134,#142,#147,.T.);
#149=ORIENTED_EDGE('',*,*,#148,.T.);
#150=CARTESIAN_POINT('',(-10.0,11.700000000000003,1.224606E-015));
#151=DIRECTION('',(0.707106781186552,0.707106781186543,-8.659275E-017));
#152=VECTOR('',#151,0.424264068711927);
#153=LINE('',#150,#152);
#154=EDGE_CURVE('',#102,#142,#153,.T.);
#155=ORIENTED_EDGE('',*,*,#154,.F.);
#156=ORIENTED_EDGE('',*,*,#108,.F.);
#157=EDGE_LOOP('',(#140,#149,#155,#156));
#158=FACE_OUTER_BOUND('',#157,.T.);
#159=ADVANCED_FACE('',(#158),#132,.T.);
#160=CARTESIAN_POINT('',(2.309401076758504,12.000000000000002,-3.999999999999998));
#161=DIRECTION('',(0.0,0.0,-1.0));
#162=DIRECTION('',(-1.0,0.0,0.0));
#163=AXIS2_PLACEMENT_3D('',#160,#161,#162);
#164=PLANE('',#163);
#165=CARTESIAN_POINT('',(2.309401076758504,1.499999999999997,-3.999999999999998));
#166=VERTEX_POINT('',#165);
#167=CARTESIAN_POINT('',(-2.309401076758503,1.499999999999997,-3.999999999999998));
#168=VERTEX_POINT('',#167);
#169=CARTESIAN_POINT('',(2.309401076758504,1.499999999999997,-3.999999999999998));
#170=DIRECTION('',(-1.0,0.0,0.0));
#171=VECTOR('',#170,4.618802153517008);
#172=LINE('',#169,#171);
#173=EDGE_CURVE('',#166,#168,#172,.T.);
#174=ORIENTED_EDGE('',*,*,#173,.F.);
#175=CARTESIAN_POINT('',(2.309401076758504,12.000000000000002,-3.999999999999998));
#176=VERTEX_POINT('',#175);
#177=CARTESIAN_POINT('',(2.309401076758504,12.000000000000002,-3.999999999999998));
#178=DIRECTION('',(0.0,-1.0,0.0));
#179=VECTOR('',#178,10.500000000000005);
#180=LINE('',#177,#179);
#181=EDGE_CURVE('',#176,#166,#180,.T.);
#182=ORIENTED_EDGE('',*,*,#181,.F.);
#183=CARTESIAN_POINT('',(-2.309401076758503,12.000000000000002,-3.999999999999998));
#184=VERTEX_POINT('',#183);
#185=CARTESIAN_POINT('',(-2.309401076758503,12.000000000000002,-3.999999999999998));
#186=DIRECTION('',(1.0,0.0,0.0));
#187=VECTOR('',#186,4.618802153517008);
#188=LINE('',#185,#187);
#189=EDGE_CURVE('',#184,#176,#188,.T.);
#190=ORIENTED_EDGE('',*,*,#189,.F.);
#191=CARTESIAN_POINT('',(-2.309401076758503,12.000000000000002,-3.999999999999998));
#192=DIRECTION('',(0.0,-1.0,0.0));
#193=VECTOR('',#192,10.500000000000005);
#194=LINE('',#191,#193);
#195=EDGE_CURVE('',#184,#168,#194,.T.);
#196=ORIENTED_EDGE('',*,*,#195,.T.);
#197=EDGE_LOOP('',(#174,#182,#190,#196));
#198=FACE_OUTER_BOUND('',#197,.T.);
#199=ADVANCED_FACE('',(#198),#164,.F.);
#200=CARTESIAN_POINT('',(-2.309401076758503,12.000000000000002,-3.999999999999998));
#201=DIRECTION('',(-0.866025403784439,0.0,-0.500000000000000));
#202=DIRECTION('',(-0.500000000000000,0.0,0.866025403784439));
#203=AXIS2_PLACEMENT_3D('',#200,#201,#202);
#204=PLANE('',#203);
#205=CARTESIAN_POINT('',(-4.618802153517005,1.499999999999997,3.469447E-016));
#206=VERTEX_POINT('',#205);
#207=CARTESIAN_POINT('',(-2.309401076758503,1.499999999999997,-3.999999999999998));
#208=DIRECTION('',(-0.500000000000000,0.0,0.866025403784439));
#209=VECTOR('',#208,4.618802153517004);
#210=LINE('',#207,#209);
#211=EDGE_CURVE('',#168,#206,#210,.T.);
#212=ORIENTED_EDGE('',*,*,#211,.F.);
#213=ORIENTED_EDGE('',*,*,#195,.F.);
#214=CARTESIAN_POINT('',(-4.618802153517005,12.000000000000002,3.469447E-016));
#215=VERTEX_POINT('',#214);
#216=CARTESIAN_POINT('',(-4.618802153517005,12.000000000000002,3.469447E-016));
#217=DIRECTION('',(0.500000000000000,0.0,-0.866025403784439));
#218=VECTOR('',#217,4.618802153517004);
#219=LINE('',#216,#218);
#220=EDGE_CURVE('',#215,#184,#219,.T.);
#221=ORIENTED_EDGE('',*,*,#220,.F.);
#222=CARTESIAN_POINT('',(-4.618802153517005,12.000000000000002,3.469447E-016));
#223=DIRECTION('',(0.0,-1.0,0.0));
#224=VECTOR('',#223,10.500000000000005);
#225=LINE('',#222,#224);
#226=EDGE_CURVE('',#215,#206,#225,.T.);
#227=ORIENTED_EDGE('',*,*,#226,.T.);
#228=EDGE_LOOP('',(#212,#213,#221,#227));
#229=FACE_OUTER_BOUND('',#228,.T.);
#230=ADVANCED_FACE('',(#229),#204,.F.);
#231=CARTESIAN_POINT('',(-4.618802153517005,12.000000000000002,3.469447E-016));
#232=DIRECTION('',(-0.866025403784439,0.0,0.500000000000000));
#233=DIRECTION('',(0.500000000000000,0.0,0.866025403784439));
#234=AXIS2_PLACEMENT_3D('',#231,#232,#233);
#235=PLANE('',#234);
#236=CARTESIAN_POINT('',(-2.309401076758503,1.499999999999997,3.999999999999999));
#237=VERTEX_POINT('',#236);
#238=CARTESIAN_POINT('',(-4.618802153517005,1.499999999999997,3.469447E-016));
#239=DIRECTION('',(0.500000000000000,0.0,0.866025403784439));
#240=VECTOR('',#239,4.618802153517004);
#241=LINE('',#238,#240);
#242=EDGE_CURVE('',#206,#237,#241,.T.);
#243=ORIENTED_EDGE('',*,*,#242,.F.);
#244=ORIENTED_EDGE('',*,*,#226,.F.);
#245=CARTESIAN_POINT('',(-2.309401076758503,12.000000000000002,3.999999999999999));
#246=VERTEX_POINT('',#245);
#247=CARTESIAN_POINT('',(-2.309401076758503,12.000000000000002,3.999999999999999));
#248=DIRECTION('',(-0.500000000000000,0.0,-0.866025403784439));
#249=VECTOR('',#248,4.618802153517004);
#250=LINE('',#247,#249);
#251=EDGE_CURVE('',#246,#215,#250,.T.);
#252=ORIENTED_EDGE('',*,*,#251,.F.);
#253=CARTESIAN_POINT('',(-2.309401076758503,12.000000000000002,3.999999999999999));
#254=DIRECTION('',(0.0,-1.0,0.0));
#255=VECTOR('',#254,10.500000000000005);
#256=LINE('',#253,#255);
#257=EDGE_CURVE('',#246,#237,#256,.T.);
#258=ORIENTED_EDGE('',*,*,#257,.T.);
#259=EDGE_LOOP('',(#243,#244,#252,#258));
#260=FACE_OUTER_BOUND('',#259,.T.);
#261=ADVANCED_FACE('',(#260),#235,.F.);
#262=CARTESIAN_POINT('',(-2.309401076758503,12.000000000000002,3.999999999999999));
#263=DIRECTION('',(0.0,0.0,1.0));
#264=DIRECTION('',(1.0,0.0,0.0));
#265=AXIS2_PLACEMENT_3D('',#262,#263,#264);
#266=PLANE('',#265);
#267=CARTESIAN_POINT('',(2.309401076758502,1.499999999999997,4.000000000000000));
#268=VERTEX_POINT('',#267);
#269=CARTESIAN_POINT('',(-2.309401076758503,1.499999999999997,3.999999999999999));
#270=DIRECTION('',(1.0,0.0,0.0));
#271=VECTOR('',#270,4.618802153517004);
#272=LINE('',#269,#271);
#273=EDGE_CURVE('',#237,#268,#272,.T.);
#274=ORIENTED_EDGE('',*,*,#273,.F.);
#275=ORIENTED_EDGE('',*,*,#257,.F.);
#276=CARTESIAN_POINT('',(2.309401076758502,12.000000000000002,4.000000000000000));
#277=VERTEX_POINT('',#276);
#278=CARTESIAN_POINT('',(2.309401076758502,12.000000000000002,4.000000000000000));
#279=DIRECTION('',(-1.0,0.0,0.0));
#280=VECTOR('',#279,4.618802153517004);
#281=LINE('',#278,#280);
#282=EDGE_CURVE('',#277,#246,#281,.T.);
#283=ORIENTED_EDGE('',*,*,#282,.F.);
#284=CARTESIAN_POINT('',(2.309401076758502,12.000000000000002,4.000000000000000));
#285=DIRECTION('',(0.0,-1.0,0.0));
#286=VECTOR('',#285,10.500000000000005);
#287=LINE('',#284,#286);
#288=EDGE_CURVE('',#277,#268,#287,.T.);
#289=ORIENTED_EDGE('',*,*,#288,.T.);
#290=EDGE_LOOP('',(#274,#275,#283,#289));
#291=FACE_OUTER_BOUND('',#290,.T.);
#292=ADVANCED_FACE('',(#291),#266,.F.);
#293=CARTESIAN_POINT('',(2.309401076758502,12.000000000000002,4.000000000000000));
#294=DIRECTION('',(0.866025403784439,0.0,0.500000000000000));
#295=DIRECTION('',(0.500000000000000,0.0,-0.866025403784438));
#296=AXIS2_PLACEMENT_3D('',#293,#294,#295);
#297=PLANE('',#296);
#298=CARTESIAN_POINT('',(4.618802153517005,1.499999999999997,1.734723E-015));
#299=VERTEX_POINT('',#298);
#300=CARTESIAN_POINT('',(2.309401076758502,1.499999999999997,4.000000000000000));
#301=DIRECTION('',(0.500000000000000,0.0,-0.866025403784439));
#302=VECTOR('',#301,4.618802153517004);
#303=LINE('',#300,#302);
#304=EDGE_CURVE('',#268,#299,#303,.T.);
#305=ORIENTED_EDGE('',*,*,#304,.F.);
#306=ORIENTED_EDGE('',*,*,#288,.F.);
#307=CARTESIAN_POINT('',(4.618802153517005,12.000000000000002,1.734723E-015));
#308=VERTEX_POINT('',#307);
#309=CARTESIAN_POINT('',(4.618802153517005,12.000000000000002,1.734723E-015));
#310=DIRECTION('',(-0.500000000000000,0.0,0.866025403784439));
#311=VECTOR('',#310,4.618802153517004);
#312=LINE('',#309,#311);
#313=EDGE_CURVE('',#308,#277,#312,.T.);
#314=ORIENTED_EDGE('',*,*,#313,.F.);
#315=CARTESIAN_POINT('',(4.618802153517005,12.000000000000002,1.734723E-015));
#316=DIRECTION('',(0.0,-1.0,0.0));
#317=VECTOR('',#316,10.500000000000005);
#318=LINE('',#315,#317);
#319=EDGE_CURVE('',#308,#299,#318,.T.);
#320=ORIENTED_EDGE('',*,*,#319,.T.);
#321=EDGE_LOOP('',(#305,#306,#314,#320));
#322=FACE_OUTER_BOUND('',#321,.T.);
#323=ADVANCED_FACE('',(#322),#297,.F.);
#324=CARTESIAN_POINT('',(4.618802153517005,12.000000000000002,1.734723E-015));
#325=DIRECTION('',(0.866025403784439,0.0,-0.500000000000000));
#326=DIRECTION('',(-0.500000000000000,0.0,-0.866025403784439));
#327=AXIS2_PLACEMENT_3D('',#324,#325,#326);
#328=PLANE('',#327);
#329=CARTESIAN_POINT('',(4.618802153517005,1.499999999999997,1.734723E-015));
#330=DIRECTION('',(-0.500000000000000,0.0,-0.866025403784439));
#331=VECTOR('',#330,4.618802153517005);
#332=LINE('',#329,#331);
#333=EDGE_CURVE('',#299,#166,#332,.T.);
#334=ORIENTED_EDGE('',*,*,#333,.F.);
#335=ORIENTED_EDGE('',*,*,#319,.F.);
#336=CARTESIAN_POINT('',(2.309401076758504,12.000000000000002,-3.999999999999998));
#337=DIRECTION('',(0.500000000000000,0.0,0.866025403784439));
#338=VECTOR('',#337,4.618802153517005);
#339=LINE('',#336,#338);
#340=EDGE_CURVE('',#176,#308,#339,.T.);
#341=ORIENTED_EDGE('',*,*,#340,.F.);
#342=ORIENTED_EDGE('',*,*,#181,.T.);
#343=EDGE_LOOP('',(#334,#335,#341,#342));
#344=FACE_OUTER_BOUND('',#343,.T.);
#345=ADVANCED_FACE('',(#344),#328,.F.);
#346=CARTESIAN_POINT('',(1.261617E-016,1.499999999999997,1.387779E-016));
#347=DIRECTION('',(0.0,1.0,0.0));
#348=DIRECTION('',(0.0,0.0,1.0));
#349=AXIS2_PLACEMENT_3D('',#346,#347,#348);
#350=PLANE('',#349);
#351=ORIENTED_EDGE('',*,*,#173,.T.);
#352=ORIENTED_EDGE('',*,*,#211,.T.);
#353=ORIENTED_EDGE('',*,*,#242,.T.);
#354=ORIENTED_EDGE('',*,*,#273,.T.);
#355=ORIENTED_EDGE('',*,*,#304,.T.);
#356=ORIENTED_EDGE('',*,*,#333,.T.);
#357=EDGE_LOOP('',(#351,#352,#353,#354,#355,#356));
#358=FACE_OUTER_BOUND('',#357,.T.);
#359=ADVANCED_FACE('',(#358),#350,.T.);
#360=CARTESIAN_POINT('',(4.850000000000000,12.000000000000002,0.0));
#361=DIRECTION('',(0.0,1.0,0.0));
#362=DIRECTION('',(0.0,0.0,1.0));
#363=AXIS2_PLACEMENT_3D('',#360,#361,#362);
#364=PLANE('',#363);
#365=ORIENTED_EDGE('',*,*,#148,.F.);
#366=CARTESIAN_POINT('',(0.0,12.000000000000002,0.0));
#367=DIRECTION('',(0.0,-1.0,0.0));
#368=DIRECTION('',(1.0,0.0,0.0));
#369=AXIS2_PLACEMENT_3D('',#366,#367,#368);
#370=CIRCLE('',#369,9.699999999999999);
#371=EDGE_CURVE('',#142,#134,#370,.T.);
#372=ORIENTED_EDGE('',*,*,#371,.F.);
#373=EDGE_LOOP('',(#365,#372));
#374=FACE_OUTER_BOUND('',#373,.T.);
#375=ORIENTED_EDGE('',*,*,#189,.T.);
#376=ORIENTED_EDGE('',*,*,#340,.T.);
#377=ORIENTED_EDGE('',*,*,#313,.T.);
#378=ORIENTED_EDGE('',*,*,#282,.T.);
#379=ORIENTED_EDGE('',*,*,#251,.T.);
#380=ORIENTED_EDGE('',*,*,#220,.T.);
#381=EDGE_LOOP('',(#375,#376,#377,#378,#379,#380));
#382=FACE_BOUND('',#381,.T.);
#383=ADVANCED_FACE('',(#374,#382),#364,.T.);
#384=CARTESIAN_POINT('',(0.0,11.850000000000001,0.0));
#385=DIRECTION('',(0.0,-1.0,0.0));
#386=DIRECTION('',(1.0,0.0,0.0));
#387=AXIS2_PLACEMENT_3D('',#384,#385,#386);
#388=CONICAL_SURFACE('',#387,9.850000000000000,45.000000000000007);
#389=ORIENTED_EDGE('',*,*,#139,.T.);
#390=CARTESIAN_POINT('',(0.0,11.700000000000001,0.0));
#391=DIRECTION('',(0.0,-1.0,0.0));
#392=DIRECTION('',(1.0,0.0,0.0));
#393=AXIS2_PLACEMENT_3D('',#390,#391,#392);
#394=CIRCLE('',#393,10.0);
#395=EDGE_CURVE('',#102,#92,#394,.T.);
#396=ORIENTED_EDGE('',*,*,#395,.F.);
#397=ORIENTED_EDGE('',*,*,#154,.T.);
#398=ORIENTED_EDGE('',*,*,#371,.T.);
#399=EDGE_LOOP('',(#389,#396,#397,#398));
#400=FACE_OUTER_BOUND('',#399,.T.);
#401=ADVANCED_FACE('',(#400),#388,.T.);
#402=CARTESIAN_POINT('',(0.0,9.600000000000001,0.0));
#403=DIRECTION('',(0.0,-1.0,0.0));
#404=DIRECTION('',(1.0,0.0,0.0));
#405=AXIS2_PLACEMENT_3D('',#402,#403,#404);
#406=CYLINDRICAL_SURFACE('',#405,10.0);
#407=ORIENTED_EDGE('',*,*,#99,.T.);
#408=CARTESIAN_POINT('',(0.0,7.500000000000000,0.0));
#409=DIRECTION('',(0.0,-1.0,0.0));
#410=DIRECTION('',(1.0,0.0,0.0));
#411=AXIS2_PLACEMENT_3D('',#408,#409,#410);
#412=CIRCLE('',#411,10.0);
#413=EDGE_CURVE('',#111,#94,#412,.T.);
#414=ORIENTED_EDGE('',*,*,#413,.F.);
#415=ORIENTED_EDGE('',*,*,#116,.T.);
#416=ORIENTED_EDGE('',*,*,#395,.T.);
#417=EDGE_LOOP('',(#407,#414,#415,#416));
#418=FACE_OUTER_BOUND('',#417,.T.);
#419=ADVANCED_FACE('',(#418),#406,.T.);
#420=CARTESIAN_POINT('',(9.150000000000000,7.500000000000000,0.0));
#421=DIRECTION('',(0.0,-1.0,0.0));
#422=DIRECTION('',(0.0,0.0,-1.0));
#423=AXIS2_PLACEMENT_3D('',#420,#421,#422);
#424=PLANE('',#423);
#425=ORIENTED_EDGE('',*,*,#123,.T.);
#426=ORIENTED_EDGE('',*,*,#413,.T.);
#427=EDGE_LOOP('',(#425,#426));
#428=FACE_OUTER_BOUND('',#427,.T.);
#429=ORIENTED_EDGE('',*,*,#66,.F.);
#430=CARTESIAN_POINT('',(0.0,7.500000000000000,0.0));
#431=DIRECTION('',(0.0,-1.0,0.0));
#432=DIRECTION('',(1.0,0.0,0.0));
#433=AXIS2_PLACEMENT_3D('',#430,#431,#432);
#434=CIRCLE('',#433,8.300000000000001);
#435=EDGE_CURVE('',#60,#50,#434,.T.);
#436=ORIENTED_EDGE('',*,*,#435,.F.);
#437=EDGE_LOOP('',(#429,#436));
#438=FACE_BOUND('',#437,.T.);
#439=ADVANCED_FACE('',(#428,#438),#424,.T.);
#440=CARTESIAN_POINT('',(0.0,3.750000000000000,0.0));
#441=DIRECTION('',(0.0,-1.0,0.0));
#442=DIRECTION('',(1.0,0.0,0.0));
#443=AXIS2_PLACEMENT_3D('',#440,#441,#442);
#444=CYLINDRICAL_SURFACE('',#443,8.300000000000001);
#445=ORIENTED_EDGE('',*,*,#57,.T.);
#446=CARTESIAN_POINT('',(0.0,0.0,0.0));
#447=DIRECTION('',(0.0,-1.0,0.0));
#448=DIRECTION('',(1.0,0.0,0.0));
#449=AXIS2_PLACEMENT_3D('',#446,#447,#448);
#450=CIRCLE('',#449,8.300000000000001);
#451=EDGE_CURVE('',#69,#52,#450,.T.);
#452=ORIENTED_EDGE('',*,*,#451,.F.);
#453=ORIENTED_EDGE('',*,*,#74,.T.);
#454=ORIENTED_EDGE('',*,*,#435,.T.);
#455=EDGE_LOOP('',(#445,#452,#453,#454));
#456=FACE_OUTER_BOUND('',#455,.T.);
#457=ADVANCED_FACE('',(#456),#444,.T.);
#458=CARTESIAN_POINT('',(4.150000000000000,0.0,0.0));
#459=DIRECTION('',(0.0,-1.0,0.0));
#460=DIRECTION('',(0.0,0.0,-1.0));
#461=AXIS2_PLACEMENT_3D('',#458,#459,#460);
#462=PLANE('',#461);
#463=ORIENTED_EDGE('',*,*,#81,.T.);
#464=ORIENTED_EDGE('',*,*,#451,.T.);
#465=EDGE_LOOP('',(#463,#464));
#466=FACE_OUTER_BOUND('',#465,.T.);
#467=ADVANCED_FACE('',(#466),#462,.T.);
#468=CLOSED_SHELL('',(#85,#127,#159,#199,#230,#261,#292,#323,#345,#359,#383,#401,#419,#439,#457,#467));
#469=MANIFOLD_SOLID_BREP('',#468);
#470=COLOUR_RGB('OTTONE NICHELATO',0.792156875133514,0.792156875133514,0.792156875133514);
#471=FILL_AREA_STYLE_COLOUR('OTTONE NICHELATO',#470);
#472=FILL_AREA_STYLE('OTTONE NICHELATO',(#471));
#473=SURFACE_STYLE_FILL_AREA(#472);
#474=SURFACE_SIDE_STYLE('OTTONE NICHELATO',(#473));
#475=SURFACE_STYLE_USAGE(.BOTH.,#474);
#476=PRESENTATION_STYLE_ASSIGNMENT((#475));
#477=STYLED_ITEM('',(#476),#469);
#478=MECHANICAL_DESIGN_GEOMETRIC_PRESENTATION_REPRESENTATION('',(#477),#36);
#479=ADVANCED_BREP_SHAPE_REPRESENTATION('ABSR',(#469),#36);
#480=SHAPE_REPRESENTATION_RELATIONSHIP('SRR','None',#479,#41);
ENDSEC;
END-ISO-10303-21;
