ISO-10303-21;
HEADER;
/* Generated by software containing ST-Developer
 * from STEP Tools, Inc. (www.steptools.com) 
 */
/* OPTION: strings as raw bytes, not using required /X/ escapes */

FILE_DESCRIPTION(
/* description */ ('Unknown'),
/* implementation_level */ '2;1');

FILE_NAME(
/* name */ 'CP3.1;4',
/* time_stamp */ '2018-10-29T09:43:37-04:00',
/* author */ ('Unknown'),
/* organization */ ('Unknown'),
/* preprocessor_version */ 'ST-DEVELOPER v16.7',
/* originating_system */ 'DEX',
/* authorisation */ $);

FILE_SCHEMA (('AUTOMOTIVE_DESIGN {1 0 10303 214 3 1 1}'));
ENDSEC;

DATA;
#10=PROPERTY_DEFINITION_REPRESENTATION(#14,#12);
#11=PROPERTY_DEFINITION_REPRESENTATION(#15,#13);
#12=REPRESENTATION('',(#16),#419);
#13=REPRESENTATION('',(#17),#419);
#14=PROPERTY_DEFINITION('pmi validation property','',#424);
#15=PROPERTY_DEFINITION('pmi validation property','',#424);
#16=VALUE_REPRESENTATION_ITEM('number of annotations',COUNT_MEASURE(0.));
#17=VALUE_REPRESENTATION_ITEM('number of views',COUNT_MEASURE(0.));
#18=SHAPE_REPRESENTATION_RELATIONSHIP('','',#220,#19);
#19=ADVANCED_BREP_SHAPE_REPRESENTATION('',(#218),#419);
#20=ELLIPSE('',#239,7.,6.);
#21=ELLIPSE('',#240,7.,6.);
#22=ELLIPSE('',#244,7.,6.);
#23=ELLIPSE('',#245,7.,6.);
#24=B_SPLINE_SURFACE_WITH_KNOTS('',3,1,((#350,#351),(#352,#353),(#354,#355),
(#356,#357),(#358,#359),(#360,#361),(#362,#363),(#364,#365),(#366,#367),
(#368,#369),(#370,#371)),.SURF_OF_LINEAR_EXTRUSION.,.T.,.F.,.F.,(1,1,1,
1,1,1,1,1,1,1,1,1,1,1,1),(2,2),(-2.35619449019234,-1.5707963267949,-0.785398163397448,
0.,0.785398163397448,1.5707963267949,2.35619449019234,3.14159265358979,
3.92699081698724,4.71238898038469,5.49778714378214,6.28318530717959,7.06858347057703,
7.85398163397448,8.63937979737193),(0.,1.),.UNSPECIFIED.);
#25=B_SPLINE_SURFACE_WITH_KNOTS('',3,1,((#380,#381),(#382,#383),(#384,#385),
(#386,#387),(#388,#389),(#390,#391),(#392,#393),(#394,#395),(#396,#397),
(#398,#399),(#400,#401)),.SURF_OF_LINEAR_EXTRUSION.,.T.,.F.,.F.,(1,1,1,
1,1,1,1,1,1,1,1,1,1,1,1),(2,2),(-2.35619449019234,-1.5707963267949,-0.785398163397448,
0.,0.785398163397448,1.5707963267949,2.35619449019234,3.14159265358979,
3.92699081698724,4.71238898038469,5.49778714378214,6.28318530717959,7.06858347057703,
7.85398163397448,8.63937979737193),(0.,1.),.UNSPECIFIED.);
#26=CONICAL_SURFACE('',#227,6.35,0.78539816339745);
#27=CONICAL_SURFACE('',#229,6.15,0.785398163397448);
#28=PLANE('',#225);
#29=PLANE('',#231);
#30=PLANE('',#241);
#31=PLANE('',#243);
#32=PLANE('',#246);
#33=PLANE('',#248);
#34=PLANE('',#251);
#35=PLANE('',#254);
#36=ORIENTED_EDGE('',*,*,#70,.F.);
#37=ORIENTED_EDGE('',*,*,#71,.T.);
#38=ORIENTED_EDGE('',*,*,#72,.T.);
#39=ORIENTED_EDGE('',*,*,#71,.F.);
#40=ORIENTED_EDGE('',*,*,#73,.F.);
#41=ORIENTED_EDGE('',*,*,#70,.T.);
#42=ORIENTED_EDGE('',*,*,#74,.F.);
#43=ORIENTED_EDGE('',*,*,#73,.T.);
#44=ORIENTED_EDGE('',*,*,#75,.T.);
#45=ORIENTED_EDGE('',*,*,#76,.T.);
#46=ORIENTED_EDGE('',*,*,#74,.T.);
#47=ORIENTED_EDGE('',*,*,#76,.F.);
#48=ORIENTED_EDGE('',*,*,#77,.T.);
#49=ORIENTED_EDGE('',*,*,#72,.F.);
#50=ORIENTED_EDGE('',*,*,#78,.T.);
#51=ORIENTED_EDGE('',*,*,#75,.F.);
#52=ORIENTED_EDGE('',*,*,#79,.T.);
#53=ORIENTED_EDGE('',*,*,#80,.F.);
#54=ORIENTED_EDGE('',*,*,#81,.T.);
#55=ORIENTED_EDGE('',*,*,#79,.F.);
#56=ORIENTED_EDGE('',*,*,#77,.F.);
#57=ORIENTED_EDGE('',*,*,#80,.T.);
#58=ORIENTED_EDGE('',*,*,#82,.T.);
#59=ORIENTED_EDGE('',*,*,#83,.F.);
#60=ORIENTED_EDGE('',*,*,#84,.T.);
#61=ORIENTED_EDGE('',*,*,#82,.F.);
#62=ORIENTED_EDGE('',*,*,#78,.F.);
#63=ORIENTED_EDGE('',*,*,#83,.T.);
#64=ORIENTED_EDGE('',*,*,#85,.T.);
#65=ORIENTED_EDGE('',*,*,#84,.F.);
#66=ORIENTED_EDGE('',*,*,#85,.F.);
#67=ORIENTED_EDGE('',*,*,#86,.T.);
#68=ORIENTED_EDGE('',*,*,#81,.F.);
#69=ORIENTED_EDGE('',*,*,#86,.F.);
#70=EDGE_CURVE('',#87,#87,#104,.T.);
#71=EDGE_CURVE('',#88,#88,#105,.T.);
#72=EDGE_CURVE('',#89,#89,#106,.T.);
#73=EDGE_CURVE('',#90,#90,#107,.T.);
#74=EDGE_CURVE('',#91,#91,#108,.T.);
#75=EDGE_CURVE('',#92,#92,#109,.T.);
#76=EDGE_CURVE('',#93,#93,#110,.T.);
#77=EDGE_CURVE('',#94,#94,#111,.T.);
#78=EDGE_CURVE('',#95,#95,#112,.T.);
#79=EDGE_CURVE('',#96,#96,#20,.T.);
#80=EDGE_CURVE('',#97,#97,#21,.T.);
#81=EDGE_CURVE('',#98,#98,#113,.T.);
#82=EDGE_CURVE('',#99,#99,#22,.T.);
#83=EDGE_CURVE('',#100,#100,#23,.T.);
#84=EDGE_CURVE('',#101,#101,#114,.T.);
#85=EDGE_CURVE('',#102,#102,#115,.T.);
#86=EDGE_CURVE('',#103,#103,#116,.T.);
#87=VERTEX_POINT('',#326);
#88=VERTEX_POINT('',#328);
#89=VERTEX_POINT('',#331);
#90=VERTEX_POINT('',#334);
#91=VERTEX_POINT('',#337);
#92=VERTEX_POINT('',#340);
#93=VERTEX_POINT('',#342);
#94=VERTEX_POINT('',#346);
#95=VERTEX_POINT('',#349);
#96=VERTEX_POINT('',#373);
#97=VERTEX_POINT('',#375);
#98=VERTEX_POINT('',#378);
#99=VERTEX_POINT('',#403);
#100=VERTEX_POINT('',#405);
#101=VERTEX_POINT('',#408);
#102=VERTEX_POINT('',#412);
#103=VERTEX_POINT('',#416);
#104=CIRCLE('',#223,6.35);
#105=CIRCLE('',#224,6.35);
#106=CIRCLE('',#226,3.75);
#107=CIRCLE('',#228,6.15);
#108=CIRCLE('',#230,6.35);
#109=CIRCLE('',#232,3.75);
#110=CIRCLE('',#233,6.35);
#111=CIRCLE('',#236,3.75);
#112=CIRCLE('',#238,3.75);
#113=CIRCLE('',#242,3.25);
#114=CIRCLE('',#247,3.25);
#115=CIRCLE('',#250,3.25);
#116=CIRCLE('',#253,3.25);
#117=EDGE_LOOP('',(#36));
#118=EDGE_LOOP('',(#37));
#119=EDGE_LOOP('',(#38));
#120=EDGE_LOOP('',(#39));
#121=EDGE_LOOP('',(#40));
#122=EDGE_LOOP('',(#41));
#123=EDGE_LOOP('',(#42));
#124=EDGE_LOOP('',(#43));
#125=EDGE_LOOP('',(#44));
#126=EDGE_LOOP('',(#45));
#127=EDGE_LOOP('',(#46));
#128=EDGE_LOOP('',(#47));
#129=EDGE_LOOP('',(#48));
#130=EDGE_LOOP('',(#49));
#131=EDGE_LOOP('',(#50));
#132=EDGE_LOOP('',(#51));
#133=EDGE_LOOP('',(#52));
#134=EDGE_LOOP('',(#53));
#135=EDGE_LOOP('',(#54));
#136=EDGE_LOOP('',(#55));
#137=EDGE_LOOP('',(#56));
#138=EDGE_LOOP('',(#57));
#139=EDGE_LOOP('',(#58));
#140=EDGE_LOOP('',(#59));
#141=EDGE_LOOP('',(#60));
#142=EDGE_LOOP('',(#61));
#143=EDGE_LOOP('',(#62));
#144=EDGE_LOOP('',(#63));
#145=EDGE_LOOP('',(#64));
#146=EDGE_LOOP('',(#65));
#147=EDGE_LOOP('',(#66));
#148=EDGE_LOOP('',(#67));
#149=EDGE_LOOP('',(#68));
#150=EDGE_LOOP('',(#69));
#151=FACE_BOUND('',#117,.T.);
#152=FACE_BOUND('',#118,.T.);
#153=FACE_BOUND('',#119,.T.);
#154=FACE_BOUND('',#120,.T.);
#155=FACE_BOUND('',#121,.T.);
#156=FACE_BOUND('',#122,.T.);
#157=FACE_BOUND('',#123,.T.);
#158=FACE_BOUND('',#124,.T.);
#159=FACE_BOUND('',#125,.T.);
#160=FACE_BOUND('',#126,.T.);
#161=FACE_BOUND('',#127,.T.);
#162=FACE_BOUND('',#128,.T.);
#163=FACE_BOUND('',#129,.T.);
#164=FACE_BOUND('',#130,.T.);
#165=FACE_BOUND('',#131,.T.);
#166=FACE_BOUND('',#132,.T.);
#167=FACE_BOUND('',#133,.T.);
#168=FACE_BOUND('',#134,.T.);
#169=FACE_BOUND('',#135,.T.);
#170=FACE_BOUND('',#136,.T.);
#171=FACE_BOUND('',#137,.T.);
#172=FACE_BOUND('',#138,.T.);
#173=FACE_BOUND('',#139,.T.);
#174=FACE_BOUND('',#140,.T.);
#175=FACE_BOUND('',#141,.T.);
#176=FACE_BOUND('',#142,.T.);
#177=FACE_BOUND('',#143,.T.);
#178=FACE_BOUND('',#144,.T.);
#179=FACE_BOUND('',#145,.T.);
#180=FACE_BOUND('',#146,.T.);
#181=FACE_BOUND('',#147,.T.);
#182=FACE_BOUND('',#148,.T.);
#183=FACE_BOUND('',#149,.T.);
#184=FACE_BOUND('',#150,.T.);
#185=CYLINDRICAL_SURFACE('',#222,6.35);
#186=CYLINDRICAL_SURFACE('',#234,6.35);
#187=CYLINDRICAL_SURFACE('',#235,3.75);
#188=CYLINDRICAL_SURFACE('',#237,3.75);
#189=CYLINDRICAL_SURFACE('',#249,3.25);
#190=CYLINDRICAL_SURFACE('',#252,3.25);
#191=ADVANCED_FACE('',(#151,#152),#185,.T.);
#192=ADVANCED_FACE('',(#153,#154),#28,.F.);
#193=ADVANCED_FACE('',(#155,#156),#26,.T.);
#194=ADVANCED_FACE('',(#157,#158),#27,.T.);
#195=ADVANCED_FACE('',(#159,#160),#29,.T.);
#196=ADVANCED_FACE('',(#161,#162),#186,.T.);
#197=ADVANCED_FACE('',(#163,#164),#187,.T.);
#198=ADVANCED_FACE('',(#165,#166),#188,.T.);
#199=ADVANCED_FACE('',(#167,#168),#24,.T.);
#200=ADVANCED_FACE('',(#169,#170),#30,.F.);
#201=ADVANCED_FACE('',(#171,#172),#31,.T.);
#202=ADVANCED_FACE('',(#173,#174),#25,.T.);
#203=ADVANCED_FACE('',(#175,#176),#32,.F.);
#204=ADVANCED_FACE('',(#177,#178),#33,.T.);
#205=ADVANCED_FACE('',(#179,#180),#189,.F.);
#206=ADVANCED_FACE('',(#181),#34,.F.);
#207=ADVANCED_FACE('',(#182,#183),#190,.F.);
#208=ADVANCED_FACE('',(#184),#35,.F.);
#209=CLOSED_SHELL('',(#191,#192,#193,#194,#195,#196,#197,#198,#199,#200,
#201,#202,#203,#204,#205,#206,#207,#208));
#210=STYLED_ITEM('',(#211),#218);
#211=PRESENTATION_STYLE_ASSIGNMENT((#212));
#212=SURFACE_STYLE_USAGE(.BOTH.,#213);
#213=SURFACE_SIDE_STYLE('',(#214));
#214=SURFACE_STYLE_FILL_AREA(#215);
#215=FILL_AREA_STYLE('',(#216));
#216=FILL_AREA_STYLE_COLOUR('',#217);
#217=COLOUR_RGB('',0.506983280181885,0.531564235687256,0.550000011920929);
#218=MANIFOLD_SOLID_BREP('',#209);
#219=SHAPE_DEFINITION_REPRESENTATION(#424,#220);
#220=SHAPE_REPRESENTATION('CP3.1;4',(#221),#419);
#221=AXIS2_PLACEMENT_3D('',#323,#255,#256);
#222=AXIS2_PLACEMENT_3D('',#324,#257,#258);
#223=AXIS2_PLACEMENT_3D('',#325,#259,#260);
#224=AXIS2_PLACEMENT_3D('',#327,#261,#262);
#225=AXIS2_PLACEMENT_3D('',#329,#263,#264);
#226=AXIS2_PLACEMENT_3D('',#330,#265,#266);
#227=AXIS2_PLACEMENT_3D('',#332,#267,#268);
#228=AXIS2_PLACEMENT_3D('',#333,#269,#270);
#229=AXIS2_PLACEMENT_3D('',#335,#271,#272);
#230=AXIS2_PLACEMENT_3D('',#336,#273,#274);
#231=AXIS2_PLACEMENT_3D('',#338,#275,#276);
#232=AXIS2_PLACEMENT_3D('',#339,#277,#278);
#233=AXIS2_PLACEMENT_3D('',#341,#279,#280);
#234=AXIS2_PLACEMENT_3D('',#343,#281,#282);
#235=AXIS2_PLACEMENT_3D('',#344,#283,#284);
#236=AXIS2_PLACEMENT_3D('',#345,#285,#286);
#237=AXIS2_PLACEMENT_3D('',#347,#287,#288);
#238=AXIS2_PLACEMENT_3D('',#348,#289,#290);
#239=AXIS2_PLACEMENT_3D('',#372,#291,#292);
#240=AXIS2_PLACEMENT_3D('',#374,#293,#294);
#241=AXIS2_PLACEMENT_3D('',#376,#295,#296);
#242=AXIS2_PLACEMENT_3D('',#377,#297,#298);
#243=AXIS2_PLACEMENT_3D('',#379,#299,#300);
#244=AXIS2_PLACEMENT_3D('',#402,#301,#302);
#245=AXIS2_PLACEMENT_3D('',#404,#303,#304);
#246=AXIS2_PLACEMENT_3D('',#406,#305,#306);
#247=AXIS2_PLACEMENT_3D('',#407,#307,#308);
#248=AXIS2_PLACEMENT_3D('',#409,#309,#310);
#249=AXIS2_PLACEMENT_3D('',#410,#311,#312);
#250=AXIS2_PLACEMENT_3D('',#411,#313,#314);
#251=AXIS2_PLACEMENT_3D('',#413,#315,#316);
#252=AXIS2_PLACEMENT_3D('',#414,#317,#318);
#253=AXIS2_PLACEMENT_3D('',#415,#319,#320);
#254=AXIS2_PLACEMENT_3D('',#417,#321,#322);
#255=DIRECTION('',(0.,0.,1.));
#256=DIRECTION('',(1.,0.,0.));
#257=DIRECTION('',(0.,-1.,0.));
#258=DIRECTION('',(0.,0.,-1.));
#259=DIRECTION('',(0.,1.,0.));
#260=DIRECTION('',(0.,0.,1.));
#261=DIRECTION('',(0.,1.,0.));
#262=DIRECTION('',(1.,0.,0.));
#263=DIRECTION('',(0.,1.,0.));
#264=DIRECTION('',(0.,0.,1.));
#265=DIRECTION('',(0.,1.,0.));
#266=DIRECTION('',(1.,0.,0.));
#267=DIRECTION('',(0.,-1.,0.));
#268=DIRECTION('',(0.,0.,-1.));
#269=DIRECTION('',(0.,1.,0.));
#270=DIRECTION('',(0.,0.,1.));
#271=DIRECTION('',(0.,1.,0.));
#272=DIRECTION('',(0.,0.,1.));
#273=DIRECTION('',(0.,1.,0.));
#274=DIRECTION('',(0.,0.,1.));
#275=DIRECTION('',(0.,1.,0.));
#276=DIRECTION('',(0.,0.,1.));
#277=DIRECTION('',(0.,-1.,0.));
#278=DIRECTION('',(-1.,0.,0.));
#279=DIRECTION('',(0.,1.,0.));
#280=DIRECTION('',(1.,0.,0.));
#281=DIRECTION('',(0.,-1.,0.));
#282=DIRECTION('',(0.,0.,-1.));
#283=DIRECTION('',(0.,1.,0.));
#284=DIRECTION('',(0.,0.,1.));
#285=DIRECTION('',(0.,1.,0.));
#286=DIRECTION('',(1.,0.,0.));
#287=DIRECTION('',(0.,-1.,0.));
#288=DIRECTION('',(0.,0.,-1.));
#289=DIRECTION('',(0.,-1.,0.));
#290=DIRECTION('',(-1.,0.,0.));
#291=DIRECTION('',(0.,1.,0.));
#292=DIRECTION('',(1.,0.,0.));
#293=DIRECTION('',(0.,1.,0.));
#294=DIRECTION('',(1.,0.,0.));
#295=DIRECTION('',(0.,1.,0.));
#296=DIRECTION('',(0.,0.,1.));
#297=DIRECTION('',(0.,1.,0.));
#298=DIRECTION('',(1.,0.,0.));
#299=DIRECTION('',(0.,1.,0.));
#300=DIRECTION('',(0.,0.,1.));
#301=DIRECTION('',(0.,-1.,0.));
#302=DIRECTION('',(-1.,0.,0.));
#303=DIRECTION('',(0.,-1.,0.));
#304=DIRECTION('',(-1.,0.,0.));
#305=DIRECTION('',(0.,-1.,0.));
#306=DIRECTION('',(0.,0.,-1.));
#307=DIRECTION('',(0.,-1.,0.));
#308=DIRECTION('',(-1.,0.,0.));
#309=DIRECTION('',(0.,-1.,0.));
#310=DIRECTION('',(0.,0.,-1.));
#311=DIRECTION('',(0.,1.,0.));
#312=DIRECTION('',(0.,0.,1.));
#313=DIRECTION('',(0.,-1.,0.));
#314=DIRECTION('',(-1.,0.,0.));
#315=DIRECTION('',(0.,-1.,0.));
#316=DIRECTION('',(0.,0.,-1.));
#317=DIRECTION('',(0.,-1.,0.));
#318=DIRECTION('',(0.,0.,-1.));
#319=DIRECTION('',(0.,1.,0.));
#320=DIRECTION('',(1.,0.,0.));
#321=DIRECTION('',(0.,1.,0.));
#322=DIRECTION('',(0.,0.,1.));
#323=CARTESIAN_POINT('',(0.,0.,0.));
#324=CARTESIAN_POINT('',(0.,41.1,0.));
#325=CARTESIAN_POINT('',(0.,13.35,0.));
#326=CARTESIAN_POINT('',(0.,13.35,6.35));
#327=CARTESIAN_POINT('',(0.,0.,0.));
#328=CARTESIAN_POINT('',(6.35,0.,0.));
#329=CARTESIAN_POINT('',(0.,0.,0.));
#330=CARTESIAN_POINT('',(0.,0.,0.));
#331=CARTESIAN_POINT('',(3.75,0.,0.));
#332=CARTESIAN_POINT('',(0.,13.35,0.));
#333=CARTESIAN_POINT('',(0.,13.55,0.));
#334=CARTESIAN_POINT('',(0.,13.55,6.15));
#335=CARTESIAN_POINT('',(0.,13.55,0.));
#336=CARTESIAN_POINT('',(0.,13.75,0.));
#337=CARTESIAN_POINT('',(0.,13.75,6.35));
#338=CARTESIAN_POINT('',(0.,41.1,0.));
#339=CARTESIAN_POINT('',(0.,41.1,0.));
#340=CARTESIAN_POINT('',(-3.75,41.1,0.));
#341=CARTESIAN_POINT('',(0.,41.1,0.));
#342=CARTESIAN_POINT('',(6.35,41.1,0.));
#343=CARTESIAN_POINT('',(0.,41.1,0.));
#344=CARTESIAN_POINT('',(0.,-1.4,0.));
#345=CARTESIAN_POINT('',(0.,-1.4,0.));
#346=CARTESIAN_POINT('',(3.75,-1.4,0.));
#347=CARTESIAN_POINT('',(0.,42.5,0.));
#348=CARTESIAN_POINT('',(0.,42.5,0.));
#349=CARTESIAN_POINT('',(-3.75,42.5,0.));
#350=CARTESIAN_POINT('',(5.48528137423854,-3.4,4.70166974934737));
#351=CARTESIAN_POINT('',(5.48528137423854,-1.4,4.70166974934737));
#352=CARTESIAN_POINT('',(7.75735931288072,-3.4,-5.85469173142172E-15));
#353=CARTESIAN_POINT('',(7.75735931288072,-1.4,-5.85469173142172E-15));
#354=CARTESIAN_POINT('',(5.48528137423857,-3.4,-4.70166974934735));
#355=CARTESIAN_POINT('',(5.48528137423857,-1.4,-4.70166974934735));
#356=CARTESIAN_POINT('',(3.30681662608079E-15,-3.4,-6.64916512532633));
#357=CARTESIAN_POINT('',(3.30681662608079E-15,-1.4,-6.64916512532633));
#358=CARTESIAN_POINT('',(-5.48528137423858,-3.4,-4.70166974934734));
#359=CARTESIAN_POINT('',(-5.48528137423858,-1.4,-4.70166974934734));
#360=CARTESIAN_POINT('',(-7.75735931288071,-3.4,-4.72305571388998E-15));
#361=CARTESIAN_POINT('',(-7.75735931288071,-1.4,-4.72305571388998E-15));
#362=CARTESIAN_POINT('',(-5.48528137423857,-3.4,4.70166974934735));
#363=CARTESIAN_POINT('',(-5.48528137423857,-1.4,4.70166974934735));
#364=CARTESIAN_POINT('',(2.41777084464267E-14,-3.4,6.64916512532632));
#365=CARTESIAN_POINT('',(2.41777084464267E-14,-1.4,6.64916512532632));
#366=CARTESIAN_POINT('',(5.48528137423854,-3.4,4.70166974934737));
#367=CARTESIAN_POINT('',(5.48528137423854,-1.4,4.70166974934737));
#368=CARTESIAN_POINT('',(7.75735931288072,-3.4,-5.85469173142172E-15));
#369=CARTESIAN_POINT('',(7.75735931288072,-1.4,-5.85469173142172E-15));
#370=CARTESIAN_POINT('',(5.48528137423857,-3.4,-4.70166974934735));
#371=CARTESIAN_POINT('',(5.48528137423857,-1.4,-4.70166974934735));
#372=CARTESIAN_POINT('',(0.,-3.4,0.));
#373=CARTESIAN_POINT('',(7.,-3.4,0.));
#374=CARTESIAN_POINT('',(0.,-1.4,0.));
#375=CARTESIAN_POINT('',(7.,-1.4,0.));
#376=CARTESIAN_POINT('',(0.,-3.4,0.));
#377=CARTESIAN_POINT('',(0.,-3.4,0.));
#378=CARTESIAN_POINT('',(3.25,-3.4,0.));
#379=CARTESIAN_POINT('',(0.,-1.4,0.));
#380=CARTESIAN_POINT('',(-5.48528137423854,44.5,4.70166974934737));
#381=CARTESIAN_POINT('',(-5.48528137423854,42.5,4.70166974934737));
#382=CARTESIAN_POINT('',(-7.75735931288072,44.5,-5.85469173142172E-15));
#383=CARTESIAN_POINT('',(-7.75735931288072,42.5,-5.85469173142172E-15));
#384=CARTESIAN_POINT('',(-5.48528137423857,44.5,-4.70166974934735));
#385=CARTESIAN_POINT('',(-5.48528137423857,42.5,-4.70166974934735));
#386=CARTESIAN_POINT('',(-3.30681662608079E-15,44.5,-6.64916512532633));
#387=CARTESIAN_POINT('',(-3.30681662608079E-15,42.5,-6.64916512532633));
#388=CARTESIAN_POINT('',(5.48528137423858,44.5,-4.70166974934734));
#389=CARTESIAN_POINT('',(5.48528137423858,42.5,-4.70166974934734));
#390=CARTESIAN_POINT('',(7.75735931288071,44.5,-4.72305571388998E-15));
#391=CARTESIAN_POINT('',(7.75735931288071,42.5,-4.72305571388998E-15));
#392=CARTESIAN_POINT('',(5.48528137423857,44.5,4.70166974934735));
#393=CARTESIAN_POINT('',(5.48528137423857,42.5,4.70166974934735));
#394=CARTESIAN_POINT('',(-2.41777084464267E-14,44.5,6.64916512532632));
#395=CARTESIAN_POINT('',(-2.41777084464267E-14,42.5,6.64916512532632));
#396=CARTESIAN_POINT('',(-5.48528137423854,44.5,4.70166974934737));
#397=CARTESIAN_POINT('',(-5.48528137423854,42.5,4.70166974934737));
#398=CARTESIAN_POINT('',(-7.75735931288072,44.5,-5.85469173142172E-15));
#399=CARTESIAN_POINT('',(-7.75735931288072,42.5,-5.85469173142172E-15));
#400=CARTESIAN_POINT('',(-5.48528137423857,44.5,-4.70166974934735));
#401=CARTESIAN_POINT('',(-5.48528137423857,42.5,-4.70166974934735));
#402=CARTESIAN_POINT('',(0.,44.5,0.));
#403=CARTESIAN_POINT('',(-7.,44.5,0.));
#404=CARTESIAN_POINT('',(0.,42.5,0.));
#405=CARTESIAN_POINT('',(-7.,42.5,0.));
#406=CARTESIAN_POINT('',(0.,44.5,0.));
#407=CARTESIAN_POINT('',(0.,44.5,0.));
#408=CARTESIAN_POINT('',(-3.25,44.5,0.));
#409=CARTESIAN_POINT('',(0.,42.5,0.));
#410=CARTESIAN_POINT('',(0.,27.5,0.));
#411=CARTESIAN_POINT('',(0.,27.5,0.));
#412=CARTESIAN_POINT('',(-3.25,27.5,0.));
#413=CARTESIAN_POINT('',(0.,27.5,0.));
#414=CARTESIAN_POINT('',(0.,13.6,0.));
#415=CARTESIAN_POINT('',(0.,13.6,0.));
#416=CARTESIAN_POINT('',(3.25,13.6,0.));
#417=CARTESIAN_POINT('',(0.,13.6,0.));
#418=MECHANICAL_DESIGN_GEOMETRIC_PRESENTATION_REPRESENTATION('',(#210),
#419);
#419=(
GEOMETRIC_REPRESENTATION_CONTEXT(3)
GLOBAL_UNCERTAINTY_ASSIGNED_CONTEXT((#420))
GLOBAL_UNIT_ASSIGNED_CONTEXT((#423,#422,#421))
REPRESENTATION_CONTEXT('CP3.1;4','TOP_LEVEL_ASSEMBLY_PART')
);
#420=UNCERTAINTY_MEASURE_WITH_UNIT(LENGTH_MEASURE(0.005),#423,
'DISTANCE_ACCURACY_VALUE','Maximum Tolerance applied to model');
#421=(
NAMED_UNIT(*)
SI_UNIT($,.STERADIAN.)
SOLID_ANGLE_UNIT()
);
#422=(
NAMED_UNIT(*)
PLANE_ANGLE_UNIT()
SI_UNIT($,.RADIAN.)
);
#423=(
LENGTH_UNIT()
NAMED_UNIT(*)
SI_UNIT(.MILLI.,.METRE.)
);
#424=PRODUCT_DEFINITION_SHAPE('','',#425);
#425=PRODUCT_DEFINITION('','',#427,#426);
#426=PRODUCT_DEFINITION_CONTEXT('',#433,'design');
#427=PRODUCT_DEFINITION_FORMATION_WITH_SPECIFIED_SOURCE('','',#429,
 .NOT_KNOWN.);
#428=PRODUCT_RELATED_PRODUCT_CATEGORY('','',(#429));
#429=PRODUCT('CP3.1;4','CP3.1;4','CP3.1;4',(#431));
#430=PRODUCT_CATEGORY('','');
#431=PRODUCT_CONTEXT('',#433,'mechanical');
#432=APPLICATION_PROTOCOL_DEFINITION('international standard',
'automotive_design',2010,#433);
#433=APPLICATION_CONTEXT(
'core data for automotive mechanical design processes');
ENDSEC;
END-ISO-10303-21;
