ISO-10303-21;
HEADER;
/* Generated by software containing ST-Developer
 * from STEP Tools, Inc. (www.steptools.com) 
 */
/* OPTION: strings as raw bytes, not using required /X/ escapes */

FILE_DESCRIPTION(
/* description */ ('Unknown'),
/* implementation_level */ '2;1');

FILE_NAME(
/* name */ 'CP3.3;8',
/* time_stamp */ '2018-10-29T11:19:40-04:00',
/* author */ ('Unknown'),
/* organization */ ('Unknown'),
/* preprocessor_version */ 'ST-DEVELOPER v16.7',
/* originating_system */ 'DEX',
/* authorisation */ $);

FILE_SCHEMA (('AUTOMOTIVE_DESIGN {1 0 10303 214 3 1 1}'));
ENDSEC;

DATA;
#10=PROPERTY_DEFINITION_REPRESENTATION(#14,#12);
#11=PROPERTY_DEFINITION_REPRESENTATION(#15,#13);
#12=REPRESENTATION('',(#16),#591);
#13=REPRESENTATION('',(#17),#591);
#14=PROPERTY_DEFINITION('pmi validation property','',#596);
#15=PROPERTY_DEFINITION('pmi validation property','',#596);
#16=VALUE_REPRESENTATION_ITEM('number of annotations',COUNT_MEASURE(0.));
#17=VALUE_REPRESENTATION_ITEM('number of views',COUNT_MEASURE(0.));
#18=SHAPE_REPRESENTATION_RELATIONSHIP('','',#297,#19);
#19=ADVANCED_BREP_SHAPE_REPRESENTATION('',(#295),#591);
#20=TOROIDAL_SURFACE('',#344,5.45,3.);
#21=TOROIDAL_SURFACE('',#345,5.45,3.);
#22=CONICAL_SURFACE('',#342,12.4,0.785398163397448);
#23=CONICAL_SURFACE('',#343,9.4,0.785398163397448);
#24=ELLIPSE('',#326,9.5,8.5);
#25=ELLIPSE('',#327,9.5,8.5);
#26=ELLIPSE('',#331,9.5,8.5);
#27=ELLIPSE('',#332,9.5,8.5);
#28=B_SPLINE_SURFACE_WITH_KNOTS('',3,1,((#486,#487),(#488,#489),(#490,#491),
(#492,#493),(#494,#495),(#496,#497),(#498,#499),(#500,#501),(#502,#503),
(#504,#505),(#506,#507),(#508,#509),(#510,#511),(#512,#513),(#514,#515),
(#516,#517),(#518,#519),(#520,#521),(#522,#523)),
 .SURF_OF_LINEAR_EXTRUSION.,.T.,.F.,.F.,(1,1,1,1,1,1,1,1,1,1,1,1,1,1,1,
1,1,1,1,1,1,1,1),(2,2),(-1.17809724509617,-0.785398163397448,-0.392699081698725,
0.,0.392699081698724,0.785398163397448,1.17809724509617,1.5707963267949,
1.96349540849362,2.35619449019234,2.74889357189107,3.14159265358979,3.53429173528852,
3.92699081698724,4.31968989868597,4.71238898038469,5.10508806208341,5.49778714378214,
5.89048622548086,6.28318530717959,6.67588438887831,7.06858347057703,7.46128255227576),
(0.,1.),.UNSPECIFIED.);
#29=B_SPLINE_SURFACE_WITH_KNOTS('',3,1,((#532,#533),(#534,#535),(#536,#537),
(#538,#539),(#540,#541),(#542,#543),(#544,#545),(#546,#547),(#548,#549),
(#550,#551),(#552,#553),(#554,#555),(#556,#557),(#558,#559),(#560,#561),
(#562,#563),(#564,#565),(#566,#567),(#568,#569)),
 .SURF_OF_LINEAR_EXTRUSION.,.T.,.F.,.F.,(1,1,1,1,1,1,1,1,1,1,1,1,1,1,1,
1,1,1,1,1,1,1,1),(2,2),(-1.17809724509617,-0.785398163397448,-0.392699081698725,
0.,0.392699081698724,0.785398163397448,1.17809724509617,1.5707963267949,
1.96349540849362,2.35619449019234,2.74889357189107,3.14159265358979,3.53429173528852,
3.92699081698724,4.31968989868597,4.71238898038469,5.10508806208341,5.49778714378214,
5.89048622548086,6.28318530717959,6.67588438887831,7.06858347057703,7.46128255227576),
(0.,1.),.UNSPECIFIED.);
#30=PLANE('',#302);
#31=PLANE('',#305);
#32=PLANE('',#315);
#33=PLANE('',#320);
#34=PLANE('',#328);
#35=PLANE('',#330);
#36=PLANE('',#333);
#37=PLANE('',#335);
#38=PLANE('',#338);
#39=PLANE('',#341);
#40=ORIENTED_EDGE('',*,*,#88,.T.);
#41=ORIENTED_EDGE('',*,*,#89,.T.);
#42=ORIENTED_EDGE('',*,*,#90,.T.);
#43=ORIENTED_EDGE('',*,*,#91,.T.);
#44=ORIENTED_EDGE('',*,*,#92,.T.);
#45=ORIENTED_EDGE('',*,*,#93,.T.);
#46=ORIENTED_EDGE('',*,*,#94,.T.);
#47=ORIENTED_EDGE('',*,*,#91,.F.);
#48=ORIENTED_EDGE('',*,*,#95,.T.);
#49=ORIENTED_EDGE('',*,*,#93,.F.);
#50=ORIENTED_EDGE('',*,*,#96,.T.);
#51=ORIENTED_EDGE('',*,*,#97,.F.);
#52=ORIENTED_EDGE('',*,*,#98,.T.);
#53=ORIENTED_EDGE('',*,*,#96,.F.);
#54=ORIENTED_EDGE('',*,*,#99,.T.);
#55=ORIENTED_EDGE('',*,*,#100,.F.);
#56=ORIENTED_EDGE('',*,*,#101,.T.);
#57=ORIENTED_EDGE('',*,*,#99,.F.);
#58=ORIENTED_EDGE('',*,*,#102,.T.);
#59=ORIENTED_EDGE('',*,*,#101,.F.);
#60=ORIENTED_EDGE('',*,*,#103,.T.);
#61=ORIENTED_EDGE('',*,*,#98,.F.);
#62=ORIENTED_EDGE('',*,*,#104,.T.);
#63=ORIENTED_EDGE('',*,*,#105,.F.);
#64=ORIENTED_EDGE('',*,*,#106,.T.);
#65=ORIENTED_EDGE('',*,*,#104,.F.);
#66=ORIENTED_EDGE('',*,*,#103,.F.);
#67=ORIENTED_EDGE('',*,*,#105,.T.);
#68=ORIENTED_EDGE('',*,*,#107,.T.);
#69=ORIENTED_EDGE('',*,*,#108,.F.);
#70=ORIENTED_EDGE('',*,*,#109,.T.);
#71=ORIENTED_EDGE('',*,*,#107,.F.);
#72=ORIENTED_EDGE('',*,*,#102,.F.);
#73=ORIENTED_EDGE('',*,*,#108,.T.);
#74=ORIENTED_EDGE('',*,*,#110,.T.);
#75=ORIENTED_EDGE('',*,*,#109,.F.);
#76=ORIENTED_EDGE('',*,*,#110,.F.);
#77=ORIENTED_EDGE('',*,*,#111,.T.);
#78=ORIENTED_EDGE('',*,*,#106,.F.);
#79=ORIENTED_EDGE('',*,*,#111,.F.);
#80=ORIENTED_EDGE('',*,*,#90,.F.);
#81=ORIENTED_EDGE('',*,*,#89,.F.);
#82=ORIENTED_EDGE('',*,*,#88,.F.);
#83=ORIENTED_EDGE('',*,*,#92,.F.);
#84=ORIENTED_EDGE('',*,*,#97,.T.);
#85=ORIENTED_EDGE('',*,*,#95,.F.);
#86=ORIENTED_EDGE('',*,*,#100,.T.);
#87=ORIENTED_EDGE('',*,*,#94,.F.);
#88=EDGE_CURVE('',#112,#112,#136,.F.);
#89=EDGE_CURVE('',#113,#113,#137,.T.);
#90=EDGE_CURVE('',#114,#114,#138,.F.);
#91=EDGE_CURVE('',#115,#115,#139,.T.);
#92=EDGE_CURVE('',#116,#116,#140,.T.);
#93=EDGE_CURVE('',#117,#117,#141,.T.);
#94=EDGE_CURVE('',#118,#118,#142,.F.);
#95=EDGE_CURVE('',#119,#119,#143,.F.);
#96=EDGE_CURVE('',#120,#120,#144,.T.);
#97=EDGE_CURVE('',#121,#121,#145,.T.);
#98=EDGE_CURVE('',#122,#122,#146,.T.);
#99=EDGE_CURVE('',#123,#123,#147,.T.);
#100=EDGE_CURVE('',#124,#124,#148,.T.);
#101=EDGE_CURVE('',#125,#125,#149,.T.);
#102=EDGE_CURVE('',#126,#126,#150,.T.);
#103=EDGE_CURVE('',#127,#127,#151,.T.);
#104=EDGE_CURVE('',#128,#128,#24,.T.);
#105=EDGE_CURVE('',#129,#129,#25,.T.);
#106=EDGE_CURVE('',#130,#130,#152,.T.);
#107=EDGE_CURVE('',#131,#131,#26,.T.);
#108=EDGE_CURVE('',#132,#132,#27,.T.);
#109=EDGE_CURVE('',#133,#133,#153,.T.);
#110=EDGE_CURVE('',#134,#134,#154,.T.);
#111=EDGE_CURVE('',#135,#135,#155,.T.);
#112=VERTEX_POINT('',#445);
#113=VERTEX_POINT('',#447);
#114=VERTEX_POINT('',#450);
#115=VERTEX_POINT('',#452);
#116=VERTEX_POINT('',#455);
#117=VERTEX_POINT('',#457);
#118=VERTEX_POINT('',#460);
#119=VERTEX_POINT('',#463);
#120=VERTEX_POINT('',#466);
#121=VERTEX_POINT('',#468);
#122=VERTEX_POINT('',#471);
#123=VERTEX_POINT('',#474);
#124=VERTEX_POINT('',#476);
#125=VERTEX_POINT('',#479);
#126=VERTEX_POINT('',#482);
#127=VERTEX_POINT('',#485);
#128=VERTEX_POINT('',#525);
#129=VERTEX_POINT('',#527);
#130=VERTEX_POINT('',#530);
#131=VERTEX_POINT('',#571);
#132=VERTEX_POINT('',#573);
#133=VERTEX_POINT('',#576);
#134=VERTEX_POINT('',#580);
#135=VERTEX_POINT('',#584);
#136=CIRCLE('',#300,12.4);
#137=CIRCLE('',#301,12.4);
#138=CIRCLE('',#303,9.4);
#139=CIRCLE('',#304,8.45);
#140=CIRCLE('',#306,9.4);
#141=CIRCLE('',#307,8.45);
#142=CIRCLE('',#309,8.45);
#143=CIRCLE('',#311,8.45);
#144=CIRCLE('',#313,7.15);
#145=CIRCLE('',#314,7.15);
#146=CIRCLE('',#316,5.3);
#147=CIRCLE('',#318,7.15);
#148=CIRCLE('',#319,7.15);
#149=CIRCLE('',#321,5.3);
#150=CIRCLE('',#323,5.3);
#151=CIRCLE('',#325,5.3);
#152=CIRCLE('',#329,4.8);
#153=CIRCLE('',#334,4.8);
#154=CIRCLE('',#337,4.8);
#155=CIRCLE('',#340,4.8);
#156=EDGE_LOOP('',(#40));
#157=EDGE_LOOP('',(#41));
#158=EDGE_LOOP('',(#42));
#159=EDGE_LOOP('',(#43));
#160=EDGE_LOOP('',(#44));
#161=EDGE_LOOP('',(#45));
#162=EDGE_LOOP('',(#46));
#163=EDGE_LOOP('',(#47));
#164=EDGE_LOOP('',(#48));
#165=EDGE_LOOP('',(#49));
#166=EDGE_LOOP('',(#50));
#167=EDGE_LOOP('',(#51));
#168=EDGE_LOOP('',(#52));
#169=EDGE_LOOP('',(#53));
#170=EDGE_LOOP('',(#54));
#171=EDGE_LOOP('',(#55));
#172=EDGE_LOOP('',(#56));
#173=EDGE_LOOP('',(#57));
#174=EDGE_LOOP('',(#58));
#175=EDGE_LOOP('',(#59));
#176=EDGE_LOOP('',(#60));
#177=EDGE_LOOP('',(#61));
#178=EDGE_LOOP('',(#62));
#179=EDGE_LOOP('',(#63));
#180=EDGE_LOOP('',(#64));
#181=EDGE_LOOP('',(#65));
#182=EDGE_LOOP('',(#66));
#183=EDGE_LOOP('',(#67));
#184=EDGE_LOOP('',(#68));
#185=EDGE_LOOP('',(#69));
#186=EDGE_LOOP('',(#70));
#187=EDGE_LOOP('',(#71));
#188=EDGE_LOOP('',(#72));
#189=EDGE_LOOP('',(#73));
#190=EDGE_LOOP('',(#74));
#191=EDGE_LOOP('',(#75));
#192=EDGE_LOOP('',(#76));
#193=EDGE_LOOP('',(#77));
#194=EDGE_LOOP('',(#78));
#195=EDGE_LOOP('',(#79));
#196=EDGE_LOOP('',(#80));
#197=EDGE_LOOP('',(#81));
#198=EDGE_LOOP('',(#82));
#199=EDGE_LOOP('',(#83));
#200=EDGE_LOOP('',(#84));
#201=EDGE_LOOP('',(#85));
#202=EDGE_LOOP('',(#86));
#203=EDGE_LOOP('',(#87));
#204=FACE_BOUND('',#156,.T.);
#205=FACE_BOUND('',#157,.T.);
#206=FACE_BOUND('',#158,.T.);
#207=FACE_BOUND('',#159,.T.);
#208=FACE_BOUND('',#160,.T.);
#209=FACE_BOUND('',#161,.T.);
#210=FACE_BOUND('',#162,.T.);
#211=FACE_BOUND('',#163,.T.);
#212=FACE_BOUND('',#164,.T.);
#213=FACE_BOUND('',#165,.T.);
#214=FACE_BOUND('',#166,.T.);
#215=FACE_BOUND('',#167,.T.);
#216=FACE_BOUND('',#168,.T.);
#217=FACE_BOUND('',#169,.T.);
#218=FACE_BOUND('',#170,.T.);
#219=FACE_BOUND('',#171,.T.);
#220=FACE_BOUND('',#172,.T.);
#221=FACE_BOUND('',#173,.T.);
#222=FACE_BOUND('',#174,.T.);
#223=FACE_BOUND('',#175,.T.);
#224=FACE_BOUND('',#176,.T.);
#225=FACE_BOUND('',#177,.T.);
#226=FACE_BOUND('',#178,.T.);
#227=FACE_BOUND('',#179,.T.);
#228=FACE_BOUND('',#180,.T.);
#229=FACE_BOUND('',#181,.T.);
#230=FACE_BOUND('',#182,.T.);
#231=FACE_BOUND('',#183,.T.);
#232=FACE_BOUND('',#184,.T.);
#233=FACE_BOUND('',#185,.T.);
#234=FACE_BOUND('',#186,.T.);
#235=FACE_BOUND('',#187,.T.);
#236=FACE_BOUND('',#188,.T.);
#237=FACE_BOUND('',#189,.T.);
#238=FACE_BOUND('',#190,.T.);
#239=FACE_BOUND('',#191,.T.);
#240=FACE_BOUND('',#192,.T.);
#241=FACE_BOUND('',#193,.T.);
#242=FACE_BOUND('',#194,.T.);
#243=FACE_BOUND('',#195,.T.);
#244=FACE_BOUND('',#196,.T.);
#245=FACE_BOUND('',#197,.T.);
#246=FACE_BOUND('',#198,.T.);
#247=FACE_BOUND('',#199,.T.);
#248=FACE_BOUND('',#200,.T.);
#249=FACE_BOUND('',#201,.T.);
#250=FACE_BOUND('',#202,.T.);
#251=FACE_BOUND('',#203,.T.);
#252=CYLINDRICAL_SURFACE('',#299,12.4);
#253=CYLINDRICAL_SURFACE('',#308,8.45);
#254=CYLINDRICAL_SURFACE('',#310,8.45);
#255=CYLINDRICAL_SURFACE('',#312,7.15);
#256=CYLINDRICAL_SURFACE('',#317,7.15);
#257=CYLINDRICAL_SURFACE('',#322,5.3);
#258=CYLINDRICAL_SURFACE('',#324,5.3);
#259=CYLINDRICAL_SURFACE('',#336,4.8);
#260=CYLINDRICAL_SURFACE('',#339,4.8);
#261=ADVANCED_FACE('',(#204,#205),#252,.T.);
#262=ADVANCED_FACE('',(#206,#207),#30,.F.);
#263=ADVANCED_FACE('',(#208,#209),#31,.T.);
#264=ADVANCED_FACE('',(#210,#211),#253,.T.);
#265=ADVANCED_FACE('',(#212,#213),#254,.T.);
#266=ADVANCED_FACE('',(#214,#215),#255,.T.);
#267=ADVANCED_FACE('',(#216,#217),#32,.F.);
#268=ADVANCED_FACE('',(#218,#219),#256,.T.);
#269=ADVANCED_FACE('',(#220,#221),#33,.F.);
#270=ADVANCED_FACE('',(#222,#223),#257,.T.);
#271=ADVANCED_FACE('',(#224,#225),#258,.T.);
#272=ADVANCED_FACE('',(#226,#227),#28,.T.);
#273=ADVANCED_FACE('',(#228,#229),#34,.F.);
#274=ADVANCED_FACE('',(#230,#231),#35,.T.);
#275=ADVANCED_FACE('',(#232,#233),#29,.T.);
#276=ADVANCED_FACE('',(#234,#235),#36,.F.);
#277=ADVANCED_FACE('',(#236,#237),#37,.T.);
#278=ADVANCED_FACE('',(#238,#239),#259,.F.);
#279=ADVANCED_FACE('',(#240),#38,.F.);
#280=ADVANCED_FACE('',(#241,#242),#260,.F.);
#281=ADVANCED_FACE('',(#243),#39,.F.);
#282=ADVANCED_FACE('',(#244,#245),#22,.T.);
#283=ADVANCED_FACE('',(#246,#247),#23,.T.);
#284=ADVANCED_FACE('',(#248,#249),#20,.T.);
#285=ADVANCED_FACE('',(#250,#251),#21,.T.);
#286=CLOSED_SHELL('',(#261,#262,#263,#264,#265,#266,#267,#268,#269,#270,
#271,#272,#273,#274,#275,#276,#277,#278,#279,#280,#281,#282,#283,#284,#285));
#287=STYLED_ITEM('',(#288),#295);
#288=PRESENTATION_STYLE_ASSIGNMENT((#289));
#289=SURFACE_STYLE_USAGE(.BOTH.,#290);
#290=SURFACE_SIDE_STYLE('',(#291));
#291=SURFACE_STYLE_FILL_AREA(#292);
#292=FILL_AREA_STYLE('',(#293));
#293=FILL_AREA_STYLE_COLOUR('',#294);
#294=COLOUR_RGB('',0.506983280181885,0.531564235687256,0.550000011920929);
#295=MANIFOLD_SOLID_BREP('',#286);
#296=SHAPE_DEFINITION_REPRESENTATION(#596,#297);
#297=SHAPE_REPRESENTATION('CP3.3;8',(#298),#591);
#298=AXIS2_PLACEMENT_3D('',#442,#346,#347);
#299=AXIS2_PLACEMENT_3D('',#443,#348,#349);
#300=AXIS2_PLACEMENT_3D('',#444,#350,#351);
#301=AXIS2_PLACEMENT_3D('',#446,#352,#353);
#302=AXIS2_PLACEMENT_3D('',#448,#354,#355);
#303=AXIS2_PLACEMENT_3D('',#449,#356,#357);
#304=AXIS2_PLACEMENT_3D('',#451,#358,#359);
#305=AXIS2_PLACEMENT_3D('',#453,#360,#361);
#306=AXIS2_PLACEMENT_3D('',#454,#362,#363);
#307=AXIS2_PLACEMENT_3D('',#456,#364,#365);
#308=AXIS2_PLACEMENT_3D('',#458,#366,#367);
#309=AXIS2_PLACEMENT_3D('',#459,#368,#369);
#310=AXIS2_PLACEMENT_3D('',#461,#370,#371);
#311=AXIS2_PLACEMENT_3D('',#462,#372,#373);
#312=AXIS2_PLACEMENT_3D('',#464,#374,#375);
#313=AXIS2_PLACEMENT_3D('',#465,#376,#377);
#314=AXIS2_PLACEMENT_3D('',#467,#378,#379);
#315=AXIS2_PLACEMENT_3D('',#469,#380,#381);
#316=AXIS2_PLACEMENT_3D('',#470,#382,#383);
#317=AXIS2_PLACEMENT_3D('',#472,#384,#385);
#318=AXIS2_PLACEMENT_3D('',#473,#386,#387);
#319=AXIS2_PLACEMENT_3D('',#475,#388,#389);
#320=AXIS2_PLACEMENT_3D('',#477,#390,#391);
#321=AXIS2_PLACEMENT_3D('',#478,#392,#393);
#322=AXIS2_PLACEMENT_3D('',#480,#394,#395);
#323=AXIS2_PLACEMENT_3D('',#481,#396,#397);
#324=AXIS2_PLACEMENT_3D('',#483,#398,#399);
#325=AXIS2_PLACEMENT_3D('',#484,#400,#401);
#326=AXIS2_PLACEMENT_3D('',#524,#402,#403);
#327=AXIS2_PLACEMENT_3D('',#526,#404,#405);
#328=AXIS2_PLACEMENT_3D('',#528,#406,#407);
#329=AXIS2_PLACEMENT_3D('',#529,#408,#409);
#330=AXIS2_PLACEMENT_3D('',#531,#410,#411);
#331=AXIS2_PLACEMENT_3D('',#570,#412,#413);
#332=AXIS2_PLACEMENT_3D('',#572,#414,#415);
#333=AXIS2_PLACEMENT_3D('',#574,#416,#417);
#334=AXIS2_PLACEMENT_3D('',#575,#418,#419);
#335=AXIS2_PLACEMENT_3D('',#577,#420,#421);
#336=AXIS2_PLACEMENT_3D('',#578,#422,#423);
#337=AXIS2_PLACEMENT_3D('',#579,#424,#425);
#338=AXIS2_PLACEMENT_3D('',#581,#426,#427);
#339=AXIS2_PLACEMENT_3D('',#582,#428,#429);
#340=AXIS2_PLACEMENT_3D('',#583,#430,#431);
#341=AXIS2_PLACEMENT_3D('',#585,#432,#433);
#342=AXIS2_PLACEMENT_3D('',#586,#434,#435);
#343=AXIS2_PLACEMENT_3D('',#587,#436,#437);
#344=AXIS2_PLACEMENT_3D('',#588,#438,#439);
#345=AXIS2_PLACEMENT_3D('',#589,#440,#441);
#346=DIRECTION('',(0.,0.,1.));
#347=DIRECTION('',(1.,0.,0.));
#348=DIRECTION('',(-1.,0.,0.));
#349=DIRECTION('',(0.,0.,1.));
#350=DIRECTION('',(-1.,0.,0.));
#351=DIRECTION('',(0.,0.,1.));
#352=DIRECTION('',(-1.,0.,0.));
#353=DIRECTION('',(0.,0.,1.));
#354=DIRECTION('',(-1.,6.12303176911189E-17,0.));
#355=DIRECTION('',(-6.12303176911189E-17,-1.,0.));
#356=DIRECTION('',(-1.,6.12303176911189E-17,0.));
#357=DIRECTION('',(-6.12303176911189E-17,-1.,0.));
#358=DIRECTION('',(-1.,0.,0.));
#359=DIRECTION('',(0.,1.,0.));
#360=DIRECTION('',(-1.,6.12303176911189E-17,0.));
#361=DIRECTION('',(-6.12303176911189E-17,-1.,0.));
#362=DIRECTION('',(-1.,6.12303176911189E-17,0.));
#363=DIRECTION('',(-6.12303176911189E-17,-1.,0.));
#364=DIRECTION('',(1.,-2.79794109028517E-16,0.));
#365=DIRECTION('',(-2.79794109028517E-16,-1.,0.));
#366=DIRECTION('',(-1.,6.12303176911189E-17,0.));
#367=DIRECTION('',(-6.12303176911189E-17,-1.,0.));
#368=DIRECTION('',(1.,0.,0.));
#369=DIRECTION('',(0.,0.,-1.));
#370=DIRECTION('',(1.,-6.12303176911189E-17,0.));
#371=DIRECTION('',(6.12303176911189E-17,1.,0.));
#372=DIRECTION('',(-1.,2.79794109028517E-16,0.));
#373=DIRECTION('',(-2.79794109028517E-16,-1.,0.));
#374=DIRECTION('',(1.,-2.79794109028517E-16,0.));
#375=DIRECTION('',(2.79794109028517E-16,1.,0.));
#376=DIRECTION('',(1.,0.,0.));
#377=DIRECTION('',(0.,-1.,0.));
#378=DIRECTION('',(1.,0.,0.));
#379=DIRECTION('',(0.,-1.,0.));
#380=DIRECTION('',(1.,0.,0.));
#381=DIRECTION('',(0.,0.,-1.));
#382=DIRECTION('',(1.,0.,0.));
#383=DIRECTION('',(0.,-1.,0.));
#384=DIRECTION('',(-1.,0.,0.));
#385=DIRECTION('',(0.,0.,1.));
#386=DIRECTION('',(-1.,0.,0.));
#387=DIRECTION('',(0.,1.,0.));
#388=DIRECTION('',(-1.,0.,0.));
#389=DIRECTION('',(0.,1.,0.));
#390=DIRECTION('',(-1.,0.,0.));
#391=DIRECTION('',(0.,0.,1.));
#392=DIRECTION('',(-1.,0.,0.));
#393=DIRECTION('',(0.,1.,0.));
#394=DIRECTION('',(-1.,0.,0.));
#395=DIRECTION('',(0.,0.,1.));
#396=DIRECTION('',(-1.,0.,0.));
#397=DIRECTION('',(0.,1.,0.));
#398=DIRECTION('',(1.,0.,0.));
#399=DIRECTION('',(0.,0.,-1.));
#400=DIRECTION('',(1.,0.,0.));
#401=DIRECTION('',(0.,-1.,0.));
#402=DIRECTION('',(1.,0.,0.));
#403=DIRECTION('',(0.,-1.,0.));
#404=DIRECTION('',(1.,0.,0.));
#405=DIRECTION('',(0.,-1.,0.));
#406=DIRECTION('',(1.,0.,0.));
#407=DIRECTION('',(0.,0.,-1.));
#408=DIRECTION('',(1.,0.,0.));
#409=DIRECTION('',(0.,-1.,0.));
#410=DIRECTION('',(1.,0.,0.));
#411=DIRECTION('',(0.,0.,-1.));
#412=DIRECTION('',(-1.,0.,0.));
#413=DIRECTION('',(0.,1.,0.));
#414=DIRECTION('',(-1.,0.,0.));
#415=DIRECTION('',(0.,1.,0.));
#416=DIRECTION('',(-1.,0.,0.));
#417=DIRECTION('',(0.,0.,1.));
#418=DIRECTION('',(-1.,0.,0.));
#419=DIRECTION('',(0.,1.,0.));
#420=DIRECTION('',(-1.,0.,0.));
#421=DIRECTION('',(0.,0.,1.));
#422=DIRECTION('',(1.,0.,0.));
#423=DIRECTION('',(0.,0.,-1.));
#424=DIRECTION('',(-1.,0.,0.));
#425=DIRECTION('',(0.,1.,0.));
#426=DIRECTION('',(-1.,0.,0.));
#427=DIRECTION('',(0.,0.,1.));
#428=DIRECTION('',(-1.,0.,0.));
#429=DIRECTION('',(0.,0.,1.));
#430=DIRECTION('',(1.,0.,0.));
#431=DIRECTION('',(0.,-1.,0.));
#432=DIRECTION('',(1.,0.,0.));
#433=DIRECTION('',(0.,0.,-1.));
#434=DIRECTION('',(-1.,0.,0.));
#435=DIRECTION('',(0.,0.,1.));
#436=DIRECTION('',(1.,0.,0.));
#437=DIRECTION('',(0.,0.,-1.));
#438=DIRECTION('',(-1.,2.79794109028517E-16,0.));
#439=DIRECTION('',(-2.79794109028517E-16,-1.,0.));
#440=DIRECTION('',(1.,0.,0.));
#441=DIRECTION('',(0.,0.,-1.));
#442=CARTESIAN_POINT('',(0.,0.,0.));
#443=CARTESIAN_POINT('',(29.3,0.,0.));
#444=CARTESIAN_POINT('',(-26.3,0.,0.));
#445=CARTESIAN_POINT('',(-26.3,0.,12.4));
#446=CARTESIAN_POINT('',(26.3,0.,0.));
#447=CARTESIAN_POINT('',(26.3,0.,12.4));
#448=CARTESIAN_POINT('',(29.3,0.,0.));
#449=CARTESIAN_POINT('',(29.3,0.,0.));
#450=CARTESIAN_POINT('',(29.3,-9.4,0.));
#451=CARTESIAN_POINT('',(29.3,2.12435339080604E-31,0.));
#452=CARTESIAN_POINT('',(29.3,8.45,0.));
#453=CARTESIAN_POINT('',(-29.3,0.,0.));
#454=CARTESIAN_POINT('',(-29.3,0.,0.));
#455=CARTESIAN_POINT('',(-29.3,-9.4,0.));
#456=CARTESIAN_POINT('',(-29.3,0.,0.));
#457=CARTESIAN_POINT('',(-29.3,-8.45,0.));
#458=CARTESIAN_POINT('',(32.1,-1.71444889535133E-16,0.));
#459=CARTESIAN_POINT('',(29.6281585811383,-2.00932541761674E-17,0.));
#460=CARTESIAN_POINT('',(29.6281585811383,-2.00932541761674E-17,-8.45));
#461=CARTESIAN_POINT('',(-32.1,1.71444889535133E-16,0.));
#462=CARTESIAN_POINT('',(-29.6281585811383,2.00932541761677E-17,0.));
#463=CARTESIAN_POINT('',(-29.6281585811383,-8.45,0.));
#464=CARTESIAN_POINT('',(-34.5,1.45492936694829E-15,0.));
#465=CARTESIAN_POINT('',(-34.5,1.45492936694829E-15,0.));
#466=CARTESIAN_POINT('',(-34.5,-7.15,0.));
#467=CARTESIAN_POINT('',(-32.1,7.83423505279848E-16,0.));
#468=CARTESIAN_POINT('',(-32.1,-7.15,0.));
#469=CARTESIAN_POINT('',(-34.5,1.45492936694829E-15,0.));
#470=CARTESIAN_POINT('',(-34.5,0.,0.));
#471=CARTESIAN_POINT('',(-34.5,-5.3,0.));
#472=CARTESIAN_POINT('',(34.5,0.,0.));
#473=CARTESIAN_POINT('',(34.5,0.,0.));
#474=CARTESIAN_POINT('',(34.5,7.15,0.));
#475=CARTESIAN_POINT('',(32.1,0.,0.));
#476=CARTESIAN_POINT('',(32.1,7.15,0.));
#477=CARTESIAN_POINT('',(34.5,0.,0.));
#478=CARTESIAN_POINT('',(34.5,2.12435339080604E-31,0.));
#479=CARTESIAN_POINT('',(34.5,5.3,0.));
#480=CARTESIAN_POINT('',(35.7,2.12435339080604E-31,0.));
#481=CARTESIAN_POINT('',(35.7,2.12435339080604E-31,0.));
#482=CARTESIAN_POINT('',(35.7,5.3,0.));
#483=CARTESIAN_POINT('',(-35.7,0.,0.));
#484=CARTESIAN_POINT('',(-35.7,0.,0.));
#485=CARTESIAN_POINT('',(-35.7,-5.3,0.));
#486=CARTESIAN_POINT('',(-37.7,-9.00535278002944,3.33749301802746));
#487=CARTESIAN_POINT('',(-35.7,-9.00535278002944,3.33749301802746));
#488=CARTESIAN_POINT('',(-37.7,-9.74732360998528,-7.58941520739853E-16));
#489=CARTESIAN_POINT('',(-35.7,-9.74732360998528,-7.58941520739853E-16));
#490=CARTESIAN_POINT('',(-37.7,-9.00535278002944,-3.33749301802745));
#491=CARTESIAN_POINT('',(-35.7,-9.00535278002944,-3.33749301802745));
#492=CARTESIAN_POINT('',(-37.7,-6.89239862304034,-6.16688297850977));
#493=CARTESIAN_POINT('',(-35.7,-6.89239862304034,-6.16688297850977));
#494=CARTESIAN_POINT('',(-37.7,-3.73013925544244,-8.05742090844739));
#495=CARTESIAN_POINT('',(-35.7,-3.73013925544244,-8.05742090844739));
#496=CARTESIAN_POINT('',(-37.7,-3.11030498231779E-15,-8.72128954577631));
#497=CARTESIAN_POINT('',(-35.7,-3.11030498231779E-15,-8.72128954577631));
#498=CARTESIAN_POINT('',(-37.7,3.73013925544245,-8.05742090844739));
#499=CARTESIAN_POINT('',(-35.7,3.73013925544245,-8.05742090844739));
#500=CARTESIAN_POINT('',(-37.7,6.89239862304034,-6.16688297850976));
#501=CARTESIAN_POINT('',(-35.7,6.89239862304034,-6.16688297850976));
#502=CARTESIAN_POINT('',(-37.7,9.00535278002942,-3.33749301802747));
#503=CARTESIAN_POINT('',(-35.7,9.00535278002942,-3.33749301802747));
#504=CARTESIAN_POINT('',(-37.7,9.74732360998528,9.64622957901369E-15));
#505=CARTESIAN_POINT('',(-35.7,9.74732360998528,9.64622957901369E-15));
#506=CARTESIAN_POINT('',(-37.7,9.00535278002945,3.33749301802743));
#507=CARTESIAN_POINT('',(-35.7,9.00535278002945,3.33749301802743));
#508=CARTESIAN_POINT('',(-37.7,6.89239862304032,6.16688297850979));
#509=CARTESIAN_POINT('',(-35.7,6.89239862304032,6.16688297850979));
#510=CARTESIAN_POINT('',(-37.7,3.73013925544248,8.05742090844738));
#511=CARTESIAN_POINT('',(-35.7,3.73013925544248,8.05742090844738));
#512=CARTESIAN_POINT('',(-37.7,-3.69103077095534E-14,8.72128954577631));
#513=CARTESIAN_POINT('',(-35.7,-3.69103077095534E-14,8.72128954577631));
#514=CARTESIAN_POINT('',(-37.7,-3.73013925544242,8.05742090844739));
#515=CARTESIAN_POINT('',(-35.7,-3.73013925544242,8.05742090844739));
#516=CARTESIAN_POINT('',(-37.7,-6.89239862304031,6.1668829785098));
#517=CARTESIAN_POINT('',(-35.7,-6.89239862304031,6.1668829785098));
#518=CARTESIAN_POINT('',(-37.7,-9.00535278002944,3.33749301802746));
#519=CARTESIAN_POINT('',(-35.7,-9.00535278002944,3.33749301802746));
#520=CARTESIAN_POINT('',(-37.7,-9.74732360998528,-7.58941520739853E-16));
#521=CARTESIAN_POINT('',(-35.7,-9.74732360998528,-7.58941520739853E-16));
#522=CARTESIAN_POINT('',(-37.7,-9.00535278002944,-3.33749301802745));
#523=CARTESIAN_POINT('',(-35.7,-9.00535278002944,-3.33749301802745));
#524=CARTESIAN_POINT('',(-37.7,0.,0.));
#525=CARTESIAN_POINT('',(-37.7,-9.5,0.));
#526=CARTESIAN_POINT('',(-35.7,0.,0.));
#527=CARTESIAN_POINT('',(-35.7,-9.5,0.));
#528=CARTESIAN_POINT('',(-37.7,0.,0.));
#529=CARTESIAN_POINT('',(-37.7,0.,0.));
#530=CARTESIAN_POINT('',(-37.7,-4.8,0.));
#531=CARTESIAN_POINT('',(-35.7,0.,0.));
#532=CARTESIAN_POINT('',(37.7,9.00535278002944,3.33749301802746));
#533=CARTESIAN_POINT('',(35.7,9.00535278002944,3.33749301802746));
#534=CARTESIAN_POINT('',(37.7,9.74732360998528,-7.58941520739853E-16));
#535=CARTESIAN_POINT('',(35.7,9.74732360998528,-7.58941520739853E-16));
#536=CARTESIAN_POINT('',(37.7,9.00535278002944,-3.33749301802745));
#537=CARTESIAN_POINT('',(35.7,9.00535278002944,-3.33749301802745));
#538=CARTESIAN_POINT('',(37.7,6.89239862304034,-6.16688297850977));
#539=CARTESIAN_POINT('',(35.7,6.89239862304034,-6.16688297850977));
#540=CARTESIAN_POINT('',(37.7,3.73013925544244,-8.05742090844739));
#541=CARTESIAN_POINT('',(35.7,3.73013925544244,-8.05742090844739));
#542=CARTESIAN_POINT('',(37.7,3.11030498231779E-15,-8.72128954577631));
#543=CARTESIAN_POINT('',(35.7,3.11030498231779E-15,-8.72128954577631));
#544=CARTESIAN_POINT('',(37.7,-3.73013925544245,-8.05742090844739));
#545=CARTESIAN_POINT('',(35.7,-3.73013925544245,-8.05742090844739));
#546=CARTESIAN_POINT('',(37.7,-6.89239862304034,-6.16688297850976));
#547=CARTESIAN_POINT('',(35.7,-6.89239862304034,-6.16688297850976));
#548=CARTESIAN_POINT('',(37.7,-9.00535278002942,-3.33749301802747));
#549=CARTESIAN_POINT('',(35.7,-9.00535278002942,-3.33749301802747));
#550=CARTESIAN_POINT('',(37.7,-9.74732360998528,9.64622957901369E-15));
#551=CARTESIAN_POINT('',(35.7,-9.74732360998528,9.64622957901369E-15));
#552=CARTESIAN_POINT('',(37.7,-9.00535278002945,3.33749301802743));
#553=CARTESIAN_POINT('',(35.7,-9.00535278002945,3.33749301802743));
#554=CARTESIAN_POINT('',(37.7,-6.89239862304032,6.16688297850979));
#555=CARTESIAN_POINT('',(35.7,-6.89239862304032,6.16688297850979));
#556=CARTESIAN_POINT('',(37.7,-3.73013925544248,8.05742090844738));
#557=CARTESIAN_POINT('',(35.7,-3.73013925544248,8.05742090844738));
#558=CARTESIAN_POINT('',(37.7,3.69103077095534E-14,8.72128954577631));
#559=CARTESIAN_POINT('',(35.7,3.69103077095534E-14,8.72128954577631));
#560=CARTESIAN_POINT('',(37.7,3.73013925544242,8.05742090844739));
#561=CARTESIAN_POINT('',(35.7,3.73013925544242,8.05742090844739));
#562=CARTESIAN_POINT('',(37.7,6.89239862304031,6.1668829785098));
#563=CARTESIAN_POINT('',(35.7,6.89239862304031,6.1668829785098));
#564=CARTESIAN_POINT('',(37.7,9.00535278002944,3.33749301802746));
#565=CARTESIAN_POINT('',(35.7,9.00535278002944,3.33749301802746));
#566=CARTESIAN_POINT('',(37.7,9.74732360998528,-7.58941520739853E-16));
#567=CARTESIAN_POINT('',(35.7,9.74732360998528,-7.58941520739853E-16));
#568=CARTESIAN_POINT('',(37.7,9.00535278002944,-3.33749301802745));
#569=CARTESIAN_POINT('',(35.7,9.00535278002944,-3.33749301802745));
#570=CARTESIAN_POINT('',(37.7,2.12435339080604E-31,0.));
#571=CARTESIAN_POINT('',(37.7,9.5,0.));
#572=CARTESIAN_POINT('',(35.7,2.12435339080604E-31,0.));
#573=CARTESIAN_POINT('',(35.7,9.5,0.));
#574=CARTESIAN_POINT('',(37.7,2.12435339080604E-31,0.));
#575=CARTESIAN_POINT('',(37.7,2.12435339080604E-31,0.));
#576=CARTESIAN_POINT('',(37.7,4.8,0.));
#577=CARTESIAN_POINT('',(35.7,2.12435339080604E-31,0.));
#578=CARTESIAN_POINT('',(25.7,2.12435339080604E-31,0.));
#579=CARTESIAN_POINT('',(25.7,2.12435339080604E-31,0.));
#580=CARTESIAN_POINT('',(25.7,4.8,0.));
#581=CARTESIAN_POINT('',(25.7,2.12435339080604E-31,0.));
#582=CARTESIAN_POINT('',(-25.7,0.,0.));
#583=CARTESIAN_POINT('',(-25.7,0.,0.));
#584=CARTESIAN_POINT('',(-25.7,-4.8,0.));
#585=CARTESIAN_POINT('',(-25.7,0.,0.));
#586=CARTESIAN_POINT('',(26.3,0.,0.));
#587=CARTESIAN_POINT('',(-29.3,0.,0.));
#588=CARTESIAN_POINT('',(-29.6281585811383,9.18168378296658E-17,0.));
#589=CARTESIAN_POINT('',(29.6281585811383,0.,0.));
#590=MECHANICAL_DESIGN_GEOMETRIC_PRESENTATION_REPRESENTATION('',(#287),
#591);
#591=(
GEOMETRIC_REPRESENTATION_CONTEXT(3)
GLOBAL_UNCERTAINTY_ASSIGNED_CONTEXT((#592))
GLOBAL_UNIT_ASSIGNED_CONTEXT((#595,#594,#593))
REPRESENTATION_CONTEXT('CP3.3;8','TOP_LEVEL_ASSEMBLY_PART')
);
#592=UNCERTAINTY_MEASURE_WITH_UNIT(LENGTH_MEASURE(0.005),#595,
'DISTANCE_ACCURACY_VALUE','Maximum Tolerance applied to model');
#593=(
NAMED_UNIT(*)
SI_UNIT($,.STERADIAN.)
SOLID_ANGLE_UNIT()
);
#594=(
NAMED_UNIT(*)
PLANE_ANGLE_UNIT()
SI_UNIT($,.RADIAN.)
);
#595=(
LENGTH_UNIT()
NAMED_UNIT(*)
SI_UNIT(.MILLI.,.METRE.)
);
#596=PRODUCT_DEFINITION_SHAPE('','',#597);
#597=PRODUCT_DEFINITION('','',#599,#598);
#598=PRODUCT_DEFINITION_CONTEXT('',#605,'design');
#599=PRODUCT_DEFINITION_FORMATION_WITH_SPECIFIED_SOURCE('','',#601,
 .NOT_KNOWN.);
#600=PRODUCT_RELATED_PRODUCT_CATEGORY('','',(#601));
#601=PRODUCT('CP3.3;8','CP3.3;8','CP3.3;8',(#603));
#602=PRODUCT_CATEGORY('','');
#603=PRODUCT_CONTEXT('',#605,'mechanical');
#604=APPLICATION_PROTOCOL_DEFINITION('international standard',
'automotive_design',2010,#605);
#605=APPLICATION_CONTEXT(
'core data for automotive mechanical design processes');
ENDSEC;
END-ISO-10303-21;
