ISO-10303-21;
HEADER;
FILE_DESCRIPTION(('STEP AP214'),'1');
FILE_NAME('COVAL_IF14M10M.stp','2017-12-28T08:29:13',('TraceParts'),('TraceParts S.A.'),'Spatial InterOp 3D',' ',' ');
FILE_SCHEMA(('automotive_design'));
ENDSEC;
DATA;
#1=MECHANICAL_DESIGN_GEOMETRIC_PRESENTATION_REPRESENTATION(' ',(#10,#11,#12,#13,#14,#15,#16,#17,#18,#19,#20,#21,#22,#23,#24,#25,#26),#6);
#2=PRODUCT_DEFINITION_CONTEXT('',#27,'design');
#3=APPLICATION_PROTOCOL_DEFINITION('INTERNATIONAL STANDARD','automotive_design',1994,#27);
#4=PRODUCT_CATEGORY_RELATIONSHIP('NONE','NONE',#28,#29);
#5=SHAPE_DEFINITION_REPRESENTATION(#30,#31);
#6= (GEOMETRIC_REPRESENTATION_CONTEXT(3)GLOBAL_UNCERTAINTY_ASSIGNED_CONTEXT((#34))GLOBAL_UNIT_ASSIGNED_CONTEXT((#36,#37,#38))REPRESENTATION_CONTEXT('NONE','WORKSPACE'));
#10=STYLED_ITEM('',(#40),#41);
#11=STYLED_ITEM('',(#42),#43);
#12=STYLED_ITEM('',(#44),#45);
#13=STYLED_ITEM('',(#46),#47);
#14=STYLED_ITEM('',(#48),#49);
#15=STYLED_ITEM('',(#50),#51);
#16=STYLED_ITEM('',(#52),#53);
#17=STYLED_ITEM('',(#54),#55);
#18=STYLED_ITEM('',(#56),#57);
#19=STYLED_ITEM('',(#58),#59);
#20=STYLED_ITEM('',(#60),#61);
#21=STYLED_ITEM('',(#62),#63);
#22=STYLED_ITEM('',(#64),#65);
#23=STYLED_ITEM('',(#66),#67);
#24=STYLED_ITEM('',(#68),#69);
#25=STYLED_ITEM('',(#70),#71);
#26=STYLED_ITEM('',(#72),#73);
#27=APPLICATION_CONTEXT(' ');
#28=PRODUCT_CATEGORY('part','NONE');
#29=PRODUCT_RELATED_PRODUCT_CATEGORY('detail',' ',(#74));
#30=PRODUCT_DEFINITION_SHAPE('NONE','NONE',#75);
#31=ADVANCED_BREP_SHAPE_REPRESENTATION('COVAL_IF14M10M',(#76,#77),#6);
#34=UNCERTAINTY_MEASURE_WITH_UNIT(LENGTH_MEASURE(1.0E-006),#36,'','');
#36= (CONVERSION_BASED_UNIT('MILLIMETRE',#80)LENGTH_UNIT()NAMED_UNIT(#83));
#37= (NAMED_UNIT(#85)PLANE_ANGLE_UNIT()SI_UNIT($,.RADIAN.));
#38= (NAMED_UNIT(#85)SOLID_ANGLE_UNIT()SI_UNIT($,.STERADIAN.));
#40=PRESENTATION_STYLE_ASSIGNMENT((#91));
#41=ADVANCED_FACE('',(#92),#93,.F.);
#42=PRESENTATION_STYLE_ASSIGNMENT((#94));
#43=ADVANCED_FACE('',(#95),#96,.F.);
#44=PRESENTATION_STYLE_ASSIGNMENT((#97));
#45=ADVANCED_FACE('',(#98),#99,.F.);
#46=PRESENTATION_STYLE_ASSIGNMENT((#100));
#47=ADVANCED_FACE('',(#101),#102,.T.);
#48=PRESENTATION_STYLE_ASSIGNMENT((#103));
#49=ADVANCED_FACE('',(#104,#105),#106,.T.);
#50=PRESENTATION_STYLE_ASSIGNMENT((#107));
#51=ADVANCED_FACE('',(#108),#109,.F.);
#52=PRESENTATION_STYLE_ASSIGNMENT((#110));
#53=ADVANCED_FACE('',(#111),#112,.F.);
#54=PRESENTATION_STYLE_ASSIGNMENT((#113));
#55=ADVANCED_FACE('',(#114),#115,.F.);
#56=PRESENTATION_STYLE_ASSIGNMENT((#116));
#57=ADVANCED_FACE('',(#117),#118,.F.);
#58=PRESENTATION_STYLE_ASSIGNMENT((#119));
#59=ADVANCED_FACE('',(#120),#121,.F.);
#60=PRESENTATION_STYLE_ASSIGNMENT((#122));
#61=ADVANCED_FACE('',(#123),#124,.F.);
#62=PRESENTATION_STYLE_ASSIGNMENT((#125));
#63=ADVANCED_FACE('',(#126,#127),#128,.F.);
#64=PRESENTATION_STYLE_ASSIGNMENT((#129));
#65=ADVANCED_FACE('',(#130),#131,.T.);
#66=PRESENTATION_STYLE_ASSIGNMENT((#132));
#67=ADVANCED_FACE('',(#133,#134),#135,.T.);
#68=PRESENTATION_STYLE_ASSIGNMENT((#136));
#69=ADVANCED_FACE('',(#137),#138,.F.);
#70=PRESENTATION_STYLE_ASSIGNMENT((#139));
#71=ADVANCED_FACE('',(#140),#141,.F.);
#72=PRESENTATION_STYLE_ASSIGNMENT((#142));
#73=ADVANCED_FACE('',(#143),#144,.F.);
#74=PRODUCT('COVAL_IF14M10M','COVAL_IF14M10M','PART-COVAL_IF14M10M-DESC',(#145));
#75=PRODUCT_DEFINITION('NONE','NONE',#146,#2);
#76=MANIFOLD_SOLID_BREP('COVAL_IF14M10M',#147);
#77=AXIS2_PLACEMENT_3D('',#148,#149,#150);
#80=LENGTH_MEASURE_WITH_UNIT(LENGTH_MEASURE(1.0),#151);
#83=DIMENSIONAL_EXPONENTS(1.0,0.0,0.0,0.0,0.0,0.0,0.0);
#85=DIMENSIONAL_EXPONENTS(0.0,0.0,0.0,0.0,0.0,0.0,0.0);
#91=SURFACE_STYLE_USAGE(.BOTH.,#152);
#92=FACE_OUTER_BOUND('',#153,.T.);
#93=CYLINDRICAL_SURFACE('',#154,2.5);
#94=SURFACE_STYLE_USAGE(.BOTH.,#155);
#95=FACE_OUTER_BOUND('',#156,.T.);
#96=CYLINDRICAL_SURFACE('',#157,5.74999999999999);
#97=SURFACE_STYLE_USAGE(.BOTH.,#158);
#98=FACE_OUTER_BOUND('',#159,.T.);
#99=CONICAL_SURFACE('',#160,5.75,1.30899693899575);
#100=SURFACE_STYLE_USAGE(.BOTH.,#161);
#101=FACE_OUTER_BOUND('',#162,.T.);
#102=CYLINDRICAL_SURFACE('',#163,5.0);
#103=SURFACE_STYLE_USAGE(.BOTH.,#164);
#104=FACE_OUTER_BOUND('',#165,.T.);
#105=FACE_BOUND('',#166,.T.);
#106=PLANE('',#167);
#107=SURFACE_STYLE_USAGE(.BOTH.,#168);
#108=FACE_OUTER_BOUND('',#169,.T.);
#109=PLANE('',#170);
#110=SURFACE_STYLE_USAGE(.BOTH.,#171);
#111=FACE_OUTER_BOUND('',#172,.T.);
#112=PLANE('',#173);
#113=SURFACE_STYLE_USAGE(.BOTH.,#174);
#114=FACE_OUTER_BOUND('',#175,.T.);
#115=PLANE('',#176);
#116=SURFACE_STYLE_USAGE(.BOTH.,#177);
#117=FACE_OUTER_BOUND('',#178,.T.);
#118=PLANE('',#179);
#119=SURFACE_STYLE_USAGE(.BOTH.,#180);
#120=FACE_OUTER_BOUND('',#181,.T.);
#121=PLANE('',#182);
#122=SURFACE_STYLE_USAGE(.BOTH.,#183);
#123=FACE_OUTER_BOUND('',#184,.T.);
#124=PLANE('',#185);
#125=SURFACE_STYLE_USAGE(.BOTH.,#186);
#126=FACE_BOUND('',#187,.T.);
#127=FACE_OUTER_BOUND('',#188,.T.);
#128=PLANE('',#189);
#129=SURFACE_STYLE_USAGE(.BOTH.,#190);
#130=FACE_OUTER_BOUND('',#191,.T.);
#131=CYLINDRICAL_SURFACE('',#192,5.0);
#132=SURFACE_STYLE_USAGE(.BOTH.,#193);
#133=FACE_BOUND('',#194,.T.);
#134=FACE_OUTER_BOUND('',#195,.T.);
#135=PLANE('',#196);
#136=SURFACE_STYLE_USAGE(.BOTH.,#197);
#137=FACE_OUTER_BOUND('',#198,.T.);
#138=CONICAL_SURFACE('',#199,5.75,1.30899693899575);
#139=SURFACE_STYLE_USAGE(.BOTH.,#200);
#140=FACE_OUTER_BOUND('',#201,.T.);
#141=CYLINDRICAL_SURFACE('',#202,5.74999999999999);
#142=SURFACE_STYLE_USAGE(.BOTH.,#203);
#143=FACE_OUTER_BOUND('',#204,.T.);
#144=CYLINDRICAL_SURFACE('',#205,2.5);
#145=PRODUCT_CONTEXT('',#27,'mechanical');
#146=PRODUCT_DEFINITION_FORMATION_WITH_SPECIFIED_SOURCE(' ','NONE',#74,.NOT_KNOWN.);
#147=CLOSED_SHELL('',(#41,#43,#45,#47,#49,#51,#53,#55,#57,#59,#61,#63,#65,#67,#69,#71,#73));
#148=CARTESIAN_POINT('',(0.0,0.0,0.0));
#149=DIRECTION('',(0.0,0.0,1.0));
#150=DIRECTION('',(1.0,0.0,0.0));
#151= (NAMED_UNIT(#83)LENGTH_UNIT()SI_UNIT(.MILLI.,.METRE.));
#152=SURFACE_SIDE_STYLE('',(#207));
#153=EDGE_LOOP('',(#208,#209,#210,#211));
#154=AXIS2_PLACEMENT_3D('',#212,#213,#214);
#155=SURFACE_SIDE_STYLE('',(#215));
#156=EDGE_LOOP('',(#216,#217,#218,#219));
#157=AXIS2_PLACEMENT_3D('',#220,#221,#222);
#158=SURFACE_SIDE_STYLE('',(#223));
#159=EDGE_LOOP('',(#224,#225,#226,#227));
#160=AXIS2_PLACEMENT_3D('',#228,#229,#230);
#161=SURFACE_SIDE_STYLE('',(#231));
#162=EDGE_LOOP('',(#232,#233,#234,#235));
#163=AXIS2_PLACEMENT_3D('',#236,#237,#238);
#164=SURFACE_SIDE_STYLE('',(#239));
#165=EDGE_LOOP('',(#240,#241,#242,#243,#244,#245));
#166=EDGE_LOOP('',(#246,#247));
#167=AXIS2_PLACEMENT_3D('',#248,#249,#250);
#168=SURFACE_SIDE_STYLE('',(#251));
#169=EDGE_LOOP('',(#252,#253,#254,#255));
#170=AXIS2_PLACEMENT_3D('',#256,#257,#258);
#171=SURFACE_SIDE_STYLE('',(#259));
#172=EDGE_LOOP('',(#260,#261,#262,#263));
#173=AXIS2_PLACEMENT_3D('',#264,#265,#266);
#174=SURFACE_SIDE_STYLE('',(#267));
#175=EDGE_LOOP('',(#268,#269,#270,#271));
#176=AXIS2_PLACEMENT_3D('',#272,#273,#274);
#177=SURFACE_SIDE_STYLE('',(#275));
#178=EDGE_LOOP('',(#276,#277,#278,#279));
#179=AXIS2_PLACEMENT_3D('',#280,#281,#282);
#180=SURFACE_SIDE_STYLE('',(#283));
#181=EDGE_LOOP('',(#284,#285,#286,#287));
#182=AXIS2_PLACEMENT_3D('',#288,#289,#290);
#183=SURFACE_SIDE_STYLE('',(#291));
#184=EDGE_LOOP('',(#292,#293,#294,#295));
#185=AXIS2_PLACEMENT_3D('',#296,#297,#298);
#186=SURFACE_SIDE_STYLE('',(#299));
#187=EDGE_LOOP('',(#300,#301));
#188=EDGE_LOOP('',(#302,#303,#304,#305,#306,#307));
#189=AXIS2_PLACEMENT_3D('',#308,#309,#310);
#190=SURFACE_SIDE_STYLE('',(#311));
#191=EDGE_LOOP('',(#312,#313,#314,#315));
#192=AXIS2_PLACEMENT_3D('',#316,#317,#318);
#193=SURFACE_SIDE_STYLE('',(#319));
#194=EDGE_LOOP('',(#320,#321));
#195=EDGE_LOOP('',(#322,#323));
#196=AXIS2_PLACEMENT_3D('',#324,#325,#326);
#197=SURFACE_SIDE_STYLE('',(#327));
#198=EDGE_LOOP('',(#328,#329,#330,#331));
#199=AXIS2_PLACEMENT_3D('',#332,#333,#334);
#200=SURFACE_SIDE_STYLE('',(#335));
#201=EDGE_LOOP('',(#336,#337,#338,#339));
#202=AXIS2_PLACEMENT_3D('',#340,#341,#342);
#203=SURFACE_SIDE_STYLE('',(#343));
#204=EDGE_LOOP('',(#344,#345,#346,#347));
#205=AXIS2_PLACEMENT_3D('',#348,#349,#350);
#207=SURFACE_STYLE_FILL_AREA(#351);
#208=ORIENTED_EDGE('',*,*,#352,.F.);
#209=ORIENTED_EDGE('',*,*,#353,.T.);
#210=ORIENTED_EDGE('',*,*,#354,.T.);
#211=ORIENTED_EDGE('',*,*,#355,.F.);
#212=CARTESIAN_POINT('',(0.0,0.0,0.0));
#213=DIRECTION('',(0.0,-1.0,6.12303176911189E-017));
#214=DIRECTION('',(1.0,0.0,0.0));
#215=SURFACE_STYLE_FILL_AREA(#356);
#216=ORIENTED_EDGE('',*,*,#357,.F.);
#217=ORIENTED_EDGE('',*,*,#358,.T.);
#218=ORIENTED_EDGE('',*,*,#359,.T.);
#219=ORIENTED_EDGE('',*,*,#360,.F.);
#220=CARTESIAN_POINT('',(0.0,0.0,0.0));
#221=DIRECTION('',(0.0,1.0,-6.12303176911189E-017));
#222=DIRECTION('',(-1.0,0.0,0.0));
#223=SURFACE_STYLE_FILL_AREA(#361);
#224=ORIENTED_EDGE('',*,*,#352,.T.);
#225=ORIENTED_EDGE('',*,*,#362,.T.);
#226=ORIENTED_EDGE('',*,*,#357,.T.);
#227=ORIENTED_EDGE('',*,*,#363,.F.);
#228=CARTESIAN_POINT('',(0.0,-12.5,7.65378971138986E-016));
#229=DIRECTION('',(-0.0,1.0,-6.12303176911189E-017));
#230=DIRECTION('',(-1.0,0.0,0.0));
#231=SURFACE_STYLE_FILL_AREA(#364);
#232=ORIENTED_EDGE('',*,*,#365,.F.);
#233=ORIENTED_EDGE('',*,*,#366,.T.);
#234=ORIENTED_EDGE('',*,*,#367,.T.);
#235=ORIENTED_EDGE('',*,*,#368,.F.);
#236=CARTESIAN_POINT('',(0.0,-25.0,1.53075794227797E-015));
#237=DIRECTION('',(0.0,1.0,-6.12303176911189E-017));
#238=DIRECTION('',(-1.0,0.0,0.0));
#239=SURFACE_STYLE_FILL_AREA(#369);
#240=ORIENTED_EDGE('',*,*,#370,.T.);
#241=ORIENTED_EDGE('',*,*,#371,.T.);
#242=ORIENTED_EDGE('',*,*,#372,.T.);
#243=ORIENTED_EDGE('',*,*,#373,.T.);
#244=ORIENTED_EDGE('',*,*,#374,.T.);
#245=ORIENTED_EDGE('',*,*,#375,.T.);
#246=ORIENTED_EDGE('',*,*,#376,.F.);
#247=ORIENTED_EDGE('',*,*,#367,.F.);
#248=CARTESIAN_POINT('',(14.7224318643355,-17.0,-8.49999999999999));
#249=DIRECTION('',(0.0,-1.0,6.12303176911189E-017));
#250=DIRECTION('',(1.0,0.0,0.0));
#251=SURFACE_STYLE_FILL_AREA(#377);
#252=ORIENTED_EDGE('',*,*,#378,.T.);
#253=ORIENTED_EDGE('',*,*,#379,.F.);
#254=ORIENTED_EDGE('',*,*,#370,.F.);
#255=ORIENTED_EDGE('',*,*,#380,.T.);
#256=CARTESIAN_POINT('',(-4.90747728811182,-17.0,-8.5));
#257=DIRECTION('',(-3.53485787938155E-016,6.12303176911189E-017,1.0));
#258=DIRECTION('',(-1.0,-2.16440470947487E-032,-3.53485787938155E-016));
#259=SURFACE_STYLE_FILL_AREA(#381);
#260=ORIENTED_EDGE('',*,*,#382,.T.);
#261=ORIENTED_EDGE('',*,*,#383,.F.);
#262=ORIENTED_EDGE('',*,*,#371,.F.);
#263=ORIENTED_EDGE('',*,*,#379,.T.);
#264=CARTESIAN_POINT('',(4.90747728811182,-17.0,-8.49999999999999));
#265=DIRECTION('',(-0.866025403784439,3.06151588455594E-017,0.5));
#266=DIRECTION('',(-0.5,-5.30270106023007E-017,-0.866025403784439));
#267=SURFACE_STYLE_FILL_AREA(#384);
#268=ORIENTED_EDGE('',*,*,#385,.T.);
#269=ORIENTED_EDGE('',*,*,#386,.F.);
#270=ORIENTED_EDGE('',*,*,#372,.F.);
#271=ORIENTED_EDGE('',*,*,#383,.T.);
#272=CARTESIAN_POINT('',(9.81495457622364,-17.0,7.42076755946841E-015));
#273=DIRECTION('',(-0.866025403784439,-3.06151588455594E-017,-0.5));
#274=DIRECTION('',(0.5,-5.30270106023007E-017,-0.866025403784439));
#275=SURFACE_STYLE_FILL_AREA(#387);
#276=ORIENTED_EDGE('',*,*,#388,.T.);
#277=ORIENTED_EDGE('',*,*,#389,.F.);
#278=ORIENTED_EDGE('',*,*,#373,.F.);
#279=ORIENTED_EDGE('',*,*,#386,.T.);
#280=CARTESIAN_POINT('',(4.90747728811182,-17.0,8.5));
#281=DIRECTION('',(1.76742893969077E-016,-6.12303176911189E-017,-1.0));
#282=DIRECTION('',(1.0,1.08220235473743E-032,1.76742893969077E-016));
#283=SURFACE_STYLE_FILL_AREA(#390);
#284=ORIENTED_EDGE('',*,*,#391,.T.);
#285=ORIENTED_EDGE('',*,*,#392,.F.);
#286=ORIENTED_EDGE('',*,*,#374,.F.);
#287=ORIENTED_EDGE('',*,*,#389,.T.);
#288=CARTESIAN_POINT('',(-4.90747728811182,-17.0,8.5));
#289=DIRECTION('',(0.866025403784439,-3.06151588455594E-017,-0.5));
#290=DIRECTION('',(0.5,5.30270106023007E-017,0.866025403784439));
#291=SURFACE_STYLE_FILL_AREA(#393);
#292=ORIENTED_EDGE('',*,*,#394,.T.);
#293=ORIENTED_EDGE('',*,*,#380,.F.);
#294=ORIENTED_EDGE('',*,*,#375,.F.);
#295=ORIENTED_EDGE('',*,*,#392,.T.);
#296=CARTESIAN_POINT('',(-9.81495457622364,-17.0,1.0415622168171E-015));
#297=DIRECTION('',(0.866025403784439,3.06151588455594E-017,0.5));
#298=DIRECTION('',(-0.5,5.30270106023007E-017,0.866025403784439));
#299=SURFACE_STYLE_FILL_AREA(#395);
#300=ORIENTED_EDGE('',*,*,#396,.F.);
#301=ORIENTED_EDGE('',*,*,#359,.F.);
#302=ORIENTED_EDGE('',*,*,#378,.F.);
#303=ORIENTED_EDGE('',*,*,#394,.F.);
#304=ORIENTED_EDGE('',*,*,#391,.F.);
#305=ORIENTED_EDGE('',*,*,#388,.F.);
#306=ORIENTED_EDGE('',*,*,#385,.F.);
#307=ORIENTED_EDGE('',*,*,#382,.F.);
#308=CARTESIAN_POINT('',(14.7224318643355,-5.2045770037451E-016,-8.49999999999999));
#309=DIRECTION('',(0.0,-1.0,6.12303176911189E-017));
#310=DIRECTION('',(1.0,0.0,0.0));
#311=SURFACE_STYLE_FILL_AREA(#397);
#312=ORIENTED_EDGE('',*,*,#366,.F.);
#313=ORIENTED_EDGE('',*,*,#398,.F.);
#314=ORIENTED_EDGE('',*,*,#368,.T.);
#315=ORIENTED_EDGE('',*,*,#376,.T.);
#316=CARTESIAN_POINT('',(0.0,-25.0,1.53075794227797E-015));
#317=DIRECTION('',(0.0,1.0,-6.12303176911189E-017));
#318=DIRECTION('',(-1.0,0.0,0.0));
#319=SURFACE_STYLE_FILL_AREA(#399);
#320=ORIENTED_EDGE('',*,*,#400,.F.);
#321=ORIENTED_EDGE('',*,*,#354,.F.);
#322=ORIENTED_EDGE('',*,*,#398,.T.);
#323=ORIENTED_EDGE('',*,*,#365,.T.);
#324=CARTESIAN_POINT('',(0.0,-25.0,1.53075794227797E-015));
#325=DIRECTION('',(0.0,-1.0,6.12303176911189E-017));
#326=DIRECTION('',(1.0,0.0,0.0));
#327=SURFACE_STYLE_FILL_AREA(#401);
#328=ORIENTED_EDGE('',*,*,#362,.F.);
#329=ORIENTED_EDGE('',*,*,#402,.T.);
#330=ORIENTED_EDGE('',*,*,#363,.T.);
#331=ORIENTED_EDGE('',*,*,#403,.T.);
#332=CARTESIAN_POINT('',(0.0,-12.5,7.65378971138986E-016));
#333=DIRECTION('',(-0.0,1.0,-6.12303176911189E-017));
#334=DIRECTION('',(-1.0,0.0,0.0));
#335=SURFACE_STYLE_FILL_AREA(#404);
#336=ORIENTED_EDGE('',*,*,#358,.F.);
#337=ORIENTED_EDGE('',*,*,#403,.F.);
#338=ORIENTED_EDGE('',*,*,#360,.T.);
#339=ORIENTED_EDGE('',*,*,#396,.T.);
#340=CARTESIAN_POINT('',(0.0,0.0,0.0));
#341=DIRECTION('',(0.0,1.0,-6.12303176911189E-017));
#342=DIRECTION('',(-1.0,0.0,0.0));
#343=SURFACE_STYLE_FILL_AREA(#405);
#344=ORIENTED_EDGE('',*,*,#353,.F.);
#345=ORIENTED_EDGE('',*,*,#402,.F.);
#346=ORIENTED_EDGE('',*,*,#355,.T.);
#347=ORIENTED_EDGE('',*,*,#400,.T.);
#348=CARTESIAN_POINT('',(0.0,0.0,0.0));
#349=DIRECTION('',(0.0,-1.0,6.12303176911189E-017));
#350=DIRECTION('',(1.0,0.0,0.0));
#351=FILL_AREA_STYLE('',(#406));
#352=EDGE_CURVE('',#407,#408,#409,.T.);
#353=EDGE_CURVE('',#407,#410,#411,.T.);
#354=EDGE_CURVE('',#410,#412,#413,.T.);
#355=EDGE_CURVE('',#408,#412,#414,.T.);
#356=FILL_AREA_STYLE('',(#415));
#357=EDGE_CURVE('',#416,#417,#418,.T.);
#358=EDGE_CURVE('',#416,#419,#420,.T.);
#359=EDGE_CURVE('',#419,#421,#422,.T.);
#360=EDGE_CURVE('',#417,#421,#423,.T.);
#361=FILL_AREA_STYLE('',(#424));
#362=EDGE_CURVE('',#408,#416,#425,.T.);
#363=EDGE_CURVE('',#407,#417,#426,.T.);
#364=FILL_AREA_STYLE('',(#427));
#365=EDGE_CURVE('',#428,#429,#430,.T.);
#366=EDGE_CURVE('',#428,#431,#432,.T.);
#367=EDGE_CURVE('',#431,#433,#434,.T.);
#368=EDGE_CURVE('',#429,#433,#435,.T.);
#369=FILL_AREA_STYLE('',(#436));
#370=EDGE_CURVE('',#437,#438,#439,.T.);
#371=EDGE_CURVE('',#438,#440,#441,.T.);
#372=EDGE_CURVE('',#440,#442,#443,.T.);
#373=EDGE_CURVE('',#442,#444,#445,.T.);
#374=EDGE_CURVE('',#444,#446,#447,.T.);
#375=EDGE_CURVE('',#446,#437,#448,.T.);
#376=EDGE_CURVE('',#433,#431,#449,.T.);
#377=FILL_AREA_STYLE('',(#450));
#378=EDGE_CURVE('',#451,#452,#453,.T.);
#379=EDGE_CURVE('',#438,#452,#454,.T.);
#380=EDGE_CURVE('',#437,#451,#455,.T.);
#381=FILL_AREA_STYLE('',(#456));
#382=EDGE_CURVE('',#452,#457,#458,.T.);
#383=EDGE_CURVE('',#440,#457,#459,.T.);
#384=FILL_AREA_STYLE('',(#460));
#385=EDGE_CURVE('',#457,#461,#462,.T.);
#386=EDGE_CURVE('',#442,#461,#463,.T.);
#387=FILL_AREA_STYLE('',(#464));
#388=EDGE_CURVE('',#461,#465,#466,.T.);
#389=EDGE_CURVE('',#444,#465,#467,.T.);
#390=FILL_AREA_STYLE('',(#468));
#391=EDGE_CURVE('',#465,#469,#470,.T.);
#392=EDGE_CURVE('',#446,#469,#471,.T.);
#393=FILL_AREA_STYLE('',(#472));
#394=EDGE_CURVE('',#469,#451,#473,.T.);
#395=FILL_AREA_STYLE('',(#474));
#396=EDGE_CURVE('',#421,#419,#475,.T.);
#397=FILL_AREA_STYLE('',(#476));
#398=EDGE_CURVE('',#429,#428,#477,.T.);
#399=FILL_AREA_STYLE('',(#478));
#400=EDGE_CURVE('',#412,#410,#479,.T.);
#401=FILL_AREA_STYLE('',(#480));
#402=EDGE_CURVE('',#408,#407,#481,.T.);
#403=EDGE_CURVE('',#417,#416,#482,.T.);
#404=FILL_AREA_STYLE('',(#483));
#405=FILL_AREA_STYLE('',(#484));
#406=FILL_AREA_STYLE_COLOUR('',#485);
#407=VERTEX_POINT('',#486);
#408=VERTEX_POINT('',#487);
#409=CIRCLE('',#488,2.5);
#410=VERTEX_POINT('',#489);
#411=LINE('',#490,#491);
#412=VERTEX_POINT('',#492);
#413=CIRCLE('',#493,2.5);
#414=LINE('',#494,#495);
#415=FILL_AREA_STYLE_COLOUR('',#496);
#416=VERTEX_POINT('',#497);
#417=VERTEX_POINT('',#498);
#418=CIRCLE('',#499,5.75);
#419=VERTEX_POINT('',#500);
#420=LINE('',#501,#502);
#421=VERTEX_POINT('',#503);
#422=CIRCLE('',#504,5.74999999999999);
#423=LINE('',#505,#506);
#424=FILL_AREA_STYLE_COLOUR('',#507);
#425=LINE('',#508,#509);
#426=LINE('',#510,#511);
#427=FILL_AREA_STYLE_COLOUR('',#512);
#428=VERTEX_POINT('',#513);
#429=VERTEX_POINT('',#514);
#430=CIRCLE('',#515,5.0);
#431=VERTEX_POINT('',#516);
#432=LINE('',#517,#518);
#433=VERTEX_POINT('',#519);
#434=CIRCLE('',#520,5.0);
#435=LINE('',#521,#522);
#436=FILL_AREA_STYLE_COLOUR('',#523);
#437=VERTEX_POINT('',#524);
#438=VERTEX_POINT('',#525);
#439=LINE('',#526,#527);
#440=VERTEX_POINT('',#528);
#441=LINE('',#529,#530);
#442=VERTEX_POINT('',#531);
#443=LINE('',#532,#533);
#444=VERTEX_POINT('',#534);
#445=LINE('',#535,#536);
#446=VERTEX_POINT('',#537);
#447=LINE('',#538,#539);
#448=LINE('',#540,#541);
#449=CIRCLE('',#542,5.0);
#450=FILL_AREA_STYLE_COLOUR('',#543);
#451=VERTEX_POINT('',#544);
#452=VERTEX_POINT('',#545);
#453=LINE('',#546,#547);
#454=LINE('',#548,#549);
#455=LINE('',#550,#551);
#456=FILL_AREA_STYLE_COLOUR('',#552);
#457=VERTEX_POINT('',#553);
#458=LINE('',#554,#555);
#459=LINE('',#556,#557);
#460=FILL_AREA_STYLE_COLOUR('',#558);
#461=VERTEX_POINT('',#559);
#462=LINE('',#560,#561);
#463=LINE('',#562,#563);
#464=FILL_AREA_STYLE_COLOUR('',#564);
#465=VERTEX_POINT('',#565);
#466=LINE('',#566,#567);
#467=LINE('',#568,#569);
#468=FILL_AREA_STYLE_COLOUR('',#570);
#469=VERTEX_POINT('',#571);
#470=LINE('',#572,#573);
#471=LINE('',#574,#575);
#472=FILL_AREA_STYLE_COLOUR('',#576);
#473=LINE('',#577,#578);
#474=FILL_AREA_STYLE_COLOUR('',#579);
#475=CIRCLE('',#580,5.74999999999999);
#476=FILL_AREA_STYLE_COLOUR('',#581);
#477=CIRCLE('',#582,5.0);
#478=FILL_AREA_STYLE_COLOUR('',#583);
#479=CIRCLE('',#584,2.5);
#480=FILL_AREA_STYLE_COLOUR('',#585);
#481=CIRCLE('',#586,2.5);
#482=CIRCLE('',#587,5.75);
#483=FILL_AREA_STYLE_COLOUR('',#588);
#484=FILL_AREA_STYLE_COLOUR('',#589);
#485=COLOUR_RGB('',0.752941191196442,0.752941191196442,0.752941191196442);
#486=CARTESIAN_POINT('',(-2.5,-13.3708348754011,8.18700467216304E-016));
#487=CARTESIAN_POINT('',(2.5,-13.3708348754011,1.32385058816803E-015));
#488=AXIS2_PLACEMENT_3D('',#590,#591,#592);
#489=CARTESIAN_POINT('',(-2.5,-25.0,1.83690953073357E-015));
#490=CARTESIAN_POINT('',(-2.5,1.87457590227767E-032,3.06151588455594E-016));
#491=VECTOR('',#593,1000.0);
#492=CARTESIAN_POINT('',(2.5,-25.0,1.53075794227797E-015));
#493=AXIS2_PLACEMENT_3D('',#594,#595,#596);
#494=CARTESIAN_POINT('',(2.5,0.0,0.0));
#495=VECTOR('',#597,1000.0);
#496=COLOUR_RGB('',0.752941191196442,0.752941191196442,0.752941191196442);
#497=CARTESIAN_POINT('',(5.75,-12.5,1.46952762458685E-015));
#498=CARTESIAN_POINT('',(-5.75,-12.5,7.65378971138986E-016));
#499=AXIS2_PLACEMENT_3D('',#598,#599,#600);
#500=CARTESIAN_POINT('',(5.74999999999999,8.51101415906549E-016,7.04148653447866E-016));
#501=CARTESIAN_POINT('',(5.74999999999999,4.31152457523864E-032,7.04148653447866E-016));
#502=VECTOR('',#601,1000.0);
#503=CARTESIAN_POINT('',(-5.74999999999999,8.51101415906549E-016,-5.21132100833191E-032));
#504=AXIS2_PLACEMENT_3D('',#602,#603,#604);
#505=CARTESIAN_POINT('',(-5.74999999999999,0.0,0.0));
#506=VECTOR('',#605,1000.0);
#507=COLOUR_RGB('',0.752941191196442,0.752941191196442,0.752941191196442);
#508=CARTESIAN_POINT('',(5.75,-12.5,1.46952762458685E-015));
#509=VECTOR('',#606,1000.0);
#510=CARTESIAN_POINT('',(-5.75,-12.5,7.65378971138986E-016));
#511=VECTOR('',#607,1000.0);
#512=COLOUR_RGB('',0.752941191196442,0.752941191196442,0.752941191196442);
#513=CARTESIAN_POINT('',(5.0,-25.0,2.14306111918916E-015));
#514=CARTESIAN_POINT('',(-5.0,-25.0,1.53075794227797E-015));
#515=AXIS2_PLACEMENT_3D('',#608,#609,#610);
#516=CARTESIAN_POINT('',(5.0,-17.0,1.65321857766021E-015));
#517=CARTESIAN_POINT('',(5.0,-25.0,2.14306111918916E-015));
#518=VECTOR('',#611,1000.0);
#519=CARTESIAN_POINT('',(-5.0,-17.0,1.04091540074902E-015));
#520=AXIS2_PLACEMENT_3D('',#612,#613,#614);
#521=CARTESIAN_POINT('',(-5.0,-25.0,1.53075794227797E-015));
#522=VECTOR('',#615,1000.0);
#523=COLOUR_RGB('',0.752941191196442,0.752941191196442,0.752941191196442);
#524=CARTESIAN_POINT('',(-4.90747728811182,-17.0,-8.5));
#525=CARTESIAN_POINT('',(4.90747728811182,-17.0,-8.49999999999999));
#526=CARTESIAN_POINT('',(-4.90747728811182,-17.0,-8.5));
#527=VECTOR('',#616,1000.0);
#528=CARTESIAN_POINT('',(9.81495457622364,-17.0,7.42076755946841E-015));
#529=CARTESIAN_POINT('',(4.90747728811182,-17.0,-8.49999999999999));
#530=VECTOR('',#617,1000.0);
#531=CARTESIAN_POINT('',(4.90747728811182,-17.0,8.5));
#532=CARTESIAN_POINT('',(9.81495457622364,-17.0,7.42076755946841E-015));
#533=VECTOR('',#618,1000.0);
#534=CARTESIAN_POINT('',(-4.90747728811182,-17.0,8.5));
#535=CARTESIAN_POINT('',(4.90747728811182,-17.0,8.5));
#536=VECTOR('',#619,1000.0);
#537=CARTESIAN_POINT('',(-9.81495457622364,-17.0,1.0415622168171E-015));
#538=CARTESIAN_POINT('',(-4.90747728811182,-17.0,8.5));
#539=VECTOR('',#620,1000.0);
#540=CARTESIAN_POINT('',(-9.81495457622364,-17.0,1.0415622168171E-015));
#541=VECTOR('',#621,1000.0);
#542=AXIS2_PLACEMENT_3D('',#622,#623,#624);
#543=COLOUR_RGB('',0.752941191196442,0.752941191196442,0.752941191196442);
#544=CARTESIAN_POINT('',(-4.90747728811182,-5.2045770037451E-016,-8.5));
#545=CARTESIAN_POINT('',(4.90747728811182,-5.2045770037451E-016,-8.49999999999999));
#546=CARTESIAN_POINT('',(-4.90747728811182,-5.2045770037451E-016,-8.5));
#547=VECTOR('',#625,1000.0);
#548=CARTESIAN_POINT('',(4.90747728811182,-17.0,-8.49999999999999));
#549=VECTOR('',#626,1000.0);
#550=CARTESIAN_POINT('',(-4.90747728811182,-17.0,-8.5));
#551=VECTOR('',#627,1000.0);
#552=COLOUR_RGB('',0.752941191196442,0.752941191196442,0.752941191196442);
#553=CARTESIAN_POINT('',(9.81495457622364,3.90640374500759E-031,6.37985215871939E-015));
#554=CARTESIAN_POINT('',(4.90747728811182,-5.2045770037451E-016,-8.49999999999999));
#555=VECTOR('',#628,1000.0);
#556=CARTESIAN_POINT('',(9.81495457622364,-17.0,7.42076755946841E-015));
#557=VECTOR('',#629,1000.0);
#558=COLOUR_RGB('',0.752941191196442,0.752941191196442,0.752941191196442);
#559=CARTESIAN_POINT('',(4.90747728811182,5.2045770037451E-016,8.5));
#560=CARTESIAN_POINT('',(9.81495457622364,3.90640374500759E-031,6.37985215871939E-015));
#561=VECTOR('',#630,1000.0);
#562=CARTESIAN_POINT('',(4.90747728811182,-17.0,8.5));
#563=VECTOR('',#631,1000.0);
#564=COLOUR_RGB('',0.752941191196442,0.752941191196442,0.752941191196442);
#565=CARTESIAN_POINT('',(-4.90747728811182,5.2045770037451E-016,8.5));
#566=CARTESIAN_POINT('',(4.90747728811182,5.2045770037451E-016,8.5));
#567=VECTOR('',#632,1000.0);
#568=CARTESIAN_POINT('',(-4.90747728811182,-17.0,8.5));
#569=VECTOR('',#633,1000.0);
#570=COLOUR_RGB('',0.752941191196442,0.752941191196442,0.752941191196442);
#571=CARTESIAN_POINT('',(-9.81495457622364,3.96047533363103E-035,6.46816068080841E-019));
#572=CARTESIAN_POINT('',(-4.90747728811182,5.2045770037451E-016,8.5));
#573=VECTOR('',#634,1000.0);
#574=CARTESIAN_POINT('',(-9.81495457622364,-17.0,1.0415622168171E-015));
#575=VECTOR('',#635,1000.0);
#576=COLOUR_RGB('',0.752941191196442,0.752941191196442,0.752941191196442);
#577=CARTESIAN_POINT('',(-9.81495457622364,3.96047533363103E-035,6.46816068080841E-019));
#578=VECTOR('',#636,1000.0);
#579=COLOUR_RGB('',0.752941191196442,0.752941191196442,0.752941191196442);
#580=AXIS2_PLACEMENT_3D('',#637,#638,#639);
#581=COLOUR_RGB('',0.752941191196442,0.752941191196442,0.752941191196442);
#582=AXIS2_PLACEMENT_3D('',#640,#641,#642);
#583=COLOUR_RGB('',0.752941191196442,0.752941191196442,0.752941191196442);
#584=AXIS2_PLACEMENT_3D('',#643,#644,#645);
#585=COLOUR_RGB('',0.752941191196442,0.752941191196442,0.752941191196442);
#586=AXIS2_PLACEMENT_3D('',#646,#647,#648);
#587=AXIS2_PLACEMENT_3D('',#649,#650,#651);
#588=COLOUR_RGB('',0.752941191196442,0.752941191196442,0.752941191196442);
#589=COLOUR_RGB('',0.752941191196442,0.752941191196442,0.752941191196442);
#590=CARTESIAN_POINT('',(0.0,-13.3708348754011,8.18700467216304E-016));
#591=DIRECTION('',(0.0,-1.0,6.12303176911189E-017));
#592=DIRECTION('',(-1.0,0.0,0.0));
#593=DIRECTION('',(0.0,-1.0,6.12303176911189E-017));
#594=CARTESIAN_POINT('',(0.0,-25.0,1.53075794227797E-015));
#595=DIRECTION('',(0.0,-1.0,6.12303176911189E-017));
#596=DIRECTION('',(1.0,0.0,0.0));
#597=DIRECTION('',(0.0,-1.0,6.12303176911189E-017));
#598=CARTESIAN_POINT('',(0.0,-12.5,7.65378971138986E-016));
#599=DIRECTION('',(0.0,1.0,-6.12303176911189E-017));
#600=DIRECTION('',(-1.0,0.0,0.0));
#601=DIRECTION('',(-0.0,1.0,-6.12303176911189E-017));
#602=CARTESIAN_POINT('',(0.0,0.0,0.0));
#603=DIRECTION('',(0.0,1.0,-6.12303176911189E-017));
#604=DIRECTION('',(-1.0,0.0,0.0));
#605=DIRECTION('',(-0.0,1.0,-6.12303176911189E-017));
#606=DIRECTION('',(0.965925826289068,0.258819045102521,1.02440318063333E-016));
#607=DIRECTION('',(-0.965925826289068,0.258819045102521,-1.58475723561394E-017));
#608=CARTESIAN_POINT('',(0.0,-25.0,1.53075794227797E-015));
#609=DIRECTION('',(0.0,-1.0,6.12303176911189E-017));
#610=DIRECTION('',(1.0,0.0,0.0));
#611=DIRECTION('',(-0.0,1.0,-6.12303176911189E-017));
#612=CARTESIAN_POINT('',(0.0,-17.0,1.04091540074902E-015));
#613=DIRECTION('',(0.0,-1.0,6.12303176911189E-017));
#614=DIRECTION('',(1.0,0.0,0.0));
#615=DIRECTION('',(-0.0,1.0,-6.12303176911189E-017));
#616=DIRECTION('',(1.0,2.16440470947487E-032,3.53485787938155E-016));
#617=DIRECTION('',(0.5,5.30270106023007E-017,0.866025403784439));
#618=DIRECTION('',(-0.5,5.30270106023007E-017,0.866025403784439));
#619=DIRECTION('',(-1.0,-1.08220235473743E-032,-1.76742893969077E-016));
#620=DIRECTION('',(-0.5,-5.30270106023007E-017,-0.866025403784439));
#621=DIRECTION('',(0.5,-5.30270106023007E-017,-0.866025403784439));
#622=CARTESIAN_POINT('',(0.0,-17.0,1.04091540074902E-015));
#623=DIRECTION('',(0.0,-1.0,6.12303176911189E-017));
#624=DIRECTION('',(1.0,0.0,0.0));
#625=DIRECTION('',(1.0,2.16440470947487E-032,3.53485787938155E-016));
#626=DIRECTION('',(-0.0,1.0,-6.12303176911189E-017));
#627=DIRECTION('',(-0.0,1.0,-6.12303176911189E-017));
#628=DIRECTION('',(0.5,5.30270106023007E-017,0.866025403784439));
#629=DIRECTION('',(-0.0,1.0,-6.12303176911189E-017));
#630=DIRECTION('',(-0.5,5.30270106023007E-017,0.866025403784439));
#631=DIRECTION('',(-0.0,1.0,-6.12303176911189E-017));
#632=DIRECTION('',(-1.0,-1.08220235473743E-032,-1.76742893969077E-016));
#633=DIRECTION('',(-0.0,1.0,-6.12303176911189E-017));
#634=DIRECTION('',(-0.5,-5.30270106023007E-017,-0.866025403784439));
#635=DIRECTION('',(-0.0,1.0,-6.12303176911189E-017));
#636=DIRECTION('',(0.5,-5.30270106023007E-017,-0.866025403784439));
#637=CARTESIAN_POINT('',(0.0,0.0,0.0));
#638=DIRECTION('',(0.0,1.0,-6.12303176911189E-017));
#639=DIRECTION('',(-1.0,0.0,0.0));
#640=CARTESIAN_POINT('',(0.0,-25.0,1.53075794227797E-015));
#641=DIRECTION('',(0.0,-1.0,6.12303176911189E-017));
#642=DIRECTION('',(1.0,0.0,0.0));
#643=CARTESIAN_POINT('',(0.0,-25.0,1.53075794227797E-015));
#644=DIRECTION('',(0.0,-1.0,6.12303176911189E-017));
#645=DIRECTION('',(1.0,0.0,0.0));
#646=CARTESIAN_POINT('',(0.0,-13.3708348754011,8.18700467216304E-016));
#647=DIRECTION('',(0.0,-1.0,6.12303176911189E-017));
#648=DIRECTION('',(-1.0,0.0,0.0));
#649=CARTESIAN_POINT('',(0.0,-12.5,7.65378971138986E-016));
#650=DIRECTION('',(0.0,1.0,-6.12303176911189E-017));
#651=DIRECTION('',(-1.0,0.0,0.0));
ENDSEC;
END-ISO-10303-21;
