ISO-10303-21;
HEADER;
FILE_DESCRIPTION(('STEP AP214'),'1');
FILE_NAME('COVAL_IM5M20.stp','2017-12-28T08:28:46',('TraceParts'),('TraceParts S.A.'),'Spatial InterOp 3D',' ',' ');
FILE_SCHEMA(('automotive_design'));
ENDSEC;
DATA;
#1=MECHANICAL_DESIGN_GEOMETRIC_PRESENTATION_REPRESENTATION(' ',(#10,#11,#12,#13,#14,#15,#16,#17,#18,#19,#20,#21,#22,#23,#24,#25,#26,#27),#6);
#2=PRODUCT_DEFINITION_CONTEXT('',#28,'design');
#3=APPLICATION_PROTOCOL_DEFINITION('INTERNATIONAL STANDARD','automotive_design',1994,#28);
#4=PRODUCT_CATEGORY_RELATIONSHIP('NONE','NONE',#29,#30);
#5=SHAPE_DEFINITION_REPRESENTATION(#31,#32);
#6= (GEOMETRIC_REPRESENTATION_CONTEXT(3)GLOBAL_UNCERTAINTY_ASSIGNED_CONTEXT((#35))GLOBAL_UNIT_ASSIGNED_CONTEXT((#37,#38,#39))REPRESENTATION_CONTEXT('NONE','WORKSPACE'));
#10=STYLED_ITEM('',(#41),#42);
#11=STYLED_ITEM('',(#43),#44);
#12=STYLED_ITEM('',(#45),#46);
#13=STYLED_ITEM('',(#47),#48);
#14=STYLED_ITEM('',(#49),#50);
#15=STYLED_ITEM('',(#51),#52);
#16=STYLED_ITEM('',(#53),#54);
#17=STYLED_ITEM('',(#55),#56);
#18=STYLED_ITEM('',(#57),#58);
#19=STYLED_ITEM('',(#59),#60);
#20=STYLED_ITEM('',(#61),#62);
#21=STYLED_ITEM('',(#63),#64);
#22=STYLED_ITEM('',(#65),#66);
#23=STYLED_ITEM('',(#67),#68);
#24=STYLED_ITEM('',(#69),#70);
#25=STYLED_ITEM('',(#71),#72);
#26=STYLED_ITEM('',(#73),#74);
#27=STYLED_ITEM('',(#75),#76);
#28=APPLICATION_CONTEXT(' ');
#29=PRODUCT_CATEGORY('part','NONE');
#30=PRODUCT_RELATED_PRODUCT_CATEGORY('detail',' ',(#77));
#31=PRODUCT_DEFINITION_SHAPE('NONE','NONE',#78);
#32=ADVANCED_BREP_SHAPE_REPRESENTATION('COVAL_IM5M20',(#79,#80),#6);
#35=UNCERTAINTY_MEASURE_WITH_UNIT(LENGTH_MEASURE(1.0E-006),#37,'','');
#37= (CONVERSION_BASED_UNIT('MILLIMETRE',#83)LENGTH_UNIT()NAMED_UNIT(#86));
#38= (NAMED_UNIT(#88)PLANE_ANGLE_UNIT()SI_UNIT($,.RADIAN.));
#39= (NAMED_UNIT(#88)SOLID_ANGLE_UNIT()SI_UNIT($,.STERADIAN.));
#41=PRESENTATION_STYLE_ASSIGNMENT((#94));
#42=ADVANCED_FACE('',(#95),#96,.T.);
#43=PRESENTATION_STYLE_ASSIGNMENT((#97));
#44=ADVANCED_FACE('',(#98),#99,.T.);
#45=PRESENTATION_STYLE_ASSIGNMENT((#100));
#46=ADVANCED_FACE('',(#101),#102,.T.);
#47=PRESENTATION_STYLE_ASSIGNMENT((#103));
#48=ADVANCED_FACE('',(#104),#105,.F.);
#49=PRESENTATION_STYLE_ASSIGNMENT((#106));
#50=ADVANCED_FACE('',(#107),#108,.F.);
#51=PRESENTATION_STYLE_ASSIGNMENT((#109));
#52=ADVANCED_FACE('',(#110),#111,.F.);
#53=PRESENTATION_STYLE_ASSIGNMENT((#112));
#54=ADVANCED_FACE('',(#113),#114,.F.);
#55=PRESENTATION_STYLE_ASSIGNMENT((#115));
#56=ADVANCED_FACE('',(#116),#117,.T.);
#57=PRESENTATION_STYLE_ASSIGNMENT((#118));
#58=ADVANCED_FACE('',(#119,#120),#121,.F.);
#59=PRESENTATION_STYLE_ASSIGNMENT((#122));
#60=ADVANCED_FACE('',(#123),#124,.T.);
#61=PRESENTATION_STYLE_ASSIGNMENT((#125));
#62=ADVANCED_FACE('',(#126,#127),#128,.F.);
#63=PRESENTATION_STYLE_ASSIGNMENT((#129));
#64=ADVANCED_FACE('',(#130),#131,.T.);
#65=PRESENTATION_STYLE_ASSIGNMENT((#132));
#66=ADVANCED_FACE('',(#133),#134,.F.);
#67=PRESENTATION_STYLE_ASSIGNMENT((#135));
#68=ADVANCED_FACE('',(#136),#137,.F.);
#69=PRESENTATION_STYLE_ASSIGNMENT((#138));
#70=ADVANCED_FACE('',(#139),#140,.T.);
#71=PRESENTATION_STYLE_ASSIGNMENT((#141));
#72=ADVANCED_FACE('',(#142),#143,.F.);
#73=PRESENTATION_STYLE_ASSIGNMENT((#144));
#74=ADVANCED_FACE('',(#145),#146,.F.);
#75=PRESENTATION_STYLE_ASSIGNMENT((#147));
#76=ADVANCED_FACE('',(#148),#149,.T.);
#77=PRODUCT('COVAL_IM5M20','COVAL_IM5M20','PART-COVAL_IM5M20-DESC',(#150));
#78=PRODUCT_DEFINITION('NONE','NONE',#151,#2);
#79=MANIFOLD_SOLID_BREP('COVAL_IM5M20',#152);
#80=AXIS2_PLACEMENT_3D('',#153,#154,#155);
#83=LENGTH_MEASURE_WITH_UNIT(LENGTH_MEASURE(1.0),#156);
#86=DIMENSIONAL_EXPONENTS(1.0,0.0,0.0,0.0,0.0,0.0,0.0);
#88=DIMENSIONAL_EXPONENTS(0.0,0.0,0.0,0.0,0.0,0.0,0.0);
#94=SURFACE_STYLE_USAGE(.BOTH.,#157);
#95=FACE_OUTER_BOUND('',#158,.T.);
#96=CONICAL_SURFACE('',#159,2.5,0.78539816339745);
#97=SURFACE_STYLE_USAGE(.BOTH.,#160);
#98=FACE_OUTER_BOUND('',#161,.T.);
#99=CYLINDRICAL_SURFACE('',#162,2.5);
#100=SURFACE_STYLE_USAGE(.BOTH.,#163);
#101=FACE_OUTER_BOUND('',#164,.T.);
#102=CYLINDRICAL_SURFACE('',#165,5.5);
#103=SURFACE_STYLE_USAGE(.BOTH.,#166);
#104=FACE_OUTER_BOUND('',#167,.T.);
#105=CYLINDRICAL_SURFACE('',#168,1.25);
#106=SURFACE_STYLE_USAGE(.BOTH.,#169);
#107=FACE_OUTER_BOUND('',#170,.T.);
#108=PLANE('',#171);
#109=SURFACE_STYLE_USAGE(.BOTH.,#172);
#110=FACE_OUTER_BOUND('',#173,.T.);
#111=CYLINDRICAL_SURFACE('',#174,1.25);
#112=SURFACE_STYLE_USAGE(.BOTH.,#175);
#113=FACE_OUTER_BOUND('',#176,.T.);
#114=PLANE('',#177);
#115=SURFACE_STYLE_USAGE(.BOTH.,#178);
#116=FACE_OUTER_BOUND('',#179,.T.);
#117=CYLINDRICAL_SURFACE('',#180,5.5);
#118=SURFACE_STYLE_USAGE(.BOTH.,#181);
#119=FACE_OUTER_BOUND('',#182,.T.);
#120=FACE_BOUND('',#183,.T.);
#121=PLANE('',#184);
#122=SURFACE_STYLE_USAGE(.BOTH.,#185);
#123=FACE_OUTER_BOUND('',#186,.T.);
#124=CYLINDRICAL_SURFACE('',#187,2.5);
#125=SURFACE_STYLE_USAGE(.BOTH.,#188);
#126=FACE_OUTER_BOUND('',#189,.T.);
#127=FACE_BOUND('',#190,.T.);
#128=PLANE('',#191);
#129=SURFACE_STYLE_USAGE(.BOTH.,#192);
#130=FACE_OUTER_BOUND('',#193,.T.);
#131=CONICAL_SURFACE('',#194,2.5,0.78539816339745);
#132=SURFACE_STYLE_USAGE(.BOTH.,#195);
#133=FACE_OUTER_BOUND('',#196,.T.);
#134=PLANE('',#197);
#135=SURFACE_STYLE_USAGE(.BOTH.,#198);
#136=FACE_OUTER_BOUND('',#199,.T.);
#137=PLANE('',#200);
#138=SURFACE_STYLE_USAGE(.BOTH.,#201);
#139=FACE_OUTER_BOUND('',#202,.T.);
#140=PLANE('',#203);
#141=SURFACE_STYLE_USAGE(.BOTH.,#204);
#142=FACE_OUTER_BOUND('',#205,.T.);
#143=PLANE('',#206);
#144=SURFACE_STYLE_USAGE(.BOTH.,#207);
#145=FACE_OUTER_BOUND('',#208,.T.);
#146=PLANE('',#209);
#147=SURFACE_STYLE_USAGE(.BOTH.,#210);
#148=FACE_OUTER_BOUND('',#211,.T.);
#149=PLANE('',#212);
#150=PRODUCT_CONTEXT('',#28,'mechanical');
#151=PRODUCT_DEFINITION_FORMATION_WITH_SPECIFIED_SOURCE(' ','NONE',#77,.NOT_KNOWN.);
#152=CLOSED_SHELL('',(#42,#44,#46,#48,#50,#52,#54,#56,#58,#60,#62,#64,#66,#68,#70,#72,#74,#76));
#153=CARTESIAN_POINT('',(0.0,0.0,0.0));
#154=DIRECTION('',(0.0,0.0,1.0));
#155=DIRECTION('',(1.0,0.0,0.0));
#156= (NAMED_UNIT(#86)LENGTH_UNIT()SI_UNIT(.MILLI.,.METRE.));
#157=SURFACE_SIDE_STYLE('',(#214));
#158=EDGE_LOOP('',(#215,#216,#217,#218));
#159=AXIS2_PLACEMENT_3D('',#219,#220,#221);
#160=SURFACE_SIDE_STYLE('',(#222));
#161=EDGE_LOOP('',(#223,#224,#225,#226));
#162=AXIS2_PLACEMENT_3D('',#227,#228,#229);
#163=SURFACE_SIDE_STYLE('',(#230));
#164=EDGE_LOOP('',(#231,#232,#233,#234,#235,#236,#237,#238));
#165=AXIS2_PLACEMENT_3D('',#239,#240,#241);
#166=SURFACE_SIDE_STYLE('',(#242));
#167=EDGE_LOOP('',(#243,#244,#245,#246,#247,#248,#249,#250));
#168=AXIS2_PLACEMENT_3D('',#251,#252,#253);
#169=SURFACE_SIDE_STYLE('',(#254));
#170=EDGE_LOOP('',(#255,#256,#257,#258));
#171=AXIS2_PLACEMENT_3D('',#259,#260,#261);
#172=SURFACE_SIDE_STYLE('',(#262));
#173=EDGE_LOOP('',(#263,#264,#265,#266,#267,#268,#269,#270));
#174=AXIS2_PLACEMENT_3D('',#271,#272,#273);
#175=SURFACE_SIDE_STYLE('',(#274));
#176=EDGE_LOOP('',(#275,#276,#277,#278));
#177=AXIS2_PLACEMENT_3D('',#279,#280,#281);
#178=SURFACE_SIDE_STYLE('',(#282));
#179=EDGE_LOOP('',(#283,#284,#285,#286,#287,#288,#289,#290));
#180=AXIS2_PLACEMENT_3D('',#291,#292,#293);
#181=SURFACE_SIDE_STYLE('',(#294));
#182=EDGE_LOOP('',(#295,#296));
#183=EDGE_LOOP('',(#297,#298));
#184=AXIS2_PLACEMENT_3D('',#299,#300,#301);
#185=SURFACE_SIDE_STYLE('',(#302));
#186=EDGE_LOOP('',(#303,#304,#305,#306));
#187=AXIS2_PLACEMENT_3D('',#307,#308,#309);
#188=SURFACE_SIDE_STYLE('',(#310));
#189=EDGE_LOOP('',(#311,#312));
#190=EDGE_LOOP('',(#313,#314));
#191=AXIS2_PLACEMENT_3D('',#315,#316,#317);
#192=SURFACE_SIDE_STYLE('',(#318));
#193=EDGE_LOOP('',(#319,#320,#321,#322));
#194=AXIS2_PLACEMENT_3D('',#323,#324,#325);
#195=SURFACE_SIDE_STYLE('',(#326));
#196=EDGE_LOOP('',(#327,#328,#329,#330));
#197=AXIS2_PLACEMENT_3D('',#331,#332,#333);
#198=SURFACE_SIDE_STYLE('',(#334));
#199=EDGE_LOOP('',(#335,#336,#337,#338));
#200=AXIS2_PLACEMENT_3D('',#339,#340,#341);
#201=SURFACE_SIDE_STYLE('',(#342));
#202=EDGE_LOOP('',(#343,#344,#345,#346,#347,#348));
#203=AXIS2_PLACEMENT_3D('',#349,#350,#351);
#204=SURFACE_SIDE_STYLE('',(#352));
#205=EDGE_LOOP('',(#353,#354,#355,#356));
#206=AXIS2_PLACEMENT_3D('',#357,#358,#359);
#207=SURFACE_SIDE_STYLE('',(#360));
#208=EDGE_LOOP('',(#361,#362,#363,#364));
#209=AXIS2_PLACEMENT_3D('',#365,#366,#367);
#210=SURFACE_SIDE_STYLE('',(#368));
#211=EDGE_LOOP('',(#369,#370,#371,#372,#373,#374));
#212=AXIS2_PLACEMENT_3D('',#375,#376,#377);
#214=SURFACE_STYLE_FILL_AREA(#378);
#215=ORIENTED_EDGE('',*,*,#379,.F.);
#216=ORIENTED_EDGE('',*,*,#380,.T.);
#217=ORIENTED_EDGE('',*,*,#381,.F.);
#218=ORIENTED_EDGE('',*,*,#382,.F.);
#219=CARTESIAN_POINT('',(0.0,10.6,0.0));
#220=DIRECTION('',(-0.0,-1.0,-0.0));
#221=DIRECTION('',(0.0,0.0,-1.0));
#222=SURFACE_STYLE_FILL_AREA(#383);
#223=ORIENTED_EDGE('',*,*,#381,.T.);
#224=ORIENTED_EDGE('',*,*,#384,.T.);
#225=ORIENTED_EDGE('',*,*,#385,.F.);
#226=ORIENTED_EDGE('',*,*,#386,.F.);
#227=CARTESIAN_POINT('',(0.0,0.0,0.0));
#228=DIRECTION('',(0.0,-1.0,-0.0));
#229=DIRECTION('',(0.0,0.0,-1.0));
#230=SURFACE_STYLE_FILL_AREA(#387);
#231=ORIENTED_EDGE('',*,*,#388,.T.);
#232=ORIENTED_EDGE('',*,*,#389,.T.);
#233=ORIENTED_EDGE('',*,*,#390,.F.);
#234=ORIENTED_EDGE('',*,*,#391,.T.);
#235=ORIENTED_EDGE('',*,*,#392,.F.);
#236=ORIENTED_EDGE('',*,*,#393,.F.);
#237=ORIENTED_EDGE('',*,*,#394,.F.);
#238=ORIENTED_EDGE('',*,*,#395,.F.);
#239=CARTESIAN_POINT('',(0.0,0.0,0.0));
#240=DIRECTION('',(0.0,-1.0,-0.0));
#241=DIRECTION('',(0.0,0.0,-1.0));
#242=SURFACE_STYLE_FILL_AREA(#396);
#243=ORIENTED_EDGE('',*,*,#397,.F.);
#244=ORIENTED_EDGE('',*,*,#398,.T.);
#245=ORIENTED_EDGE('',*,*,#399,.F.);
#246=ORIENTED_EDGE('',*,*,#400,.T.);
#247=ORIENTED_EDGE('',*,*,#401,.T.);
#248=ORIENTED_EDGE('',*,*,#402,.F.);
#249=ORIENTED_EDGE('',*,*,#403,.F.);
#250=ORIENTED_EDGE('',*,*,#404,.F.);
#251=CARTESIAN_POINT('',(0.0,0.0,0.0));
#252=DIRECTION('',(0.0,-1.0,-0.0));
#253=DIRECTION('',(0.0,0.0,-1.0));
#254=SURFACE_STYLE_FILL_AREA(#405);
#255=ORIENTED_EDGE('',*,*,#401,.F.);
#256=ORIENTED_EDGE('',*,*,#406,.F.);
#257=ORIENTED_EDGE('',*,*,#407,.T.);
#258=ORIENTED_EDGE('',*,*,#408,.F.);
#259=CARTESIAN_POINT('',(-1.25,-2.60228850187255E-016,0.0));
#260=DIRECTION('',(0.0,1.0,0.0));
#261=DIRECTION('',(0.0,0.0,1.0));
#262=SURFACE_STYLE_FILL_AREA(#409);
#263=ORIENTED_EDGE('',*,*,#398,.F.);
#264=ORIENTED_EDGE('',*,*,#410,.F.);
#265=ORIENTED_EDGE('',*,*,#404,.T.);
#266=ORIENTED_EDGE('',*,*,#411,.F.);
#267=ORIENTED_EDGE('',*,*,#412,.T.);
#268=ORIENTED_EDGE('',*,*,#413,.T.);
#269=ORIENTED_EDGE('',*,*,#414,.F.);
#270=ORIENTED_EDGE('',*,*,#415,.F.);
#271=CARTESIAN_POINT('',(0.0,0.0,0.0));
#272=DIRECTION('',(0.0,-1.0,-0.0));
#273=DIRECTION('',(0.0,0.0,-1.0));
#274=SURFACE_STYLE_FILL_AREA(#416);
#275=ORIENTED_EDGE('',*,*,#392,.T.);
#276=ORIENTED_EDGE('',*,*,#417,.F.);
#277=ORIENTED_EDGE('',*,*,#413,.F.);
#278=ORIENTED_EDGE('',*,*,#418,.F.);
#279=CARTESIAN_POINT('',(-1.25,-2.60228850187255E-016,0.0));
#280=DIRECTION('',(0.0,1.0,0.0));
#281=DIRECTION('',(0.0,0.0,1.0));
#282=SURFACE_STYLE_FILL_AREA(#419);
#283=ORIENTED_EDGE('',*,*,#389,.F.);
#284=ORIENTED_EDGE('',*,*,#420,.T.);
#285=ORIENTED_EDGE('',*,*,#395,.T.);
#286=ORIENTED_EDGE('',*,*,#421,.F.);
#287=ORIENTED_EDGE('',*,*,#422,.T.);
#288=ORIENTED_EDGE('',*,*,#407,.F.);
#289=ORIENTED_EDGE('',*,*,#423,.F.);
#290=ORIENTED_EDGE('',*,*,#424,.F.);
#291=CARTESIAN_POINT('',(0.0,0.0,0.0));
#292=DIRECTION('',(0.0,-1.0,-0.0));
#293=DIRECTION('',(0.0,0.0,-1.0));
#294=SURFACE_STYLE_FILL_AREA(#425);
#295=ORIENTED_EDGE('',*,*,#388,.F.);
#296=ORIENTED_EDGE('',*,*,#420,.F.);
#297=ORIENTED_EDGE('',*,*,#385,.T.);
#298=ORIENTED_EDGE('',*,*,#426,.T.);
#299=CARTESIAN_POINT('',(-5.5,2.0,0.0));
#300=DIRECTION('',(0.0,-1.0,0.0));
#301=DIRECTION('',(0.0,0.0,-1.0));
#302=SURFACE_STYLE_FILL_AREA(#427);
#303=ORIENTED_EDGE('',*,*,#384,.F.);
#304=ORIENTED_EDGE('',*,*,#428,.T.);
#305=ORIENTED_EDGE('',*,*,#386,.T.);
#306=ORIENTED_EDGE('',*,*,#426,.F.);
#307=CARTESIAN_POINT('',(0.0,0.0,0.0));
#308=DIRECTION('',(0.0,-1.0,-0.0));
#309=DIRECTION('',(0.0,0.0,-1.0));
#310=SURFACE_STYLE_FILL_AREA(#429);
#311=ORIENTED_EDGE('',*,*,#430,.T.);
#312=ORIENTED_EDGE('',*,*,#379,.T.);
#313=ORIENTED_EDGE('',*,*,#410,.T.);
#314=ORIENTED_EDGE('',*,*,#397,.T.);
#315=CARTESIAN_POINT('',(-2.5,11.0,0.0));
#316=DIRECTION('',(0.0,-1.0,0.0));
#317=DIRECTION('',(0.0,0.0,-1.0));
#318=SURFACE_STYLE_FILL_AREA(#431);
#319=ORIENTED_EDGE('',*,*,#380,.F.);
#320=ORIENTED_EDGE('',*,*,#430,.F.);
#321=ORIENTED_EDGE('',*,*,#382,.T.);
#322=ORIENTED_EDGE('',*,*,#428,.F.);
#323=CARTESIAN_POINT('',(0.0,10.6,0.0));
#324=DIRECTION('',(-0.0,-1.0,-0.0));
#325=DIRECTION('',(0.0,0.0,-1.0));
#326=SURFACE_STYLE_FILL_AREA(#432);
#327=ORIENTED_EDGE('',*,*,#418,.T.);
#328=ORIENTED_EDGE('',*,*,#412,.F.);
#329=ORIENTED_EDGE('',*,*,#433,.F.);
#330=ORIENTED_EDGE('',*,*,#393,.T.);
#331=CARTESIAN_POINT('',(0.75,1.5,-0.999999999999998));
#332=DIRECTION('',(1.0,0.0,-4.87432631130281E-017));
#333=DIRECTION('',(-4.87432631130281E-017,0.0,-1.0));
#334=SURFACE_STYLE_FILL_AREA(#434);
#335=ORIENTED_EDGE('',*,*,#408,.T.);
#336=ORIENTED_EDGE('',*,*,#422,.F.);
#337=ORIENTED_EDGE('',*,*,#435,.F.);
#338=ORIENTED_EDGE('',*,*,#402,.T.);
#339=CARTESIAN_POINT('',(-0.75,1.5,-0.999999999999998));
#340=DIRECTION('',(-1.0,0.0,0.0));
#341=DIRECTION('',(0.0,0.0,1.0));
#342=SURFACE_STYLE_FILL_AREA(#436);
#343=ORIENTED_EDGE('',*,*,#411,.T.);
#344=ORIENTED_EDGE('',*,*,#403,.T.);
#345=ORIENTED_EDGE('',*,*,#435,.T.);
#346=ORIENTED_EDGE('',*,*,#421,.T.);
#347=ORIENTED_EDGE('',*,*,#394,.T.);
#348=ORIENTED_EDGE('',*,*,#433,.T.);
#349=CARTESIAN_POINT('',(0.0,1.5,0.0));
#350=DIRECTION('',(0.0,-1.0,0.0));
#351=DIRECTION('',(0.0,0.0,-1.0));
#352=SURFACE_STYLE_FILL_AREA(#437);
#353=ORIENTED_EDGE('',*,*,#406,.T.);
#354=ORIENTED_EDGE('',*,*,#400,.F.);
#355=ORIENTED_EDGE('',*,*,#438,.F.);
#356=ORIENTED_EDGE('',*,*,#423,.T.);
#357=CARTESIAN_POINT('',(-0.75,1.5,5.44862367942584));
#358=DIRECTION('',(-1.0,0.0,0.0));
#359=DIRECTION('',(0.0,0.0,1.0));
#360=SURFACE_STYLE_FILL_AREA(#439);
#361=ORIENTED_EDGE('',*,*,#417,.T.);
#362=ORIENTED_EDGE('',*,*,#391,.F.);
#363=ORIENTED_EDGE('',*,*,#440,.F.);
#364=ORIENTED_EDGE('',*,*,#414,.T.);
#365=CARTESIAN_POINT('',(0.75,1.5,5.44862367942584));
#366=DIRECTION('',(1.0,0.0,0.0));
#367=DIRECTION('',(0.0,0.0,-1.0));
#368=SURFACE_STYLE_FILL_AREA(#441);
#369=ORIENTED_EDGE('',*,*,#399,.T.);
#370=ORIENTED_EDGE('',*,*,#415,.T.);
#371=ORIENTED_EDGE('',*,*,#440,.T.);
#372=ORIENTED_EDGE('',*,*,#390,.T.);
#373=ORIENTED_EDGE('',*,*,#424,.T.);
#374=ORIENTED_EDGE('',*,*,#438,.T.);
#375=CARTESIAN_POINT('',(0.0,1.5,0.0));
#376=DIRECTION('',(0.0,-1.0,0.0));
#377=DIRECTION('',(0.0,0.0,-1.0));
#378=FILL_AREA_STYLE('',(#442));
#379=EDGE_CURVE('',#443,#444,#445,.T.);
#380=EDGE_CURVE('',#443,#446,#447,.T.);
#381=EDGE_CURVE('',#448,#446,#449,.T.);
#382=EDGE_CURVE('',#444,#448,#450,.T.);
#383=FILL_AREA_STYLE('',(#451));
#384=EDGE_CURVE('',#446,#452,#453,.T.);
#385=EDGE_CURVE('',#454,#452,#455,.T.);
#386=EDGE_CURVE('',#448,#454,#456,.T.);
#387=FILL_AREA_STYLE('',(#457));
#388=EDGE_CURVE('',#458,#459,#460,.T.);
#389=EDGE_CURVE('',#459,#461,#462,.T.);
#390=EDGE_CURVE('',#463,#461,#464,.T.);
#391=EDGE_CURVE('',#463,#465,#466,.T.);
#392=EDGE_CURVE('',#467,#465,#468,.T.);
#393=EDGE_CURVE('',#469,#467,#470,.T.);
#394=EDGE_CURVE('',#471,#469,#472,.T.);
#395=EDGE_CURVE('',#458,#471,#473,.T.);
#396=FILL_AREA_STYLE('',(#474));
#397=EDGE_CURVE('',#475,#476,#477,.T.);
#398=EDGE_CURVE('',#475,#478,#479,.T.);
#399=EDGE_CURVE('',#480,#478,#481,.T.);
#400=EDGE_CURVE('',#480,#482,#483,.T.);
#401=EDGE_CURVE('',#482,#484,#485,.T.);
#402=EDGE_CURVE('',#486,#484,#487,.T.);
#403=EDGE_CURVE('',#488,#486,#489,.T.);
#404=EDGE_CURVE('',#476,#488,#490,.T.);
#405=FILL_AREA_STYLE('',(#491));
#406=EDGE_CURVE('',#492,#482,#493,.T.);
#407=EDGE_CURVE('',#492,#494,#495,.T.);
#408=EDGE_CURVE('',#484,#494,#496,.T.);
#409=FILL_AREA_STYLE('',(#497));
#410=EDGE_CURVE('',#476,#475,#498,.T.);
#411=EDGE_CURVE('',#499,#488,#500,.T.);
#412=EDGE_CURVE('',#499,#501,#502,.T.);
#413=EDGE_CURVE('',#501,#503,#504,.T.);
#414=EDGE_CURVE('',#505,#503,#506,.T.);
#415=EDGE_CURVE('',#478,#505,#507,.T.);
#416=FILL_AREA_STYLE('',(#508));
#417=EDGE_CURVE('',#503,#465,#509,.T.);
#418=EDGE_CURVE('',#467,#501,#510,.T.);
#419=FILL_AREA_STYLE('',(#511));
#420=EDGE_CURVE('',#459,#458,#512,.T.);
#421=EDGE_CURVE('',#513,#471,#514,.T.);
#422=EDGE_CURVE('',#513,#494,#515,.T.);
#423=EDGE_CURVE('',#516,#492,#517,.T.);
#424=EDGE_CURVE('',#461,#516,#518,.T.);
#425=FILL_AREA_STYLE('',(#519));
#426=EDGE_CURVE('',#452,#454,#520,.T.);
#427=FILL_AREA_STYLE('',(#521));
#428=EDGE_CURVE('',#446,#448,#522,.T.);
#429=FILL_AREA_STYLE('',(#523));
#430=EDGE_CURVE('',#444,#443,#524,.T.);
#431=FILL_AREA_STYLE('',(#525));
#432=FILL_AREA_STYLE('',(#526));
#433=EDGE_CURVE('',#469,#499,#527,.T.);
#434=FILL_AREA_STYLE('',(#528));
#435=EDGE_CURVE('',#486,#513,#529,.T.);
#436=FILL_AREA_STYLE('',(#530));
#437=FILL_AREA_STYLE('',(#531));
#438=EDGE_CURVE('',#516,#480,#532,.T.);
#439=FILL_AREA_STYLE('',(#533));
#440=EDGE_CURVE('',#505,#463,#534,.T.);
#441=FILL_AREA_STYLE('',(#535));
#442=FILL_AREA_STYLE_COLOUR('',#536);
#443=VERTEX_POINT('',#537);
#444=VERTEX_POINT('',#538);
#445=CIRCLE('',#539,2.1);
#446=VERTEX_POINT('',#540);
#447=LINE('',#541,#542);
#448=VERTEX_POINT('',#543);
#449=CIRCLE('',#544,2.5);
#450=LINE('',#545,#546);
#451=FILL_AREA_STYLE_COLOUR('',#547);
#452=VERTEX_POINT('',#548);
#453=LINE('',#549,#550);
#454=VERTEX_POINT('',#551);
#455=CIRCLE('',#552,2.5);
#456=LINE('',#553,#554);
#457=FILL_AREA_STYLE_COLOUR('',#555);
#458=VERTEX_POINT('',#556);
#459=VERTEX_POINT('',#557);
#460=CIRCLE('',#558,5.5);
#461=VERTEX_POINT('',#559);
#462=LINE('',#560,#561);
#463=VERTEX_POINT('',#562);
#464=CIRCLE('',#563,5.5);
#465=VERTEX_POINT('',#564);
#466=LINE('',#565,#566);
#467=VERTEX_POINT('',#567);
#468=CIRCLE('',#568,5.5);
#469=VERTEX_POINT('',#569);
#470=LINE('',#570,#571);
#471=VERTEX_POINT('',#572);
#472=CIRCLE('',#573,5.5);
#473=LINE('',#574,#575);
#474=FILL_AREA_STYLE_COLOUR('',#576);
#475=VERTEX_POINT('',#577);
#476=VERTEX_POINT('',#578);
#477=CIRCLE('',#579,1.25);
#478=VERTEX_POINT('',#580);
#479=LINE('',#581,#582);
#480=VERTEX_POINT('',#583);
#481=CIRCLE('',#584,1.25);
#482=VERTEX_POINT('',#585);
#483=LINE('',#586,#587);
#484=VERTEX_POINT('',#588);
#485=CIRCLE('',#589,1.25);
#486=VERTEX_POINT('',#590);
#487=LINE('',#591,#592);
#488=VERTEX_POINT('',#593);
#489=CIRCLE('',#594,1.25);
#490=LINE('',#595,#596);
#491=FILL_AREA_STYLE_COLOUR('',#597);
#492=VERTEX_POINT('',#598);
#493=LINE('',#599,#600);
#494=VERTEX_POINT('',#601);
#495=CIRCLE('',#602,5.5);
#496=LINE('',#603,#604);
#497=FILL_AREA_STYLE_COLOUR('',#605);
#498=CIRCLE('',#606,1.25);
#499=VERTEX_POINT('',#607);
#500=CIRCLE('',#608,1.25);
#501=VERTEX_POINT('',#609);
#502=LINE('',#610,#611);
#503=VERTEX_POINT('',#612);
#504=CIRCLE('',#613,1.25);
#505=VERTEX_POINT('',#614);
#506=LINE('',#615,#616);
#507=CIRCLE('',#617,1.25);
#508=FILL_AREA_STYLE_COLOUR('',#618);
#509=LINE('',#619,#620);
#510=LINE('',#621,#622);
#511=FILL_AREA_STYLE_COLOUR('',#623);
#512=CIRCLE('',#624,5.5);
#513=VERTEX_POINT('',#625);
#514=CIRCLE('',#626,5.5);
#515=LINE('',#627,#628);
#516=VERTEX_POINT('',#629);
#517=LINE('',#630,#631);
#518=CIRCLE('',#632,5.5);
#519=FILL_AREA_STYLE_COLOUR('',#633);
#520=CIRCLE('',#634,2.5);
#521=FILL_AREA_STYLE_COLOUR('',#635);
#522=CIRCLE('',#636,2.5);
#523=FILL_AREA_STYLE_COLOUR('',#637);
#524=CIRCLE('',#638,2.1);
#525=FILL_AREA_STYLE_COLOUR('',#639);
#526=FILL_AREA_STYLE_COLOUR('',#640);
#527=LINE('',#641,#642);
#528=FILL_AREA_STYLE_COLOUR('',#643);
#529=LINE('',#644,#645);
#530=FILL_AREA_STYLE_COLOUR('',#646);
#531=FILL_AREA_STYLE_COLOUR('',#647);
#532=LINE('',#648,#649);
#533=FILL_AREA_STYLE_COLOUR('',#650);
#534=LINE('',#651,#652);
#535=FILL_AREA_STYLE_COLOUR('',#653);
#536=COLOUR_RGB('',0.752941191196442,0.752941191196442,0.752941191196442);
#537=CARTESIAN_POINT('',(2.81659461379147E-016,11.0,2.1));
#538=CARTESIAN_POINT('',(0.0,11.0,-2.1));
#539=AXIS2_PLACEMENT_3D('',#654,#655,#656);
#540=CARTESIAN_POINT('',(3.06151588455594E-016,10.6,2.5));
#541=CARTESIAN_POINT('',(3.06151588455594E-016,10.6,2.5));
#542=VECTOR('',#657,1000.0);
#543=CARTESIAN_POINT('',(0.0,10.6,-2.5));
#544=AXIS2_PLACEMENT_3D('',#658,#659,#660);
#545=CARTESIAN_POINT('',(0.0,10.6,-2.5));
#546=VECTOR('',#661,1000.0);
#547=COLOUR_RGB('',0.752941191196442,0.752941191196442,0.752941191196442);
#548=CARTESIAN_POINT('',(3.06151588455594E-016,2.0,2.5));
#549=CARTESIAN_POINT('',(3.06151588455594E-016,0.0,2.5));
#550=VECTOR('',#662,1000.0);
#551=CARTESIAN_POINT('',(0.0,2.0,-2.5));
#552=AXIS2_PLACEMENT_3D('',#663,#664,#665);
#553=CARTESIAN_POINT('',(0.0,0.0,-2.5));
#554=VECTOR('',#666,1000.0);
#555=COLOUR_RGB('',0.752941191196442,0.752941191196442,0.752941191196442);
#556=CARTESIAN_POINT('',(0.0,2.0,-5.5));
#557=CARTESIAN_POINT('',(6.73533494602307E-016,2.0,5.5));
#558=AXIS2_PLACEMENT_3D('',#667,#668,#669);
#559=CARTESIAN_POINT('',(6.73533494602307E-016,1.5,5.5));
#560=CARTESIAN_POINT('',(6.73533494602307E-016,0.0,5.5));
#561=VECTOR('',#670,1000.0);
#562=CARTESIAN_POINT('',(0.75,1.5,5.44862367942584));
#563=AXIS2_PLACEMENT_3D('',#671,#672,#673);
#564=CARTESIAN_POINT('',(0.75,0.0,5.44862367942584));
#565=CARTESIAN_POINT('',(0.75,1.5,5.44862367942584));
#566=VECTOR('',#674,1000.0);
#567=CARTESIAN_POINT('',(0.75,0.0,-5.44862367942584));
#568=AXIS2_PLACEMENT_3D('',#675,#676,#677);
#569=CARTESIAN_POINT('',(0.75,1.5,-5.44862367942584));
#570=CARTESIAN_POINT('',(0.75,1.5,-5.44862367942584));
#571=VECTOR('',#678,1000.0);
#572=CARTESIAN_POINT('',(0.0,1.5,-5.5));
#573=AXIS2_PLACEMENT_3D('',#679,#680,#681);
#574=CARTESIAN_POINT('',(0.0,0.0,-5.5));
#575=VECTOR('',#682,1000.0);
#576=COLOUR_RGB('',0.752941191196442,0.752941191196442,0.752941191196442);
#577=CARTESIAN_POINT('',(1.53075794227797E-016,11.0,1.25));
#578=CARTESIAN_POINT('',(0.0,11.0,-1.25));
#579=AXIS2_PLACEMENT_3D('',#683,#684,#685);
#580=CARTESIAN_POINT('',(1.53075794227797E-016,1.5,1.25));
#581=CARTESIAN_POINT('',(1.53075794227797E-016,0.0,1.25));
#582=VECTOR('',#686,1000.0);
#583=CARTESIAN_POINT('',(-0.75,1.5,0.999999999999998));
#584=AXIS2_PLACEMENT_3D('',#687,#688,#689);
#585=CARTESIAN_POINT('',(-0.75,0.0,0.999999999999998));
#586=CARTESIAN_POINT('',(-0.75,1.5,0.999999999999998));
#587=VECTOR('',#690,1000.0);
#588=CARTESIAN_POINT('',(-0.75,0.0,-0.999999999999998));
#589=AXIS2_PLACEMENT_3D('',#691,#692,#693);
#590=CARTESIAN_POINT('',(-0.75,1.5,-0.999999999999998));
#591=CARTESIAN_POINT('',(-0.75,1.5,-0.999999999999998));
#592=VECTOR('',#694,1000.0);
#593=CARTESIAN_POINT('',(0.0,1.5,-1.25));
#594=AXIS2_PLACEMENT_3D('',#695,#696,#697);
#595=CARTESIAN_POINT('',(0.0,0.0,-1.25));
#596=VECTOR('',#698,1000.0);
#597=COLOUR_RGB('',0.752941191196442,0.752941191196442,0.752941191196442);
#598=CARTESIAN_POINT('',(-0.75,0.0,5.44862367942584));
#599=CARTESIAN_POINT('',(-0.75,0.0,5.44862367942584));
#600=VECTOR('',#699,1000.0);
#601=CARTESIAN_POINT('',(-0.75,0.0,-5.44862367942584));
#602=AXIS2_PLACEMENT_3D('',#700,#701,#702);
#603=CARTESIAN_POINT('',(-0.75,0.0,-0.999999999999998));
#604=VECTOR('',#703,1000.0);
#605=COLOUR_RGB('',0.752941191196442,0.752941191196442,0.752941191196442);
#606=AXIS2_PLACEMENT_3D('',#704,#705,#706);
#607=CARTESIAN_POINT('',(0.75,1.5,-0.999999999999998));
#608=AXIS2_PLACEMENT_3D('',#707,#708,#709);
#609=CARTESIAN_POINT('',(0.75,0.0,-0.999999999999998));
#610=CARTESIAN_POINT('',(0.75,1.5,-0.999999999999998));
#611=VECTOR('',#710,1000.0);
#612=CARTESIAN_POINT('',(0.75,0.0,0.999999999999998));
#613=AXIS2_PLACEMENT_3D('',#711,#712,#713);
#614=CARTESIAN_POINT('',(0.75,1.5,0.999999999999998));
#615=CARTESIAN_POINT('',(0.75,1.5,0.999999999999998));
#616=VECTOR('',#714,1000.0);
#617=AXIS2_PLACEMENT_3D('',#715,#716,#717);
#618=COLOUR_RGB('',0.752941191196442,0.752941191196442,0.752941191196442);
#619=CARTESIAN_POINT('',(0.75,0.0,5.44862367942584));
#620=VECTOR('',#718,1000.0);
#621=CARTESIAN_POINT('',(0.75,0.0,-0.999999999999998));
#622=VECTOR('',#719,1000.0);
#623=COLOUR_RGB('',0.752941191196442,0.752941191196442,0.752941191196442);
#624=AXIS2_PLACEMENT_3D('',#720,#721,#722);
#625=CARTESIAN_POINT('',(-0.75,1.5,-5.44862367942584));
#626=AXIS2_PLACEMENT_3D('',#723,#724,#725);
#627=CARTESIAN_POINT('',(-0.75,1.5,-5.44862367942584));
#628=VECTOR('',#726,1000.0);
#629=CARTESIAN_POINT('',(-0.75,1.5,5.44862367942584));
#630=CARTESIAN_POINT('',(-0.75,1.5,5.44862367942584));
#631=VECTOR('',#727,1000.0);
#632=AXIS2_PLACEMENT_3D('',#728,#729,#730);
#633=COLOUR_RGB('',0.752941191196442,0.752941191196442,0.752941191196442);
#634=AXIS2_PLACEMENT_3D('',#731,#732,#733);
#635=COLOUR_RGB('',0.752941191196442,0.752941191196442,0.752941191196442);
#636=AXIS2_PLACEMENT_3D('',#734,#735,#736);
#637=COLOUR_RGB('',0.752941191196442,0.752941191196442,0.752941191196442);
#638=AXIS2_PLACEMENT_3D('',#737,#738,#739);
#639=COLOUR_RGB('',0.752941191196442,0.752941191196442,0.752941191196442);
#640=COLOUR_RGB('',0.752941191196442,0.752941191196442,0.752941191196442);
#641=CARTESIAN_POINT('',(0.75,1.5,-0.999999999999998));
#642=VECTOR('',#740,1000.0);
#643=COLOUR_RGB('',0.752941191196442,0.752941191196442,0.752941191196442);
#644=CARTESIAN_POINT('',(-0.75,1.5,-0.999999999999998));
#645=VECTOR('',#741,1000.0);
#646=COLOUR_RGB('',0.752941191196442,0.752941191196442,0.752941191196442);
#647=COLOUR_RGB('',0.752941191196442,0.752941191196442,0.752941191196442);
#648=CARTESIAN_POINT('',(-0.75,1.5,5.44862367942584));
#649=VECTOR('',#742,1000.0);
#650=COLOUR_RGB('',0.752941191196442,0.752941191196442,0.752941191196442);
#651=CARTESIAN_POINT('',(0.75,1.5,5.44862367942584));
#652=VECTOR('',#743,1000.0);
#653=COLOUR_RGB('',0.752941191196442,0.752941191196442,0.752941191196442);
#654=CARTESIAN_POINT('',(0.0,11.0,0.0));
#655=DIRECTION('',(0.0,1.0,0.0));
#656=DIRECTION('',(0.0,0.0,-1.0));
#657=DIRECTION('',(8.65927457071937E-017,-0.707106781186546,0.707106781186549));
#658=CARTESIAN_POINT('',(0.0,10.6,0.0));
#659=DIRECTION('',(0.0,-1.0,-0.0));
#660=DIRECTION('',(0.0,0.0,-1.0));
#661=DIRECTION('',(0.0,-0.707106781186546,-0.707106781186549));
#662=DIRECTION('',(-0.0,-1.0,-0.0));
#663=CARTESIAN_POINT('',(0.0,2.0,0.0));
#664=DIRECTION('',(0.0,-1.0,-0.0));
#665=DIRECTION('',(0.0,0.0,-1.0));
#666=DIRECTION('',(-0.0,-1.0,-0.0));
#667=CARTESIAN_POINT('',(0.0,2.0,0.0));
#668=DIRECTION('',(0.0,-1.0,-0.0));
#669=DIRECTION('',(0.0,0.0,-1.0));
#670=DIRECTION('',(-0.0,-1.0,-0.0));
#671=CARTESIAN_POINT('',(0.0,1.5,0.0));
#672=DIRECTION('',(0.0,-1.0,0.0));
#673=DIRECTION('',(0.0,0.0,-1.0));
#674=DIRECTION('',(-0.0,-1.0,-0.0));
#675=CARTESIAN_POINT('',(0.0,0.0,0.0));
#676=DIRECTION('',(0.0,-1.0,-0.0));
#677=DIRECTION('',(0.0,0.0,-1.0));
#678=DIRECTION('',(-0.0,-1.0,-0.0));
#679=CARTESIAN_POINT('',(0.0,1.5,0.0));
#680=DIRECTION('',(0.0,-1.0,0.0));
#681=DIRECTION('',(0.0,0.0,-1.0));
#682=DIRECTION('',(-0.0,-1.0,-0.0));
#683=CARTESIAN_POINT('',(0.0,11.0,0.0));
#684=DIRECTION('',(0.0,-1.0,-0.0));
#685=DIRECTION('',(0.0,0.0,-1.0));
#686=DIRECTION('',(-0.0,-1.0,-0.0));
#687=CARTESIAN_POINT('',(0.0,1.5,0.0));
#688=DIRECTION('',(0.0,1.0,0.0));
#689=DIRECTION('',(0.0,0.0,-1.0));
#690=DIRECTION('',(-0.0,-1.0,-0.0));
#691=CARTESIAN_POINT('',(0.0,0.0,0.0));
#692=DIRECTION('',(0.0,-1.0,-0.0));
#693=DIRECTION('',(0.0,0.0,-1.0));
#694=DIRECTION('',(-0.0,-1.0,-0.0));
#695=CARTESIAN_POINT('',(0.0,1.5,0.0));
#696=DIRECTION('',(0.0,1.0,0.0));
#697=DIRECTION('',(0.0,0.0,-1.0));
#698=DIRECTION('',(-0.0,-1.0,-0.0));
#699=DIRECTION('',(0.0,0.0,-1.0));
#700=CARTESIAN_POINT('',(0.0,0.0,0.0));
#701=DIRECTION('',(0.0,-1.0,-0.0));
#702=DIRECTION('',(0.0,0.0,-1.0));
#703=DIRECTION('',(0.0,0.0,-1.0));
#704=CARTESIAN_POINT('',(0.0,11.0,0.0));
#705=DIRECTION('',(0.0,-1.0,-0.0));
#706=DIRECTION('',(0.0,0.0,-1.0));
#707=CARTESIAN_POINT('',(0.0,1.5,0.0));
#708=DIRECTION('',(0.0,1.0,0.0));
#709=DIRECTION('',(0.0,0.0,-1.0));
#710=DIRECTION('',(-0.0,-1.0,-0.0));
#711=CARTESIAN_POINT('',(0.0,0.0,0.0));
#712=DIRECTION('',(0.0,-1.0,-0.0));
#713=DIRECTION('',(0.0,0.0,-1.0));
#714=DIRECTION('',(-0.0,-1.0,-0.0));
#715=CARTESIAN_POINT('',(0.0,1.5,0.0));
#716=DIRECTION('',(0.0,1.0,0.0));
#717=DIRECTION('',(0.0,0.0,-1.0));
#718=DIRECTION('',(0.0,0.0,1.0));
#719=DIRECTION('',(4.87432631130281E-017,0.0,1.0));
#720=CARTESIAN_POINT('',(0.0,2.0,0.0));
#721=DIRECTION('',(0.0,-1.0,-0.0));
#722=DIRECTION('',(0.0,0.0,-1.0));
#723=CARTESIAN_POINT('',(0.0,1.5,0.0));
#724=DIRECTION('',(0.0,-1.0,0.0));
#725=DIRECTION('',(0.0,0.0,-1.0));
#726=DIRECTION('',(-0.0,-1.0,-0.0));
#727=DIRECTION('',(-0.0,-1.0,-0.0));
#728=CARTESIAN_POINT('',(0.0,1.5,0.0));
#729=DIRECTION('',(0.0,-1.0,0.0));
#730=DIRECTION('',(0.0,0.0,-1.0));
#731=CARTESIAN_POINT('',(0.0,2.0,0.0));
#732=DIRECTION('',(0.0,-1.0,-0.0));
#733=DIRECTION('',(0.0,0.0,-1.0));
#734=CARTESIAN_POINT('',(0.0,10.6,0.0));
#735=DIRECTION('',(0.0,-1.0,-0.0));
#736=DIRECTION('',(0.0,0.0,-1.0));
#737=CARTESIAN_POINT('',(0.0,11.0,0.0));
#738=DIRECTION('',(0.0,1.0,0.0));
#739=DIRECTION('',(0.0,0.0,-1.0));
#740=DIRECTION('',(4.87432631130281E-017,0.0,1.0));
#741=DIRECTION('',(0.0,0.0,-1.0));
#742=DIRECTION('',(0.0,0.0,-1.0));
#743=DIRECTION('',(0.0,0.0,1.0));
ENDSEC;
END-ISO-10303-21;
