ISO-10303-21;
HEADER;
FILE_DESCRIPTION(('STEP AP214'),'1');
FILE_NAME('COVAL_IM6M25.stp','2017-12-28T08:28:50',('TraceParts'),('TraceParts S.A.'),'Spatial InterOp 3D',' ',' ');
FILE_SCHEMA(('automotive_design'));
ENDSEC;
DATA;
#1=MECHANICAL_DESIGN_GEOMETRIC_PRESENTATION_REPRESENTATION(' ',(#10,#11,#12,#13,#14,#15,#16,#17,#18,#19,#20,#21,#22,#23,#24,#25,#26,#27),#6);
#2=PRODUCT_DEFINITION_CONTEXT('',#28,'design');
#3=APPLICATION_PROTOCOL_DEFINITION('INTERNATIONAL STANDARD','automotive_design',1994,#28);
#4=PRODUCT_CATEGORY_RELATIONSHIP('NONE','NONE',#29,#30);
#5=SHAPE_DEFINITION_REPRESENTATION(#31,#32);
#6= (GEOMETRIC_REPRESENTATION_CONTEXT(3)GLOBAL_UNCERTAINTY_ASSIGNED_CONTEXT((#35))GLOBAL_UNIT_ASSIGNED_CONTEXT((#37,#38,#39))REPRESENTATION_CONTEXT('NONE','WORKSPACE'));
#10=STYLED_ITEM('',(#41),#42);
#11=STYLED_ITEM('',(#43),#44);
#12=STYLED_ITEM('',(#45),#46);
#13=STYLED_ITEM('',(#47),#48);
#14=STYLED_ITEM('',(#49),#50);
#15=STYLED_ITEM('',(#51),#52);
#16=STYLED_ITEM('',(#53),#54);
#17=STYLED_ITEM('',(#55),#56);
#18=STYLED_ITEM('',(#57),#58);
#19=STYLED_ITEM('',(#59),#60);
#20=STYLED_ITEM('',(#61),#62);
#21=STYLED_ITEM('',(#63),#64);
#22=STYLED_ITEM('',(#65),#66);
#23=STYLED_ITEM('',(#67),#68);
#24=STYLED_ITEM('',(#69),#70);
#25=STYLED_ITEM('',(#71),#72);
#26=STYLED_ITEM('',(#73),#74);
#27=STYLED_ITEM('',(#75),#76);
#28=APPLICATION_CONTEXT(' ');
#29=PRODUCT_CATEGORY('part','NONE');
#30=PRODUCT_RELATED_PRODUCT_CATEGORY('detail',' ',(#77));
#31=PRODUCT_DEFINITION_SHAPE('NONE','NONE',#78);
#32=ADVANCED_BREP_SHAPE_REPRESENTATION('COVAL_IM6M25',(#79,#80),#6);
#35=UNCERTAINTY_MEASURE_WITH_UNIT(LENGTH_MEASURE(1.0E-006),#37,'','');
#37= (CONVERSION_BASED_UNIT('MILLIMETRE',#83)LENGTH_UNIT()NAMED_UNIT(#86));
#38= (NAMED_UNIT(#88)PLANE_ANGLE_UNIT()SI_UNIT($,.RADIAN.));
#39= (NAMED_UNIT(#88)SOLID_ANGLE_UNIT()SI_UNIT($,.STERADIAN.));
#41=PRESENTATION_STYLE_ASSIGNMENT((#94));
#42=ADVANCED_FACE('',(#95),#96,.T.);
#43=PRESENTATION_STYLE_ASSIGNMENT((#97));
#44=ADVANCED_FACE('',(#98),#99,.F.);
#45=PRESENTATION_STYLE_ASSIGNMENT((#100));
#46=ADVANCED_FACE('',(#101),#102,.T.);
#47=PRESENTATION_STYLE_ASSIGNMENT((#103));
#48=ADVANCED_FACE('',(#104),#105,.T.);
#49=PRESENTATION_STYLE_ASSIGNMENT((#106));
#50=ADVANCED_FACE('',(#107),#108,.T.);
#51=PRESENTATION_STYLE_ASSIGNMENT((#109));
#52=ADVANCED_FACE('',(#110),#111,.T.);
#53=PRESENTATION_STYLE_ASSIGNMENT((#112));
#54=ADVANCED_FACE('',(#113,#114),#115,.T.);
#55=PRESENTATION_STYLE_ASSIGNMENT((#116));
#56=ADVANCED_FACE('',(#117),#118,.T.);
#57=PRESENTATION_STYLE_ASSIGNMENT((#119));
#58=ADVANCED_FACE('',(#120),#121,.T.);
#59=PRESENTATION_STYLE_ASSIGNMENT((#122));
#60=ADVANCED_FACE('',(#123),#124,.F.);
#61=PRESENTATION_STYLE_ASSIGNMENT((#125));
#62=ADVANCED_FACE('',(#126,#127),#128,.T.);
#63=PRESENTATION_STYLE_ASSIGNMENT((#129));
#64=ADVANCED_FACE('',(#130),#131,.T.);
#65=PRESENTATION_STYLE_ASSIGNMENT((#132));
#66=ADVANCED_FACE('',(#133),#134,.F.);
#67=PRESENTATION_STYLE_ASSIGNMENT((#135));
#68=ADVANCED_FACE('',(#136),#137,.F.);
#69=PRESENTATION_STYLE_ASSIGNMENT((#138));
#70=ADVANCED_FACE('',(#139),#140,.F.);
#71=PRESENTATION_STYLE_ASSIGNMENT((#141));
#72=ADVANCED_FACE('',(#142),#143,.F.);
#73=PRESENTATION_STYLE_ASSIGNMENT((#144));
#74=ADVANCED_FACE('',(#145),#146,.F.);
#75=PRESENTATION_STYLE_ASSIGNMENT((#147));
#76=ADVANCED_FACE('',(#148),#149,.F.);
#77=PRODUCT('COVAL_IM6M25','COVAL_IM6M25','PART-COVAL_IM6M25-DESC',(#150));
#78=PRODUCT_DEFINITION('NONE','NONE',#151,#2);
#79=MANIFOLD_SOLID_BREP('COVAL_IM6M25',#152);
#80=AXIS2_PLACEMENT_3D('',#153,#154,#155);
#83=LENGTH_MEASURE_WITH_UNIT(LENGTH_MEASURE(1.0),#156);
#86=DIMENSIONAL_EXPONENTS(1.0,0.0,0.0,0.0,0.0,0.0,0.0);
#88=DIMENSIONAL_EXPONENTS(0.0,0.0,0.0,0.0,0.0,0.0,0.0);
#94=SURFACE_STYLE_USAGE(.BOTH.,#157);
#95=FACE_OUTER_BOUND('',#158,.T.);
#96=CONICAL_SURFACE('',#159,3.0,0.78539816339745);
#97=SURFACE_STYLE_USAGE(.BOTH.,#160);
#98=FACE_OUTER_BOUND('',#161,.T.);
#99=CYLINDRICAL_SURFACE('',#162,1.75);
#100=SURFACE_STYLE_USAGE(.BOTH.,#163);
#101=FACE_OUTER_BOUND('',#164,.T.);
#102=CYLINDRICAL_SURFACE('',#165,5.5);
#103=SURFACE_STYLE_USAGE(.BOTH.,#166);
#104=FACE_OUTER_BOUND('',#167,.T.);
#105=CYLINDRICAL_SURFACE('',#168,3.0);
#106=SURFACE_STYLE_USAGE(.BOTH.,#169);
#107=FACE_OUTER_BOUND('',#170,.T.);
#108=PLANE('',#171);
#109=SURFACE_STYLE_USAGE(.BOTH.,#172);
#110=FACE_OUTER_BOUND('',#173,.T.);
#111=CYLINDRICAL_SURFACE('',#174,3.0);
#112=SURFACE_STYLE_USAGE(.BOTH.,#175);
#113=FACE_BOUND('',#176,.T.);
#114=FACE_OUTER_BOUND('',#177,.T.);
#115=PLANE('',#178);
#116=SURFACE_STYLE_USAGE(.BOTH.,#179);
#117=FACE_OUTER_BOUND('',#180,.T.);
#118=CYLINDRICAL_SURFACE('',#181,5.5);
#119=SURFACE_STYLE_USAGE(.BOTH.,#182);
#120=FACE_OUTER_BOUND('',#183,.T.);
#121=PLANE('',#184);
#122=SURFACE_STYLE_USAGE(.BOTH.,#185);
#123=FACE_OUTER_BOUND('',#186,.T.);
#124=CYLINDRICAL_SURFACE('',#187,1.75);
#125=SURFACE_STYLE_USAGE(.BOTH.,#188);
#126=FACE_OUTER_BOUND('',#189,.T.);
#127=FACE_BOUND('',#190,.T.);
#128=PLANE('',#191);
#129=SURFACE_STYLE_USAGE(.BOTH.,#192);
#130=FACE_OUTER_BOUND('',#193,.T.);
#131=CONICAL_SURFACE('',#194,3.0,0.78539816339745);
#132=SURFACE_STYLE_USAGE(.BOTH.,#195);
#133=FACE_OUTER_BOUND('',#196,.T.);
#134=PLANE('',#197);
#135=SURFACE_STYLE_USAGE(.BOTH.,#198);
#136=FACE_OUTER_BOUND('',#199,.T.);
#137=PLANE('',#200);
#138=SURFACE_STYLE_USAGE(.BOTH.,#201);
#139=FACE_OUTER_BOUND('',#202,.T.);
#140=PLANE('',#203);
#141=SURFACE_STYLE_USAGE(.BOTH.,#204);
#142=FACE_OUTER_BOUND('',#205,.T.);
#143=PLANE('',#206);
#144=SURFACE_STYLE_USAGE(.BOTH.,#207);
#145=FACE_OUTER_BOUND('',#208,.T.);
#146=PLANE('',#209);
#147=SURFACE_STYLE_USAGE(.BOTH.,#210);
#148=FACE_OUTER_BOUND('',#211,.T.);
#149=PLANE('',#212);
#150=PRODUCT_CONTEXT('',#28,'mechanical');
#151=PRODUCT_DEFINITION_FORMATION_WITH_SPECIFIED_SOURCE(' ','NONE',#77,.NOT_KNOWN.);
#152=CLOSED_SHELL('',(#42,#44,#46,#48,#50,#52,#54,#56,#58,#60,#62,#64,#66,#68,#70,#72,#74,#76));
#153=CARTESIAN_POINT('',(0.0,0.0,0.0));
#154=DIRECTION('',(0.0,0.0,1.0));
#155=DIRECTION('',(1.0,0.0,0.0));
#156= (NAMED_UNIT(#86)LENGTH_UNIT()SI_UNIT(.MILLI.,.METRE.));
#157=SURFACE_SIDE_STYLE('',(#214));
#158=EDGE_LOOP('',(#215,#216,#217,#218));
#159=AXIS2_PLACEMENT_3D('',#219,#220,#221);
#160=SURFACE_SIDE_STYLE('',(#222));
#161=EDGE_LOOP('',(#223,#224,#225,#226,#227,#228,#229,#230));
#162=AXIS2_PLACEMENT_3D('',#231,#232,#233);
#163=SURFACE_SIDE_STYLE('',(#234));
#164=EDGE_LOOP('',(#235,#236,#237,#238,#239,#240,#241,#242));
#165=AXIS2_PLACEMENT_3D('',#243,#244,#245);
#166=SURFACE_SIDE_STYLE('',(#246));
#167=EDGE_LOOP('',(#247,#248,#249,#250));
#168=AXIS2_PLACEMENT_3D('',#251,#252,#253);
#169=SURFACE_SIDE_STYLE('',(#254));
#170=EDGE_LOOP('',(#255,#256,#257,#258,#259,#260));
#171=AXIS2_PLACEMENT_3D('',#261,#262,#263);
#172=SURFACE_SIDE_STYLE('',(#264));
#173=EDGE_LOOP('',(#265,#266,#267,#268));
#174=AXIS2_PLACEMENT_3D('',#269,#270,#271);
#175=SURFACE_SIDE_STYLE('',(#272));
#176=EDGE_LOOP('',(#273,#274));
#177=EDGE_LOOP('',(#275,#276));
#178=AXIS2_PLACEMENT_3D('',#277,#278,#279);
#179=SURFACE_SIDE_STYLE('',(#280));
#180=EDGE_LOOP('',(#281,#282,#283,#284,#285,#286,#287,#288));
#181=AXIS2_PLACEMENT_3D('',#289,#290,#291);
#182=SURFACE_SIDE_STYLE('',(#292));
#183=EDGE_LOOP('',(#293,#294,#295,#296,#297,#298));
#184=AXIS2_PLACEMENT_3D('',#299,#300,#301);
#185=SURFACE_SIDE_STYLE('',(#302));
#186=EDGE_LOOP('',(#303,#304,#305,#306,#307,#308,#309,#310));
#187=AXIS2_PLACEMENT_3D('',#311,#312,#313);
#188=SURFACE_SIDE_STYLE('',(#314));
#189=EDGE_LOOP('',(#315,#316));
#190=EDGE_LOOP('',(#317,#318));
#191=AXIS2_PLACEMENT_3D('',#319,#320,#321);
#192=SURFACE_SIDE_STYLE('',(#322));
#193=EDGE_LOOP('',(#323,#324,#325,#326));
#194=AXIS2_PLACEMENT_3D('',#327,#328,#329);
#195=SURFACE_SIDE_STYLE('',(#330));
#196=EDGE_LOOP('',(#331,#332,#333,#334));
#197=AXIS2_PLACEMENT_3D('',#335,#336,#337);
#198=SURFACE_SIDE_STYLE('',(#338));
#199=EDGE_LOOP('',(#339,#340,#341,#342));
#200=AXIS2_PLACEMENT_3D('',#343,#344,#345);
#201=SURFACE_SIDE_STYLE('',(#346));
#202=EDGE_LOOP('',(#347,#348,#349,#350));
#203=AXIS2_PLACEMENT_3D('',#351,#352,#353);
#204=SURFACE_SIDE_STYLE('',(#354));
#205=EDGE_LOOP('',(#355,#356,#357,#358));
#206=AXIS2_PLACEMENT_3D('',#359,#360,#361);
#207=SURFACE_SIDE_STYLE('',(#362));
#208=EDGE_LOOP('',(#363,#364,#365,#366));
#209=AXIS2_PLACEMENT_3D('',#367,#368,#369);
#210=SURFACE_SIDE_STYLE('',(#370));
#211=EDGE_LOOP('',(#371,#372,#373,#374));
#212=AXIS2_PLACEMENT_3D('',#375,#376,#377);
#214=SURFACE_STYLE_FILL_AREA(#378);
#215=ORIENTED_EDGE('',*,*,#379,.F.);
#216=ORIENTED_EDGE('',*,*,#380,.T.);
#217=ORIENTED_EDGE('',*,*,#381,.F.);
#218=ORIENTED_EDGE('',*,*,#382,.F.);
#219=CARTESIAN_POINT('',(0.0,13.5,0.0));
#220=DIRECTION('',(-0.0,-1.0,-0.0));
#221=DIRECTION('',(0.0,0.0,-1.0));
#222=SURFACE_STYLE_FILL_AREA(#383);
#223=ORIENTED_EDGE('',*,*,#384,.F.);
#224=ORIENTED_EDGE('',*,*,#385,.T.);
#225=ORIENTED_EDGE('',*,*,#386,.T.);
#226=ORIENTED_EDGE('',*,*,#387,.F.);
#227=ORIENTED_EDGE('',*,*,#388,.F.);
#228=ORIENTED_EDGE('',*,*,#389,.F.);
#229=ORIENTED_EDGE('',*,*,#390,.T.);
#230=ORIENTED_EDGE('',*,*,#391,.F.);
#231=CARTESIAN_POINT('',(0.0,-11.0775330396476,0.0));
#232=DIRECTION('',(0.0,-1.0,-0.0));
#233=DIRECTION('',(0.0,0.0,-1.0));
#234=SURFACE_STYLE_FILL_AREA(#392);
#235=ORIENTED_EDGE('',*,*,#393,.T.);
#236=ORIENTED_EDGE('',*,*,#394,.T.);
#237=ORIENTED_EDGE('',*,*,#395,.F.);
#238=ORIENTED_EDGE('',*,*,#396,.F.);
#239=ORIENTED_EDGE('',*,*,#397,.F.);
#240=ORIENTED_EDGE('',*,*,#398,.F.);
#241=ORIENTED_EDGE('',*,*,#399,.F.);
#242=ORIENTED_EDGE('',*,*,#400,.F.);
#243=CARTESIAN_POINT('',(0.0,-11.0775330396476,0.0));
#244=DIRECTION('',(0.0,-1.0,-0.0));
#245=DIRECTION('',(0.0,0.0,-1.0));
#246=SURFACE_STYLE_FILL_AREA(#401);
#247=ORIENTED_EDGE('',*,*,#381,.T.);
#248=ORIENTED_EDGE('',*,*,#402,.T.);
#249=ORIENTED_EDGE('',*,*,#403,.F.);
#250=ORIENTED_EDGE('',*,*,#404,.F.);
#251=CARTESIAN_POINT('',(0.0,-11.0775330396476,0.0));
#252=DIRECTION('',(0.0,-1.0,-0.0));
#253=DIRECTION('',(0.0,0.0,-1.0));
#254=SURFACE_STYLE_FILL_AREA(#405);
#255=ORIENTED_EDGE('',*,*,#406,.T.);
#256=ORIENTED_EDGE('',*,*,#395,.T.);
#257=ORIENTED_EDGE('',*,*,#407,.T.);
#258=ORIENTED_EDGE('',*,*,#408,.T.);
#259=ORIENTED_EDGE('',*,*,#386,.F.);
#260=ORIENTED_EDGE('',*,*,#409,.F.);
#261=CARTESIAN_POINT('',(5.5,1.68388934882761E-016,0.0));
#262=DIRECTION('',(0.0,-1.0,0.0));
#263=DIRECTION('',(0.0,0.0,-1.0));
#264=SURFACE_STYLE_FILL_AREA(#410);
#265=ORIENTED_EDGE('',*,*,#402,.F.);
#266=ORIENTED_EDGE('',*,*,#411,.T.);
#267=ORIENTED_EDGE('',*,*,#404,.T.);
#268=ORIENTED_EDGE('',*,*,#412,.F.);
#269=CARTESIAN_POINT('',(0.0,-11.0775330396476,0.0));
#270=DIRECTION('',(0.0,-1.0,-0.0));
#271=DIRECTION('',(0.0,0.0,-1.0));
#272=SURFACE_STYLE_FILL_AREA(#413);
#273=ORIENTED_EDGE('',*,*,#403,.T.);
#274=ORIENTED_EDGE('',*,*,#412,.T.);
#275=ORIENTED_EDGE('',*,*,#393,.F.);
#276=ORIENTED_EDGE('',*,*,#414,.F.);
#277=CARTESIAN_POINT('',(3.0,2.0,0.0));
#278=DIRECTION('',(0.0,1.0,0.0));
#279=DIRECTION('',(0.0,0.0,1.0));
#280=SURFACE_STYLE_FILL_AREA(#415);
#281=ORIENTED_EDGE('',*,*,#394,.F.);
#282=ORIENTED_EDGE('',*,*,#414,.T.);
#283=ORIENTED_EDGE('',*,*,#400,.T.);
#284=ORIENTED_EDGE('',*,*,#416,.F.);
#285=ORIENTED_EDGE('',*,*,#417,.F.);
#286=ORIENTED_EDGE('',*,*,#418,.F.);
#287=ORIENTED_EDGE('',*,*,#419,.F.);
#288=ORIENTED_EDGE('',*,*,#407,.F.);
#289=CARTESIAN_POINT('',(0.0,-11.0775330396476,0.0));
#290=DIRECTION('',(0.0,-1.0,-0.0));
#291=DIRECTION('',(0.0,0.0,-1.0));
#292=SURFACE_STYLE_FILL_AREA(#420);
#293=ORIENTED_EDGE('',*,*,#421,.F.);
#294=ORIENTED_EDGE('',*,*,#416,.T.);
#295=ORIENTED_EDGE('',*,*,#399,.T.);
#296=ORIENTED_EDGE('',*,*,#422,.F.);
#297=ORIENTED_EDGE('',*,*,#423,.F.);
#298=ORIENTED_EDGE('',*,*,#390,.F.);
#299=CARTESIAN_POINT('',(5.5,1.68388934882761E-016,0.0));
#300=DIRECTION('',(0.0,-1.0,0.0));
#301=DIRECTION('',(0.0,0.0,-1.0));
#302=SURFACE_STYLE_FILL_AREA(#424);
#303=ORIENTED_EDGE('',*,*,#385,.F.);
#304=ORIENTED_EDGE('',*,*,#425,.F.);
#305=ORIENTED_EDGE('',*,*,#391,.T.);
#306=ORIENTED_EDGE('',*,*,#423,.T.);
#307=ORIENTED_EDGE('',*,*,#426,.F.);
#308=ORIENTED_EDGE('',*,*,#427,.F.);
#309=ORIENTED_EDGE('',*,*,#428,.F.);
#310=ORIENTED_EDGE('',*,*,#409,.T.);
#311=CARTESIAN_POINT('',(0.0,-11.0775330396476,0.0));
#312=DIRECTION('',(0.0,-1.0,-0.0));
#313=DIRECTION('',(0.0,0.0,-1.0));
#314=SURFACE_STYLE_FILL_AREA(#429);
#315=ORIENTED_EDGE('',*,*,#430,.T.);
#316=ORIENTED_EDGE('',*,*,#379,.T.);
#317=ORIENTED_EDGE('',*,*,#425,.T.);
#318=ORIENTED_EDGE('',*,*,#384,.T.);
#319=CARTESIAN_POINT('',(1.75,14.0,0.0));
#320=DIRECTION('',(0.0,1.0,0.0));
#321=DIRECTION('',(0.0,0.0,1.0));
#322=SURFACE_STYLE_FILL_AREA(#431);
#323=ORIENTED_EDGE('',*,*,#380,.F.);
#324=ORIENTED_EDGE('',*,*,#430,.F.);
#325=ORIENTED_EDGE('',*,*,#382,.T.);
#326=ORIENTED_EDGE('',*,*,#411,.F.);
#327=CARTESIAN_POINT('',(0.0,13.5,0.0));
#328=DIRECTION('',(-0.0,-1.0,-0.0));
#329=DIRECTION('',(0.0,0.0,-1.0));
#330=SURFACE_STYLE_FILL_AREA(#432);
#331=ORIENTED_EDGE('',*,*,#417,.T.);
#332=ORIENTED_EDGE('',*,*,#421,.T.);
#333=ORIENTED_EDGE('',*,*,#389,.T.);
#334=ORIENTED_EDGE('',*,*,#433,.F.);
#335=CARTESIAN_POINT('',(-20.0,1.5,-0.75));
#336=DIRECTION('',(0.0,1.44560289664734E-016,-1.0));
#337=DIRECTION('',(0.0,1.0,1.44560289664734E-016));
#338=SURFACE_STYLE_FILL_AREA(#434);
#339=ORIENTED_EDGE('',*,*,#418,.T.);
#340=ORIENTED_EDGE('',*,*,#433,.T.);
#341=ORIENTED_EDGE('',*,*,#388,.T.);
#342=ORIENTED_EDGE('',*,*,#435,.F.);
#343=CARTESIAN_POINT('',(-20.0,1.5,0.75));
#344=DIRECTION('',(0.0,1.0,0.0));
#345=DIRECTION('',(0.0,0.0,1.0));
#346=SURFACE_STYLE_FILL_AREA(#436);
#347=ORIENTED_EDGE('',*,*,#419,.T.);
#348=ORIENTED_EDGE('',*,*,#435,.T.);
#349=ORIENTED_EDGE('',*,*,#387,.T.);
#350=ORIENTED_EDGE('',*,*,#408,.F.);
#351=CARTESIAN_POINT('',(-20.0,1.5,0.75));
#352=DIRECTION('',(0.0,-1.44560289664734E-016,1.0));
#353=DIRECTION('',(0.0,-1.0,-1.44560289664734E-016));
#354=SURFACE_STYLE_FILL_AREA(#437);
#355=ORIENTED_EDGE('',*,*,#397,.T.);
#356=ORIENTED_EDGE('',*,*,#438,.F.);
#357=ORIENTED_EDGE('',*,*,#427,.T.);
#358=ORIENTED_EDGE('',*,*,#439,.T.);
#359=CARTESIAN_POINT('',(-20.0,1.5,0.75));
#360=DIRECTION('',(0.0,1.0,0.0));
#361=DIRECTION('',(0.0,0.0,1.0));
#362=SURFACE_STYLE_FILL_AREA(#440);
#363=ORIENTED_EDGE('',*,*,#398,.T.);
#364=ORIENTED_EDGE('',*,*,#439,.F.);
#365=ORIENTED_EDGE('',*,*,#426,.T.);
#366=ORIENTED_EDGE('',*,*,#422,.T.);
#367=CARTESIAN_POINT('',(-20.0,1.5,-0.75));
#368=DIRECTION('',(0.0,1.44560289664734E-016,-1.0));
#369=DIRECTION('',(0.0,1.0,1.44560289664734E-016));
#370=SURFACE_STYLE_FILL_AREA(#441);
#371=ORIENTED_EDGE('',*,*,#396,.T.);
#372=ORIENTED_EDGE('',*,*,#406,.F.);
#373=ORIENTED_EDGE('',*,*,#428,.T.);
#374=ORIENTED_EDGE('',*,*,#438,.T.);
#375=CARTESIAN_POINT('',(-20.0,1.5,0.75));
#376=DIRECTION('',(0.0,-1.44560289664734E-016,1.0));
#377=DIRECTION('',(0.0,-1.0,-1.44560289664734E-016));
#378=FILL_AREA_STYLE('',(#442));
#379=EDGE_CURVE('',#443,#444,#445,.T.);
#380=EDGE_CURVE('',#443,#446,#447,.T.);
#381=EDGE_CURVE('',#448,#446,#449,.T.);
#382=EDGE_CURVE('',#444,#448,#450,.T.);
#383=FILL_AREA_STYLE('',(#451));
#384=EDGE_CURVE('',#452,#453,#454,.T.);
#385=EDGE_CURVE('',#452,#455,#456,.T.);
#386=EDGE_CURVE('',#455,#457,#458,.T.);
#387=EDGE_CURVE('',#459,#457,#460,.T.);
#388=EDGE_CURVE('',#461,#459,#462,.T.);
#389=EDGE_CURVE('',#463,#461,#464,.T.);
#390=EDGE_CURVE('',#463,#465,#466,.T.);
#391=EDGE_CURVE('',#453,#465,#467,.T.);
#392=FILL_AREA_STYLE('',(#468));
#393=EDGE_CURVE('',#469,#470,#471,.T.);
#394=EDGE_CURVE('',#470,#472,#473,.T.);
#395=EDGE_CURVE('',#474,#472,#475,.T.);
#396=EDGE_CURVE('',#476,#474,#477,.T.);
#397=EDGE_CURVE('',#478,#476,#479,.T.);
#398=EDGE_CURVE('',#480,#478,#481,.T.);
#399=EDGE_CURVE('',#482,#480,#483,.T.);
#400=EDGE_CURVE('',#469,#482,#484,.T.);
#401=FILL_AREA_STYLE('',(#485));
#402=EDGE_CURVE('',#446,#486,#487,.T.);
#403=EDGE_CURVE('',#488,#486,#489,.T.);
#404=EDGE_CURVE('',#448,#488,#490,.T.);
#405=FILL_AREA_STYLE('',(#491));
#406=EDGE_CURVE('',#492,#474,#493,.T.);
#407=EDGE_CURVE('',#472,#494,#495,.T.);
#408=EDGE_CURVE('',#494,#457,#496,.T.);
#409=EDGE_CURVE('',#492,#455,#497,.T.);
#410=FILL_AREA_STYLE('',(#498));
#411=EDGE_CURVE('',#446,#448,#499,.T.);
#412=EDGE_CURVE('',#486,#488,#500,.T.);
#413=FILL_AREA_STYLE('',(#501));
#414=EDGE_CURVE('',#470,#469,#502,.T.);
#415=FILL_AREA_STYLE('',(#503));
#416=EDGE_CURVE('',#504,#482,#505,.T.);
#417=EDGE_CURVE('',#506,#504,#507,.T.);
#418=EDGE_CURVE('',#508,#506,#509,.T.);
#419=EDGE_CURVE('',#494,#508,#510,.T.);
#420=FILL_AREA_STYLE('',(#511));
#421=EDGE_CURVE('',#504,#463,#512,.T.);
#422=EDGE_CURVE('',#513,#480,#514,.T.);
#423=EDGE_CURVE('',#465,#513,#515,.T.);
#424=FILL_AREA_STYLE('',(#516));
#425=EDGE_CURVE('',#453,#452,#517,.T.);
#426=EDGE_CURVE('',#518,#513,#519,.T.);
#427=EDGE_CURVE('',#520,#518,#521,.T.);
#428=EDGE_CURVE('',#492,#520,#522,.T.);
#429=FILL_AREA_STYLE('',(#523));
#430=EDGE_CURVE('',#444,#443,#524,.T.);
#431=FILL_AREA_STYLE('',(#525));
#432=FILL_AREA_STYLE('',(#526));
#433=EDGE_CURVE('',#506,#461,#527,.T.);
#434=FILL_AREA_STYLE('',(#528));
#435=EDGE_CURVE('',#508,#459,#529,.T.);
#436=FILL_AREA_STYLE('',(#530));
#437=FILL_AREA_STYLE('',(#531));
#438=EDGE_CURVE('',#520,#476,#532,.T.);
#439=EDGE_CURVE('',#518,#478,#533,.T.);
#440=FILL_AREA_STYLE('',(#534));
#441=FILL_AREA_STYLE('',(#535));
#442=FILL_AREA_STYLE_COLOUR('',#536);
#443=VERTEX_POINT('',#537);
#444=VERTEX_POINT('',#538);
#445=CIRCLE('',#539,2.5);
#446=VERTEX_POINT('',#540);
#447=LINE('',#541,#542);
#448=VERTEX_POINT('',#543);
#449=CIRCLE('',#544,3.0);
#450=LINE('',#545,#546);
#451=FILL_AREA_STYLE_COLOUR('',#547);
#452=VERTEX_POINT('',#548);
#453=VERTEX_POINT('',#549);
#454=CIRCLE('',#550,1.75);
#455=VERTEX_POINT('',#551);
#456=LINE('',#552,#553);
#457=VERTEX_POINT('',#554);
#458=CIRCLE('',#555,1.75);
#459=VERTEX_POINT('',#556);
#460=LINE('',#557,#558);
#461=VERTEX_POINT('',#559);
#462=CIRCLE('',#560,1.75);
#463=VERTEX_POINT('',#561);
#464=LINE('',#562,#563);
#465=VERTEX_POINT('',#564);
#466=CIRCLE('',#565,1.75);
#467=LINE('',#566,#567);
#468=FILL_AREA_STYLE_COLOUR('',#568);
#469=VERTEX_POINT('',#569);
#470=VERTEX_POINT('',#570);
#471=CIRCLE('',#571,5.5);
#472=VERTEX_POINT('',#572);
#473=LINE('',#573,#574);
#474=VERTEX_POINT('',#575);
#475=CIRCLE('',#576,5.5);
#476=VERTEX_POINT('',#577);
#477=LINE('',#578,#579);
#478=VERTEX_POINT('',#580);
#479=CIRCLE('',#581,5.5);
#480=VERTEX_POINT('',#582);
#481=LINE('',#583,#584);
#482=VERTEX_POINT('',#585);
#483=CIRCLE('',#586,5.5);
#484=LINE('',#587,#588);
#485=FILL_AREA_STYLE_COLOUR('',#589);
#486=VERTEX_POINT('',#590);
#487=LINE('',#591,#592);
#488=VERTEX_POINT('',#593);
#489=CIRCLE('',#594,3.0);
#490=LINE('',#595,#596);
#491=FILL_AREA_STYLE_COLOUR('',#597);
#492=VERTEX_POINT('',#598);
#493=LINE('',#599,#600);
#494=VERTEX_POINT('',#601);
#495=CIRCLE('',#602,5.5);
#496=LINE('',#603,#604);
#497=CIRCLE('',#605,1.75);
#498=FILL_AREA_STYLE_COLOUR('',#606);
#499=CIRCLE('',#607,3.0);
#500=CIRCLE('',#608,3.0);
#501=FILL_AREA_STYLE_COLOUR('',#609);
#502=CIRCLE('',#610,5.5);
#503=FILL_AREA_STYLE_COLOUR('',#611);
#504=VERTEX_POINT('',#612);
#505=CIRCLE('',#613,5.5);
#506=VERTEX_POINT('',#614);
#507=LINE('',#615,#616);
#508=VERTEX_POINT('',#617);
#509=CIRCLE('',#618,5.5);
#510=LINE('',#619,#620);
#511=FILL_AREA_STYLE_COLOUR('',#621);
#512=LINE('',#622,#623);
#513=VERTEX_POINT('',#624);
#514=LINE('',#625,#626);
#515=CIRCLE('',#627,1.75);
#516=FILL_AREA_STYLE_COLOUR('',#628);
#517=CIRCLE('',#629,1.75);
#518=VERTEX_POINT('',#630);
#519=LINE('',#631,#632);
#520=VERTEX_POINT('',#633);
#521=CIRCLE('',#634,1.75);
#522=LINE('',#635,#636);
#523=FILL_AREA_STYLE_COLOUR('',#637);
#524=CIRCLE('',#638,2.5);
#525=FILL_AREA_STYLE_COLOUR('',#639);
#526=FILL_AREA_STYLE_COLOUR('',#640);
#527=LINE('',#641,#642);
#528=FILL_AREA_STYLE_COLOUR('',#643);
#529=LINE('',#644,#645);
#530=FILL_AREA_STYLE_COLOUR('',#646);
#531=FILL_AREA_STYLE_COLOUR('',#647);
#532=LINE('',#648,#649);
#533=LINE('',#650,#651);
#534=FILL_AREA_STYLE_COLOUR('',#652);
#535=FILL_AREA_STYLE_COLOUR('',#653);
#536=COLOUR_RGB('',0.752941191196442,0.752941191196442,0.752941191196442);
#537=CARTESIAN_POINT('',(3.36766747301154E-016,14.0,2.5));
#538=CARTESIAN_POINT('',(0.0,14.0,-2.5));
#539=AXIS2_PLACEMENT_3D('',#654,#655,#656);
#540=CARTESIAN_POINT('',(3.67381906146713E-016,13.5,3.0));
#541=CARTESIAN_POINT('',(3.67381906146713E-016,13.5,3.0));
#542=VECTOR('',#657,1000.0);
#543=CARTESIAN_POINT('',(0.0,13.5,-3.0));
#544=AXIS2_PLACEMENT_3D('',#658,#659,#660);
#545=CARTESIAN_POINT('',(0.0,13.5,-3.0));
#546=VECTOR('',#661,1000.0);
#547=COLOUR_RGB('',0.752941191196442,0.752941191196442,0.752941191196442);
#548=CARTESIAN_POINT('',(2.14306111918916E-016,14.0,1.75));
#549=CARTESIAN_POINT('',(0.0,14.0,-1.75));
#550=AXIS2_PLACEMENT_3D('',#662,#663,#664);
#551=CARTESIAN_POINT('',(2.14306111918916E-016,0.0,1.75));
#552=CARTESIAN_POINT('',(2.14306111918916E-016,-11.0775330396476,1.75));
#553=VECTOR('',#665,1000.0);
#554=CARTESIAN_POINT('',(-1.58113883008419,1.20370621524202E-032,0.75));
#555=AXIS2_PLACEMENT_3D('',#666,#667,#668);
#556=CARTESIAN_POINT('',(-1.58113883008419,1.5,0.75));
#557=CARTESIAN_POINT('',(-1.58113883008419,-11.0775330396476,0.749999999999998));
#558=VECTOR('',#669,1000.0);
#559=CARTESIAN_POINT('',(-1.58113883008419,1.5,-0.75));
#560=AXIS2_PLACEMENT_3D('',#670,#671,#672);
#561=CARTESIAN_POINT('',(-1.58113883008419,0.0,-0.75));
#562=CARTESIAN_POINT('',(-1.58113883008419,-11.0775330396476,-0.750000000000002));
#563=VECTOR('',#673,1000.0);
#564=CARTESIAN_POINT('',(0.0,0.0,-1.75));
#565=AXIS2_PLACEMENT_3D('',#674,#675,#676);
#566=CARTESIAN_POINT('',(0.0,-11.0775330396476,-1.75));
#567=VECTOR('',#677,1000.0);
#568=COLOUR_RGB('',0.752941191196442,0.752941191196442,0.752941191196442);
#569=CARTESIAN_POINT('',(0.0,2.0,-5.5));
#570=CARTESIAN_POINT('',(6.73533494602307E-016,2.0,5.5));
#571=AXIS2_PLACEMENT_3D('',#678,#679,#680);
#572=CARTESIAN_POINT('',(6.73533494602307E-016,0.0,5.5));
#573=CARTESIAN_POINT('',(6.73533494602307E-016,-11.0775330396476,5.5));
#574=VECTOR('',#681,1000.0);
#575=CARTESIAN_POINT('',(5.44862367942584,0.0,0.75));
#576=AXIS2_PLACEMENT_3D('',#682,#683,#684);
#577=CARTESIAN_POINT('',(5.44862367942584,1.5,0.75));
#578=CARTESIAN_POINT('',(5.44862367942584,-11.0775330396476,0.749999999999998));
#579=VECTOR('',#685,1000.0);
#580=CARTESIAN_POINT('',(5.44862367942584,1.5,-0.75));
#581=AXIS2_PLACEMENT_3D('',#686,#687,#688);
#582=CARTESIAN_POINT('',(5.44862367942584,-2.40741243048404E-032,-0.75));
#583=CARTESIAN_POINT('',(5.44862367942584,-11.0775330396476,-0.750000000000002));
#584=VECTOR('',#689,1000.0);
#585=CARTESIAN_POINT('',(0.0,0.0,-5.5));
#586=AXIS2_PLACEMENT_3D('',#690,#691,#692);
#587=CARTESIAN_POINT('',(0.0,-11.0775330396476,-5.5));
#588=VECTOR('',#693,1000.0);
#589=COLOUR_RGB('',0.752941191196442,0.752941191196442,0.752941191196442);
#590=CARTESIAN_POINT('',(3.67381906146713E-016,2.0,3.0));
#591=CARTESIAN_POINT('',(3.67381906146713E-016,-11.0775330396476,3.0));
#592=VECTOR('',#694,1000.0);
#593=CARTESIAN_POINT('',(0.0,2.0,-3.0));
#594=AXIS2_PLACEMENT_3D('',#695,#696,#697);
#595=CARTESIAN_POINT('',(0.0,-11.0775330396476,-3.0));
#596=VECTOR('',#698,1000.0);
#597=COLOUR_RGB('',0.752941191196442,0.752941191196442,0.752941191196442);
#598=CARTESIAN_POINT('',(1.58113883008419,1.20370621524202E-032,0.75));
#599=CARTESIAN_POINT('',(-20.0,0.0,0.75));
#600=VECTOR('',#699,1000.0);
#601=CARTESIAN_POINT('',(-5.44862367942584,0.0,0.75));
#602=AXIS2_PLACEMENT_3D('',#700,#701,#702);
#603=CARTESIAN_POINT('',(-20.0,0.0,0.75));
#604=VECTOR('',#703,1000.0);
#605=AXIS2_PLACEMENT_3D('',#704,#705,#706);
#606=COLOUR_RGB('',0.752941191196442,0.752941191196442,0.752941191196442);
#607=AXIS2_PLACEMENT_3D('',#707,#708,#709);
#608=AXIS2_PLACEMENT_3D('',#710,#711,#712);
#609=COLOUR_RGB('',0.752941191196442,0.752941191196442,0.752941191196442);
#610=AXIS2_PLACEMENT_3D('',#713,#714,#715);
#611=COLOUR_RGB('',0.752941191196442,0.752941191196442,0.752941191196442);
#612=CARTESIAN_POINT('',(-5.44862367942584,-2.40741243048404E-032,-0.75));
#613=AXIS2_PLACEMENT_3D('',#716,#717,#718);
#614=CARTESIAN_POINT('',(-5.44862367942584,1.5,-0.75));
#615=CARTESIAN_POINT('',(-5.44862367942584,-11.0775330396476,-0.750000000000002));
#616=VECTOR('',#719,1000.0);
#617=CARTESIAN_POINT('',(-5.44862367942584,1.5,0.75));
#618=AXIS2_PLACEMENT_3D('',#720,#721,#722);
#619=CARTESIAN_POINT('',(-5.44862367942584,-11.0775330396476,0.749999999999998));
#620=VECTOR('',#723,1000.0);
#621=COLOUR_RGB('',0.752941191196442,0.752941191196442,0.752941191196442);
#622=CARTESIAN_POINT('',(-20.0,-2.40741243048404E-032,-0.75));
#623=VECTOR('',#724,1000.0);
#624=CARTESIAN_POINT('',(1.58113883008419,-1.20370621524202E-032,-0.75));
#625=CARTESIAN_POINT('',(-20.0,-2.40741243048404E-032,-0.75));
#626=VECTOR('',#725,1000.0);
#627=AXIS2_PLACEMENT_3D('',#726,#727,#728);
#628=COLOUR_RGB('',0.752941191196442,0.752941191196442,0.752941191196442);
#629=AXIS2_PLACEMENT_3D('',#729,#730,#731);
#630=CARTESIAN_POINT('',(1.58113883008419,1.5,-0.750000000000002));
#631=CARTESIAN_POINT('',(1.58113883008419,-11.0775330396476,-0.750000000000002));
#632=VECTOR('',#732,1000.0);
#633=CARTESIAN_POINT('',(1.58113883008419,1.5,0.75));
#634=AXIS2_PLACEMENT_3D('',#733,#734,#735);
#635=CARTESIAN_POINT('',(1.58113883008419,-11.0775330396476,0.749999999999998));
#636=VECTOR('',#736,1000.0);
#637=COLOUR_RGB('',0.752941191196442,0.752941191196442,0.752941191196442);
#638=AXIS2_PLACEMENT_3D('',#737,#738,#739);
#639=COLOUR_RGB('',0.752941191196442,0.752941191196442,0.752941191196442);
#640=COLOUR_RGB('',0.752941191196442,0.752941191196442,0.752941191196442);
#641=CARTESIAN_POINT('',(-20.0,1.5,-0.75));
#642=VECTOR('',#740,1000.0);
#643=COLOUR_RGB('',0.752941191196442,0.752941191196442,0.752941191196442);
#644=CARTESIAN_POINT('',(-20.0,1.5,0.75));
#645=VECTOR('',#741,1000.0);
#646=COLOUR_RGB('',0.752941191196442,0.752941191196442,0.752941191196442);
#647=COLOUR_RGB('',0.752941191196442,0.752941191196442,0.752941191196442);
#648=CARTESIAN_POINT('',(-20.0,1.5,0.75));
#649=VECTOR('',#742,1000.0);
#650=CARTESIAN_POINT('',(-20.0,1.5,-0.75));
#651=VECTOR('',#743,1000.0);
#652=COLOUR_RGB('',0.752941191196442,0.752941191196442,0.752941191196442);
#653=COLOUR_RGB('',0.752941191196442,0.752941191196442,0.752941191196442);
#654=CARTESIAN_POINT('',(0.0,14.0,0.0));
#655=DIRECTION('',(0.0,1.0,0.0));
#656=DIRECTION('',(0.0,0.0,1.0));
#657=DIRECTION('',(8.65927457071937E-017,-0.707106781186547,0.707106781186548));
#658=CARTESIAN_POINT('',(0.0,13.5,0.0));
#659=DIRECTION('',(0.0,-1.0,0.0));
#660=DIRECTION('',(0.0,0.0,1.0));
#661=DIRECTION('',(0.0,-0.707106781186547,-0.707106781186548));
#662=CARTESIAN_POINT('',(0.0,14.0,0.0));
#663=DIRECTION('',(0.0,-1.0,-0.0));
#664=DIRECTION('',(0.0,0.0,-1.0));
#665=DIRECTION('',(-0.0,-1.0,-0.0));
#666=CARTESIAN_POINT('',(0.0,0.0,0.0));
#667=DIRECTION('',(0.0,-1.0,-0.0));
#668=DIRECTION('',(0.0,0.0,-1.0));
#669=DIRECTION('',(-0.0,-1.0,-0.0));
#670=CARTESIAN_POINT('',(0.0,1.5,0.0));
#671=DIRECTION('',(0.0,1.0,0.0));
#672=DIRECTION('',(0.0,0.0,1.0));
#673=DIRECTION('',(0.0,1.0,0.0));
#674=CARTESIAN_POINT('',(0.0,0.0,0.0));
#675=DIRECTION('',(0.0,-1.0,-0.0));
#676=DIRECTION('',(0.0,0.0,-1.0));
#677=DIRECTION('',(-0.0,-1.0,-0.0));
#678=CARTESIAN_POINT('',(0.0,2.0,0.0));
#679=DIRECTION('',(0.0,-1.0,-0.0));
#680=DIRECTION('',(0.0,0.0,-1.0));
#681=DIRECTION('',(-0.0,-1.0,-0.0));
#682=CARTESIAN_POINT('',(0.0,0.0,0.0));
#683=DIRECTION('',(0.0,-1.0,-0.0));
#684=DIRECTION('',(0.0,0.0,-1.0));
#685=DIRECTION('',(-0.0,-1.0,-0.0));
#686=CARTESIAN_POINT('',(0.0,1.5,0.0));
#687=DIRECTION('',(0.0,-1.0,0.0));
#688=DIRECTION('',(7.105427357601E-015,0.0,1.0));
#689=DIRECTION('',(0.0,1.0,0.0));
#690=CARTESIAN_POINT('',(0.0,0.0,0.0));
#691=DIRECTION('',(0.0,-1.0,-0.0));
#692=DIRECTION('',(0.0,0.0,-1.0));
#693=DIRECTION('',(-0.0,-1.0,-0.0));
#694=DIRECTION('',(-0.0,-1.0,-0.0));
#695=CARTESIAN_POINT('',(0.0,2.0,0.0));
#696=DIRECTION('',(0.0,-1.0,-0.0));
#697=DIRECTION('',(0.0,0.0,-1.0));
#698=DIRECTION('',(-0.0,-1.0,-0.0));
#699=DIRECTION('',(1.0,0.0,0.0));
#700=CARTESIAN_POINT('',(0.0,0.0,0.0));
#701=DIRECTION('',(0.0,-1.0,-0.0));
#702=DIRECTION('',(0.0,0.0,-1.0));
#703=DIRECTION('',(1.0,0.0,0.0));
#704=CARTESIAN_POINT('',(0.0,0.0,0.0));
#705=DIRECTION('',(0.0,-1.0,-0.0));
#706=DIRECTION('',(0.0,0.0,-1.0));
#707=CARTESIAN_POINT('',(0.0,13.5,0.0));
#708=DIRECTION('',(0.0,-1.0,0.0));
#709=DIRECTION('',(0.0,0.0,1.0));
#710=CARTESIAN_POINT('',(0.0,2.0,0.0));
#711=DIRECTION('',(0.0,-1.0,-0.0));
#712=DIRECTION('',(0.0,0.0,-1.0));
#713=CARTESIAN_POINT('',(0.0,2.0,0.0));
#714=DIRECTION('',(0.0,-1.0,-0.0));
#715=DIRECTION('',(0.0,0.0,-1.0));
#716=CARTESIAN_POINT('',(0.0,0.0,0.0));
#717=DIRECTION('',(0.0,-1.0,-0.0));
#718=DIRECTION('',(0.0,0.0,-1.0));
#719=DIRECTION('',(-0.0,-1.0,-0.0));
#720=CARTESIAN_POINT('',(0.0,1.5,0.0));
#721=DIRECTION('',(0.0,-1.0,0.0));
#722=DIRECTION('',(0.0,0.0,1.0));
#723=DIRECTION('',(0.0,1.0,0.0));
#724=DIRECTION('',(1.0,0.0,0.0));
#725=DIRECTION('',(1.0,0.0,0.0));
#726=CARTESIAN_POINT('',(0.0,0.0,0.0));
#727=DIRECTION('',(0.0,-1.0,-0.0));
#728=DIRECTION('',(0.0,0.0,-1.0));
#729=CARTESIAN_POINT('',(0.0,14.0,0.0));
#730=DIRECTION('',(0.0,-1.0,-0.0));
#731=DIRECTION('',(0.0,0.0,-1.0));
#732=DIRECTION('',(-0.0,-1.0,-0.0));
#733=CARTESIAN_POINT('',(0.0,1.5,0.0));
#734=DIRECTION('',(0.0,1.0,0.0));
#735=DIRECTION('',(0.0,0.0,1.0));
#736=DIRECTION('',(0.0,1.0,0.0));
#737=CARTESIAN_POINT('',(0.0,14.0,0.0));
#738=DIRECTION('',(0.0,1.0,0.0));
#739=DIRECTION('',(0.0,0.0,1.0));
#740=DIRECTION('',(1.0,0.0,0.0));
#741=DIRECTION('',(1.0,0.0,0.0));
#742=DIRECTION('',(1.0,0.0,0.0));
#743=DIRECTION('',(1.0,0.0,0.0));
ENDSEC;
END-ISO-10303-21;
