ISO-10303-21;
HEADER;
/* Generated by software containing ST-Developer
 * from STEP Tools, Inc. (www.steptools.com) 
 */
/* OPTION: strings as raw bytes, not using required /X/ escapes */

FILE_DESCRIPTION(
/* description */ ('Unknown'),
/* implementation_level */ '2;1');

FILE_NAME(
/* name */ 'P1.1;4.10;32',
/* time_stamp */ '2018-09-24T10:46:31-04:00',
/* author */ ('Unknown'),
/* organization */ ('Unknown'),
/* preprocessor_version */ 'ST-DEVELOPER v16.7',
/* originating_system */ 'DEX',
/* authorisation */ $);

FILE_SCHEMA (('AUTOMOTIVE_DESIGN {1 0 10303 214 3 1 1}'));
ENDSEC;

DATA;
#10=PROPERTY_DEFINITION_REPRESENTATION(#14,#12);
#11=PROPERTY_DEFINITION_REPRESENTATION(#15,#13);
#12=REPRESENTATION('',(#16),#711);
#13=REPRESENTATION('',(#17),#711);
#14=PROPERTY_DEFINITION('pmi validation property','',#716);
#15=PROPERTY_DEFINITION('pmi validation property','',#716);
#16=VALUE_REPRESENTATION_ITEM('number of annotations',COUNT_MEASURE(0.));
#17=VALUE_REPRESENTATION_ITEM('number of views',COUNT_MEASURE(0.));
#18=SHAPE_REPRESENTATION_RELATIONSHIP('','',#476,#19);
#19=ADVANCED_BREP_SHAPE_REPRESENTATION('',(#474),#711);
#20=ELLIPSE('',#506,6.9,5.9);
#21=ELLIPSE('',#507,6.9,5.9);
#22=B_SPLINE_SURFACE_WITH_KNOTS('',3,1,((#676,#677),(#678,#679),(#680,#681),
(#682,#683),(#684,#685),(#686,#687),(#688,#689),(#690,#691),(#692,#693),
(#694,#695),(#696,#697)),.SURF_OF_LINEAR_EXTRUSION.,.T.,.F.,.F.,(1,1,1,
1,1,1,1,1,1,1,1,1,1,1,1),(2,2),(-2.35619449019234,-1.5707963267949,-0.785398163397448,
0.,0.785398163397448,1.5707963267949,2.35619449019234,3.14159265358979,
3.92699081698724,4.71238898038469,5.49778714378214,6.28318530717959,7.06858347057703,
7.85398163397448,8.63937979737193),(0.,1.),.UNSPECIFIED.);
#23=LINE('',#613,#41);
#24=LINE('',#616,#42);
#25=LINE('',#618,#43);
#26=LINE('',#620,#44);
#27=LINE('',#622,#45);
#28=LINE('',#624,#46);
#29=LINE('',#626,#47);
#30=LINE('',#628,#48);
#31=LINE('',#630,#49);
#32=LINE('',#632,#50);
#33=LINE('',#634,#51);
#34=LINE('',#636,#52);
#35=LINE('',#638,#53);
#36=LINE('',#640,#54);
#37=LINE('',#642,#55);
#38=LINE('',#644,#56);
#39=LINE('',#646,#57);
#40=LINE('',#647,#58);
#41=VECTOR('',#524,1000.);
#42=VECTOR('',#525,1000.);
#43=VECTOR('',#526,1000.);
#44=VECTOR('',#527,1000.);
#45=VECTOR('',#530,1000.);
#46=VECTOR('',#531,1000.);
#47=VECTOR('',#532,1000.);
#48=VECTOR('',#535,1000.);
#49=VECTOR('',#536,1000.);
#50=VECTOR('',#537,1000.);
#51=VECTOR('',#540,1000.);
#52=VECTOR('',#541,1000.);
#53=VECTOR('',#542,1000.);
#54=VECTOR('',#545,1000.);
#55=VECTOR('',#546,1000.);
#56=VECTOR('',#547,1000.);
#57=VECTOR('',#550,1000.);
#58=VECTOR('',#551,1000.);
#59=PLANE('',#481);
#60=PLANE('',#482);
#61=PLANE('',#483);
#62=PLANE('',#484);
#63=PLANE('',#485);
#64=PLANE('',#486);
#65=PLANE('',#487);
#66=PLANE('',#489);
#67=PLANE('',#493);
#68=PLANE('',#496);
#69=PLANE('',#502);
#70=PLANE('',#508);
#71=PLANE('',#510);
#72=PLANE('',#511);
#73=ORIENTED_EDGE('',*,*,#139,.T.);
#74=ORIENTED_EDGE('',*,*,#140,.T.);
#75=ORIENTED_EDGE('',*,*,#141,.F.);
#76=ORIENTED_EDGE('',*,*,#142,.F.);
#77=ORIENTED_EDGE('',*,*,#143,.T.);
#78=ORIENTED_EDGE('',*,*,#144,.T.);
#79=ORIENTED_EDGE('',*,*,#145,.F.);
#80=ORIENTED_EDGE('',*,*,#144,.F.);
#81=ORIENTED_EDGE('',*,*,#146,.T.);
#82=ORIENTED_EDGE('',*,*,#147,.T.);
#83=ORIENTED_EDGE('',*,*,#148,.F.);
#84=ORIENTED_EDGE('',*,*,#147,.F.);
#85=ORIENTED_EDGE('',*,*,#149,.T.);
#86=ORIENTED_EDGE('',*,*,#150,.T.);
#87=ORIENTED_EDGE('',*,*,#151,.F.);
#88=ORIENTED_EDGE('',*,*,#150,.F.);
#89=ORIENTED_EDGE('',*,*,#152,.T.);
#90=ORIENTED_EDGE('',*,*,#153,.T.);
#91=ORIENTED_EDGE('',*,*,#154,.F.);
#92=ORIENTED_EDGE('',*,*,#153,.F.);
#93=ORIENTED_EDGE('',*,*,#155,.T.);
#94=ORIENTED_EDGE('',*,*,#156,.T.);
#95=ORIENTED_EDGE('',*,*,#157,.F.);
#96=ORIENTED_EDGE('',*,*,#156,.F.);
#97=ORIENTED_EDGE('',*,*,#158,.T.);
#98=ORIENTED_EDGE('',*,*,#142,.T.);
#99=ORIENTED_EDGE('',*,*,#159,.T.);
#100=ORIENTED_EDGE('',*,*,#143,.F.);
#101=ORIENTED_EDGE('',*,*,#158,.F.);
#102=ORIENTED_EDGE('',*,*,#155,.F.);
#103=ORIENTED_EDGE('',*,*,#152,.F.);
#104=ORIENTED_EDGE('',*,*,#149,.F.);
#105=ORIENTED_EDGE('',*,*,#146,.F.);
#106=ORIENTED_EDGE('',*,*,#160,.T.);
#107=ORIENTED_EDGE('',*,*,#141,.T.);
#108=ORIENTED_EDGE('',*,*,#145,.T.);
#109=ORIENTED_EDGE('',*,*,#148,.T.);
#110=ORIENTED_EDGE('',*,*,#151,.T.);
#111=ORIENTED_EDGE('',*,*,#154,.T.);
#112=ORIENTED_EDGE('',*,*,#157,.T.);
#113=ORIENTED_EDGE('',*,*,#161,.T.);
#114=ORIENTED_EDGE('',*,*,#160,.F.);
#115=ORIENTED_EDGE('',*,*,#162,.T.);
#116=ORIENTED_EDGE('',*,*,#161,.F.);
#117=ORIENTED_EDGE('',*,*,#140,.F.);
#118=ORIENTED_EDGE('',*,*,#162,.F.);
#119=ORIENTED_EDGE('',*,*,#163,.T.);
#120=ORIENTED_EDGE('',*,*,#139,.F.);
#121=ORIENTED_EDGE('',*,*,#164,.T.);
#122=ORIENTED_EDGE('',*,*,#163,.F.);
#123=ORIENTED_EDGE('',*,*,#165,.T.);
#124=ORIENTED_EDGE('',*,*,#159,.F.);
#125=ORIENTED_EDGE('',*,*,#166,.T.);
#126=ORIENTED_EDGE('',*,*,#165,.F.);
#127=ORIENTED_EDGE('',*,*,#167,.T.);
#128=ORIENTED_EDGE('',*,*,#166,.F.);
#129=ORIENTED_EDGE('',*,*,#168,.T.);
#130=ORIENTED_EDGE('',*,*,#169,.F.);
#131=ORIENTED_EDGE('',*,*,#170,.T.);
#132=ORIENTED_EDGE('',*,*,#168,.F.);
#133=ORIENTED_EDGE('',*,*,#167,.F.);
#134=ORIENTED_EDGE('',*,*,#169,.T.);
#135=ORIENTED_EDGE('',*,*,#171,.F.);
#136=ORIENTED_EDGE('',*,*,#164,.F.);
#137=ORIENTED_EDGE('',*,*,#171,.T.);
#138=ORIENTED_EDGE('',*,*,#170,.F.);
#139=EDGE_CURVE('',#172,#172,#199,.T.);
#140=EDGE_CURVE('',#173,#173,#200,.T.);
#141=EDGE_CURVE('',#174,#175,#23,.T.);
#142=EDGE_CURVE('',#176,#174,#24,.T.);
#143=EDGE_CURVE('',#176,#177,#25,.T.);
#144=EDGE_CURVE('',#177,#175,#26,.T.);
#145=EDGE_CURVE('',#175,#178,#27,.T.);
#146=EDGE_CURVE('',#177,#179,#28,.T.);
#147=EDGE_CURVE('',#179,#178,#29,.T.);
#148=EDGE_CURVE('',#178,#180,#30,.T.);
#149=EDGE_CURVE('',#179,#181,#31,.T.);
#150=EDGE_CURVE('',#181,#180,#32,.T.);
#151=EDGE_CURVE('',#180,#182,#33,.T.);
#152=EDGE_CURVE('',#181,#183,#34,.T.);
#153=EDGE_CURVE('',#183,#182,#35,.T.);
#154=EDGE_CURVE('',#182,#184,#36,.T.);
#155=EDGE_CURVE('',#183,#185,#37,.T.);
#156=EDGE_CURVE('',#185,#184,#38,.T.);
#157=EDGE_CURVE('',#184,#174,#39,.T.);
#158=EDGE_CURVE('',#185,#176,#40,.T.);
#159=EDGE_CURVE('',#186,#186,#201,.T.);
#160=EDGE_CURVE('',#187,#187,#202,.T.);
#161=EDGE_CURVE('',#188,#188,#203,.T.);
#162=EDGE_CURVE('',#189,#189,#204,.T.);
#163=EDGE_CURVE('',#190,#190,#205,.T.);
#164=EDGE_CURVE('',#191,#191,#206,.T.);
#165=EDGE_CURVE('',#192,#192,#207,.T.);
#166=EDGE_CURVE('',#193,#193,#208,.T.);
#167=EDGE_CURVE('',#194,#194,#209,.T.);
#168=EDGE_CURVE('',#195,#195,#20,.T.);
#169=EDGE_CURVE('',#196,#196,#21,.T.);
#170=EDGE_CURVE('',#197,#197,#210,.T.);
#171=EDGE_CURVE('',#198,#198,#211,.T.);
#172=VERTEX_POINT('',#609);
#173=VERTEX_POINT('',#611);
#174=VERTEX_POINT('',#614);
#175=VERTEX_POINT('',#615);
#176=VERTEX_POINT('',#617);
#177=VERTEX_POINT('',#619);
#178=VERTEX_POINT('',#623);
#179=VERTEX_POINT('',#625);
#180=VERTEX_POINT('',#629);
#181=VERTEX_POINT('',#631);
#182=VERTEX_POINT('',#635);
#183=VERTEX_POINT('',#637);
#184=VERTEX_POINT('',#641);
#185=VERTEX_POINT('',#643);
#186=VERTEX_POINT('',#650);
#187=VERTEX_POINT('',#653);
#188=VERTEX_POINT('',#656);
#189=VERTEX_POINT('',#659);
#190=VERTEX_POINT('',#663);
#191=VERTEX_POINT('',#666);
#192=VERTEX_POINT('',#669);
#193=VERTEX_POINT('',#672);
#194=VERTEX_POINT('',#675);
#195=VERTEX_POINT('',#699);
#196=VERTEX_POINT('',#701);
#197=VERTEX_POINT('',#704);
#198=VERTEX_POINT('',#708);
#199=CIRCLE('',#479,2.5);
#200=CIRCLE('',#480,2.5);
#201=CIRCLE('',#488,6.);
#202=CIRCLE('',#490,3.9);
#203=CIRCLE('',#492,3.9);
#204=CIRCLE('',#494,2.5);
#205=CIRCLE('',#497,1.);
#206=CIRCLE('',#499,1.);
#207=CIRCLE('',#501,6.);
#208=CIRCLE('',#503,4.75);
#209=CIRCLE('',#505,4.75);
#210=CIRCLE('',#509,3.175);
#211=CIRCLE('',#512,3.175);
#212=EDGE_LOOP('',(#73));
#213=EDGE_LOOP('',(#74));
#214=EDGE_LOOP('',(#75,#76,#77,#78));
#215=EDGE_LOOP('',(#79,#80,#81,#82));
#216=EDGE_LOOP('',(#83,#84,#85,#86));
#217=EDGE_LOOP('',(#87,#88,#89,#90));
#218=EDGE_LOOP('',(#91,#92,#93,#94));
#219=EDGE_LOOP('',(#95,#96,#97,#98));
#220=EDGE_LOOP('',(#99));
#221=EDGE_LOOP('',(#100,#101,#102,#103,#104,#105));
#222=EDGE_LOOP('',(#106));
#223=EDGE_LOOP('',(#107,#108,#109,#110,#111,#112));
#224=EDGE_LOOP('',(#113));
#225=EDGE_LOOP('',(#114));
#226=EDGE_LOOP('',(#115));
#227=EDGE_LOOP('',(#116));
#228=EDGE_LOOP('',(#117));
#229=EDGE_LOOP('',(#118));
#230=EDGE_LOOP('',(#119));
#231=EDGE_LOOP('',(#120));
#232=EDGE_LOOP('',(#121));
#233=EDGE_LOOP('',(#122));
#234=EDGE_LOOP('',(#123));
#235=EDGE_LOOP('',(#124));
#236=EDGE_LOOP('',(#125));
#237=EDGE_LOOP('',(#126));
#238=EDGE_LOOP('',(#127));
#239=EDGE_LOOP('',(#128));
#240=EDGE_LOOP('',(#129));
#241=EDGE_LOOP('',(#130));
#242=EDGE_LOOP('',(#131));
#243=EDGE_LOOP('',(#132));
#244=EDGE_LOOP('',(#133));
#245=EDGE_LOOP('',(#134));
#246=EDGE_LOOP('',(#135));
#247=EDGE_LOOP('',(#136));
#248=EDGE_LOOP('',(#137));
#249=EDGE_LOOP('',(#138));
#250=FACE_BOUND('',#212,.T.);
#251=FACE_BOUND('',#213,.T.);
#252=FACE_BOUND('',#214,.T.);
#253=FACE_BOUND('',#215,.T.);
#254=FACE_BOUND('',#216,.T.);
#255=FACE_BOUND('',#217,.T.);
#256=FACE_BOUND('',#218,.T.);
#257=FACE_BOUND('',#219,.T.);
#258=FACE_BOUND('',#220,.T.);
#259=FACE_BOUND('',#221,.T.);
#260=FACE_BOUND('',#222,.T.);
#261=FACE_BOUND('',#223,.T.);
#262=FACE_BOUND('',#224,.T.);
#263=FACE_BOUND('',#225,.T.);
#264=FACE_BOUND('',#226,.T.);
#265=FACE_BOUND('',#227,.T.);
#266=FACE_BOUND('',#228,.T.);
#267=FACE_BOUND('',#229,.T.);
#268=FACE_BOUND('',#230,.T.);
#269=FACE_BOUND('',#231,.T.);
#270=FACE_BOUND('',#232,.T.);
#271=FACE_BOUND('',#233,.T.);
#272=FACE_BOUND('',#234,.T.);
#273=FACE_BOUND('',#235,.T.);
#274=FACE_BOUND('',#236,.T.);
#275=FACE_BOUND('',#237,.T.);
#276=FACE_BOUND('',#238,.T.);
#277=FACE_BOUND('',#239,.T.);
#278=FACE_BOUND('',#240,.T.);
#279=FACE_BOUND('',#241,.T.);
#280=FACE_BOUND('',#242,.T.);
#281=FACE_BOUND('',#243,.T.);
#282=FACE_BOUND('',#244,.T.);
#283=FACE_BOUND('',#245,.T.);
#284=FACE_BOUND('',#246,.T.);
#285=FACE_BOUND('',#247,.T.);
#286=FACE_BOUND('',#248,.T.);
#287=FACE_BOUND('',#249,.T.);
#288=CYLINDRICAL_SURFACE('',#478,2.5);
#289=CYLINDRICAL_SURFACE('',#491,3.9);
#290=CYLINDRICAL_SURFACE('',#495,2.5);
#291=CYLINDRICAL_SURFACE('',#498,1.);
#292=CYLINDRICAL_SURFACE('',#500,6.);
#293=CYLINDRICAL_SURFACE('',#504,4.75);
#294=CYLINDRICAL_SURFACE('',#513,3.175);
#295=STYLED_ITEM('',(#317),#451);
#296=STYLED_ITEM('',(#318),#452);
#297=STYLED_ITEM('',(#319),#453);
#298=STYLED_ITEM('',(#320),#454);
#299=STYLED_ITEM('',(#321),#455);
#300=STYLED_ITEM('',(#322),#456);
#301=STYLED_ITEM('',(#323),#457);
#302=STYLED_ITEM('',(#324),#458);
#303=STYLED_ITEM('',(#325),#459);
#304=STYLED_ITEM('',(#326),#460);
#305=STYLED_ITEM('',(#327),#461);
#306=STYLED_ITEM('',(#328),#462);
#307=STYLED_ITEM('',(#329),#463);
#308=STYLED_ITEM('',(#330),#464);
#309=STYLED_ITEM('',(#331),#465);
#310=STYLED_ITEM('',(#332),#466);
#311=STYLED_ITEM('',(#333),#467);
#312=STYLED_ITEM('',(#334),#468);
#313=STYLED_ITEM('',(#335),#469);
#314=STYLED_ITEM('',(#336),#470);
#315=STYLED_ITEM('',(#337),#471);
#316=STYLED_ITEM('',(#338),#472);
#317=PRESENTATION_STYLE_ASSIGNMENT((#339));
#318=PRESENTATION_STYLE_ASSIGNMENT((#340));
#319=PRESENTATION_STYLE_ASSIGNMENT((#341));
#320=PRESENTATION_STYLE_ASSIGNMENT((#342));
#321=PRESENTATION_STYLE_ASSIGNMENT((#343));
#322=PRESENTATION_STYLE_ASSIGNMENT((#344));
#323=PRESENTATION_STYLE_ASSIGNMENT((#345));
#324=PRESENTATION_STYLE_ASSIGNMENT((#346));
#325=PRESENTATION_STYLE_ASSIGNMENT((#347));
#326=PRESENTATION_STYLE_ASSIGNMENT((#348));
#327=PRESENTATION_STYLE_ASSIGNMENT((#349));
#328=PRESENTATION_STYLE_ASSIGNMENT((#350));
#329=PRESENTATION_STYLE_ASSIGNMENT((#351));
#330=PRESENTATION_STYLE_ASSIGNMENT((#352));
#331=PRESENTATION_STYLE_ASSIGNMENT((#353));
#332=PRESENTATION_STYLE_ASSIGNMENT((#354));
#333=PRESENTATION_STYLE_ASSIGNMENT((#355));
#334=PRESENTATION_STYLE_ASSIGNMENT((#356));
#335=PRESENTATION_STYLE_ASSIGNMENT((#357));
#336=PRESENTATION_STYLE_ASSIGNMENT((#358));
#337=PRESENTATION_STYLE_ASSIGNMENT((#359));
#338=PRESENTATION_STYLE_ASSIGNMENT((#360));
#339=SURFACE_STYLE_USAGE(.BOTH.,#361);
#340=SURFACE_STYLE_USAGE(.BOTH.,#362);
#341=SURFACE_STYLE_USAGE(.BOTH.,#363);
#342=SURFACE_STYLE_USAGE(.BOTH.,#364);
#343=SURFACE_STYLE_USAGE(.BOTH.,#365);
#344=SURFACE_STYLE_USAGE(.BOTH.,#366);
#345=SURFACE_STYLE_USAGE(.BOTH.,#367);
#346=SURFACE_STYLE_USAGE(.BOTH.,#368);
#347=SURFACE_STYLE_USAGE(.BOTH.,#369);
#348=SURFACE_STYLE_USAGE(.BOTH.,#370);
#349=SURFACE_STYLE_USAGE(.BOTH.,#371);
#350=SURFACE_STYLE_USAGE(.BOTH.,#372);
#351=SURFACE_STYLE_USAGE(.BOTH.,#373);
#352=SURFACE_STYLE_USAGE(.BOTH.,#374);
#353=SURFACE_STYLE_USAGE(.BOTH.,#375);
#354=SURFACE_STYLE_USAGE(.BOTH.,#376);
#355=SURFACE_STYLE_USAGE(.BOTH.,#377);
#356=SURFACE_STYLE_USAGE(.BOTH.,#378);
#357=SURFACE_STYLE_USAGE(.BOTH.,#379);
#358=SURFACE_STYLE_USAGE(.BOTH.,#380);
#359=SURFACE_STYLE_USAGE(.BOTH.,#381);
#360=SURFACE_STYLE_USAGE(.BOTH.,#382);
#361=SURFACE_SIDE_STYLE('',(#383));
#362=SURFACE_SIDE_STYLE('',(#384));
#363=SURFACE_SIDE_STYLE('',(#385));
#364=SURFACE_SIDE_STYLE('',(#386));
#365=SURFACE_SIDE_STYLE('',(#387));
#366=SURFACE_SIDE_STYLE('',(#388));
#367=SURFACE_SIDE_STYLE('',(#389));
#368=SURFACE_SIDE_STYLE('',(#390));
#369=SURFACE_SIDE_STYLE('',(#391));
#370=SURFACE_SIDE_STYLE('',(#392));
#371=SURFACE_SIDE_STYLE('',(#393));
#372=SURFACE_SIDE_STYLE('',(#394));
#373=SURFACE_SIDE_STYLE('',(#395));
#374=SURFACE_SIDE_STYLE('',(#396));
#375=SURFACE_SIDE_STYLE('',(#397));
#376=SURFACE_SIDE_STYLE('',(#398));
#377=SURFACE_SIDE_STYLE('',(#399));
#378=SURFACE_SIDE_STYLE('',(#400));
#379=SURFACE_SIDE_STYLE('',(#401));
#380=SURFACE_SIDE_STYLE('',(#402));
#381=SURFACE_SIDE_STYLE('',(#403));
#382=SURFACE_SIDE_STYLE('',(#404));
#383=SURFACE_STYLE_FILL_AREA(#405);
#384=SURFACE_STYLE_FILL_AREA(#406);
#385=SURFACE_STYLE_FILL_AREA(#407);
#386=SURFACE_STYLE_FILL_AREA(#408);
#387=SURFACE_STYLE_FILL_AREA(#409);
#388=SURFACE_STYLE_FILL_AREA(#410);
#389=SURFACE_STYLE_FILL_AREA(#411);
#390=SURFACE_STYLE_FILL_AREA(#412);
#391=SURFACE_STYLE_FILL_AREA(#413);
#392=SURFACE_STYLE_FILL_AREA(#414);
#393=SURFACE_STYLE_FILL_AREA(#415);
#394=SURFACE_STYLE_FILL_AREA(#416);
#395=SURFACE_STYLE_FILL_AREA(#417);
#396=SURFACE_STYLE_FILL_AREA(#418);
#397=SURFACE_STYLE_FILL_AREA(#419);
#398=SURFACE_STYLE_FILL_AREA(#420);
#399=SURFACE_STYLE_FILL_AREA(#421);
#400=SURFACE_STYLE_FILL_AREA(#422);
#401=SURFACE_STYLE_FILL_AREA(#423);
#402=SURFACE_STYLE_FILL_AREA(#424);
#403=SURFACE_STYLE_FILL_AREA(#425);
#404=SURFACE_STYLE_FILL_AREA(#426);
#405=FILL_AREA_STYLE('',(#427));
#406=FILL_AREA_STYLE('',(#428));
#407=FILL_AREA_STYLE('',(#429));
#408=FILL_AREA_STYLE('',(#430));
#409=FILL_AREA_STYLE('',(#431));
#410=FILL_AREA_STYLE('',(#432));
#411=FILL_AREA_STYLE('',(#433));
#412=FILL_AREA_STYLE('',(#434));
#413=FILL_AREA_STYLE('',(#435));
#414=FILL_AREA_STYLE('',(#436));
#415=FILL_AREA_STYLE('',(#437));
#416=FILL_AREA_STYLE('',(#438));
#417=FILL_AREA_STYLE('',(#439));
#418=FILL_AREA_STYLE('',(#440));
#419=FILL_AREA_STYLE('',(#441));
#420=FILL_AREA_STYLE('',(#442));
#421=FILL_AREA_STYLE('',(#443));
#422=FILL_AREA_STYLE('',(#444));
#423=FILL_AREA_STYLE('',(#445));
#424=FILL_AREA_STYLE('',(#446));
#425=FILL_AREA_STYLE('',(#447));
#426=FILL_AREA_STYLE('',(#448));
#427=FILL_AREA_STYLE_COLOUR('',#449);
#428=FILL_AREA_STYLE_COLOUR('',#450);
#429=FILL_AREA_STYLE_COLOUR('',#450);
#430=FILL_AREA_STYLE_COLOUR('',#450);
#431=FILL_AREA_STYLE_COLOUR('',#450);
#432=FILL_AREA_STYLE_COLOUR('',#450);
#433=FILL_AREA_STYLE_COLOUR('',#450);
#434=FILL_AREA_STYLE_COLOUR('',#450);
#435=FILL_AREA_STYLE_COLOUR('',#450);
#436=FILL_AREA_STYLE_COLOUR('',#450);
#437=FILL_AREA_STYLE_COLOUR('',#450);
#438=FILL_AREA_STYLE_COLOUR('',#450);
#439=FILL_AREA_STYLE_COLOUR('',#450);
#440=FILL_AREA_STYLE_COLOUR('',#450);
#441=FILL_AREA_STYLE_COLOUR('',#450);
#442=FILL_AREA_STYLE_COLOUR('',#450);
#443=FILL_AREA_STYLE_COLOUR('',#450);
#444=FILL_AREA_STYLE_COLOUR('',#450);
#445=FILL_AREA_STYLE_COLOUR('',#450);
#446=FILL_AREA_STYLE_COLOUR('',#450);
#447=FILL_AREA_STYLE_COLOUR('',#450);
#448=FILL_AREA_STYLE_COLOUR('',#450);
#449=COLOUR_RGB('',0.1875,0.75,0.581249892711639);
#450=COLOUR_RGB('',0.506983280181885,0.531564235687256,0.550000011920929);
#451=ADVANCED_FACE('',(#250,#251),#288,.T.);
#452=ADVANCED_FACE('',(#252),#59,.T.);
#453=ADVANCED_FACE('',(#253),#60,.T.);
#454=ADVANCED_FACE('',(#254),#61,.T.);
#455=ADVANCED_FACE('',(#255),#62,.T.);
#456=ADVANCED_FACE('',(#256),#63,.T.);
#457=ADVANCED_FACE('',(#257),#64,.T.);
#458=ADVANCED_FACE('',(#258,#259),#65,.F.);
#459=ADVANCED_FACE('',(#260,#261),#66,.T.);
#460=ADVANCED_FACE('',(#262,#263),#289,.T.);
#461=ADVANCED_FACE('',(#264,#265),#67,.F.);
#462=ADVANCED_FACE('',(#266,#267),#290,.T.);
#463=ADVANCED_FACE('',(#268,#269),#68,.F.);
#464=ADVANCED_FACE('',(#270,#271),#291,.F.);
#465=ADVANCED_FACE('',(#272,#273),#292,.T.);
#466=ADVANCED_FACE('',(#274,#275),#69,.F.);
#467=ADVANCED_FACE('',(#276,#277),#293,.T.);
#468=ADVANCED_FACE('',(#278,#279),#22,.T.);
#469=ADVANCED_FACE('',(#280,#281),#70,.F.);
#470=ADVANCED_FACE('',(#282,#283),#71,.T.);
#471=ADVANCED_FACE('',(#284,#285),#72,.F.);
#472=ADVANCED_FACE('',(#286,#287),#294,.F.);
#473=CLOSED_SHELL('',(#451,#452,#453,#454,#455,#456,#457,#458,#459,#460,
#461,#462,#463,#464,#465,#466,#467,#468,#469,#470,#471,#472));
#474=MANIFOLD_SOLID_BREP('',#473);
#475=SHAPE_DEFINITION_REPRESENTATION(#716,#476);
#476=SHAPE_REPRESENTATION('P1.1;4.10;32',(#477),#711);
#477=AXIS2_PLACEMENT_3D('',#606,#514,#515);
#478=AXIS2_PLACEMENT_3D('',#607,#516,#517);
#479=AXIS2_PLACEMENT_3D('',#608,#518,#519);
#480=AXIS2_PLACEMENT_3D('',#610,#520,#521);
#481=AXIS2_PLACEMENT_3D('',#612,#522,#523);
#482=AXIS2_PLACEMENT_3D('',#621,#528,#529);
#483=AXIS2_PLACEMENT_3D('',#627,#533,#534);
#484=AXIS2_PLACEMENT_3D('',#633,#538,#539);
#485=AXIS2_PLACEMENT_3D('',#639,#543,#544);
#486=AXIS2_PLACEMENT_3D('',#645,#548,#549);
#487=AXIS2_PLACEMENT_3D('',#648,#552,#553);
#488=AXIS2_PLACEMENT_3D('',#649,#554,#555);
#489=AXIS2_PLACEMENT_3D('',#651,#556,#557);
#490=AXIS2_PLACEMENT_3D('',#652,#558,#559);
#491=AXIS2_PLACEMENT_3D('',#654,#560,#561);
#492=AXIS2_PLACEMENT_3D('',#655,#562,#563);
#493=AXIS2_PLACEMENT_3D('',#657,#564,#565);
#494=AXIS2_PLACEMENT_3D('',#658,#566,#567);
#495=AXIS2_PLACEMENT_3D('',#660,#568,#569);
#496=AXIS2_PLACEMENT_3D('',#661,#570,#571);
#497=AXIS2_PLACEMENT_3D('',#662,#572,#573);
#498=AXIS2_PLACEMENT_3D('',#664,#574,#575);
#499=AXIS2_PLACEMENT_3D('',#665,#576,#577);
#500=AXIS2_PLACEMENT_3D('',#667,#578,#579);
#501=AXIS2_PLACEMENT_3D('',#668,#580,#581);
#502=AXIS2_PLACEMENT_3D('',#670,#582,#583);
#503=AXIS2_PLACEMENT_3D('',#671,#584,#585);
#504=AXIS2_PLACEMENT_3D('',#673,#586,#587);
#505=AXIS2_PLACEMENT_3D('',#674,#588,#589);
#506=AXIS2_PLACEMENT_3D('',#698,#590,#591);
#507=AXIS2_PLACEMENT_3D('',#700,#592,#593);
#508=AXIS2_PLACEMENT_3D('',#702,#594,#595);
#509=AXIS2_PLACEMENT_3D('',#703,#596,#597);
#510=AXIS2_PLACEMENT_3D('',#705,#598,#599);
#511=AXIS2_PLACEMENT_3D('',#706,#600,#601);
#512=AXIS2_PLACEMENT_3D('',#707,#602,#603);
#513=AXIS2_PLACEMENT_3D('',#709,#604,#605);
#514=DIRECTION('',(0.,0.,1.));
#515=DIRECTION('',(1.,0.,0.));
#516=DIRECTION('',(0.,1.,0.));
#517=DIRECTION('',(0.,0.,1.));
#518=DIRECTION('',(0.,1.,0.));
#519=DIRECTION('',(0.,0.,1.));
#520=DIRECTION('',(0.,-1.,0.));
#521=DIRECTION('',(0.,0.,1.));
#522=DIRECTION('',(-1.,0.,-1.5500071256812E-15));
#523=DIRECTION('',(-1.5500071256812E-15,0.,1.));
#524=DIRECTION('',(1.5500071256812E-15,0.,-1.));
#525=DIRECTION('',(0.,-1.,0.));
#526=DIRECTION('',(1.5500071256812E-15,0.,-1.));
#527=DIRECTION('',(0.,-1.,0.));
#528=DIRECTION('',(-0.499999999999998,0.,-0.86602540378444));
#529=DIRECTION('',(-0.86602540378444,0.,0.499999999999998));
#530=DIRECTION('',(0.86602540378444,0.,-0.499999999999998));
#531=DIRECTION('',(0.86602540378444,0.,-0.499999999999998));
#532=DIRECTION('',(0.,-1.,0.));
#533=DIRECTION('',(0.500000000000002,0.,-0.866025403784437));
#534=DIRECTION('',(-0.866025403784437,0.,-0.500000000000002));
#535=DIRECTION('',(0.866025403784437,0.,0.500000000000002));
#536=DIRECTION('',(0.866025403784437,0.,0.500000000000002));
#537=DIRECTION('',(0.,-1.,0.));
#538=DIRECTION('',(1.,0.,3.21924556872248E-15));
#539=DIRECTION('',(3.21924556872248E-15,0.,-1.));
#540=DIRECTION('',(-3.21924556872248E-15,0.,1.));
#541=DIRECTION('',(-3.21924556872248E-15,0.,1.));
#542=DIRECTION('',(0.,-1.,0.));
#543=DIRECTION('',(0.499999999999998,0.,0.86602540378444));
#544=DIRECTION('',(0.86602540378444,0.,-0.499999999999998));
#545=DIRECTION('',(-0.86602540378444,0.,0.499999999999998));
#546=DIRECTION('',(-0.86602540378444,0.,0.499999999999998));
#547=DIRECTION('',(0.,-1.,0.));
#548=DIRECTION('',(-0.500000000000001,0.,0.866025403784438));
#549=DIRECTION('',(0.866025403784438,0.,0.500000000000001));
#550=DIRECTION('',(-0.866025403784438,0.,-0.500000000000001));
#551=DIRECTION('',(-0.866025403784438,0.,-0.500000000000001));
#552=DIRECTION('',(0.,-1.,0.));
#553=DIRECTION('',(0.,0.,-1.));
#554=DIRECTION('',(0.,-1.,0.));
#555=DIRECTION('',(-1.5500071256812E-15,0.,1.));
#556=DIRECTION('',(0.,-1.,0.));
#557=DIRECTION('',(0.,0.,-1.));
#558=DIRECTION('',(0.,1.,0.));
#559=DIRECTION('',(1.,0.,0.));
#560=DIRECTION('',(0.,1.,0.));
#561=DIRECTION('',(0.,0.,1.));
#562=DIRECTION('',(0.,1.,0.));
#563=DIRECTION('',(1.,0.,0.));
#564=DIRECTION('',(0.,1.,0.));
#565=DIRECTION('',(0.,0.,1.));
#566=DIRECTION('',(0.,1.,0.));
#567=DIRECTION('',(0.,0.,1.));
#568=DIRECTION('',(0.,1.,0.));
#569=DIRECTION('',(0.,0.,1.));
#570=DIRECTION('',(0.,1.,0.));
#571=DIRECTION('',(0.,0.,1.));
#572=DIRECTION('',(0.,1.,0.));
#573=DIRECTION('',(1.,0.,0.));
#574=DIRECTION('',(0.,-1.,0.));
#575=DIRECTION('',(0.,0.,-1.));
#576=DIRECTION('',(0.,1.,0.));
#577=DIRECTION('',(1.,0.,0.));
#578=DIRECTION('',(0.,-1.,0.));
#579=DIRECTION('',(0.,0.,-1.));
#580=DIRECTION('',(0.,-1.,0.));
#581=DIRECTION('',(-1.5500071256812E-15,0.,1.));
#582=DIRECTION('',(0.,-1.,0.));
#583=DIRECTION('',(0.,0.,-1.));
#584=DIRECTION('',(0.,-1.,0.));
#585=DIRECTION('',(-1.,0.,0.));
#586=DIRECTION('',(0.,-1.,0.));
#587=DIRECTION('',(0.,0.,-1.));
#588=DIRECTION('',(0.,-1.,0.));
#589=DIRECTION('',(-1.,0.,0.));
#590=DIRECTION('',(0.,-1.,0.));
#591=DIRECTION('',(0.,0.,-1.));
#592=DIRECTION('',(0.,-1.,0.));
#593=DIRECTION('',(0.,0.,-1.));
#594=DIRECTION('',(0.,-1.,0.));
#595=DIRECTION('',(0.,0.,-1.));
#596=DIRECTION('',(0.,-1.,0.));
#597=DIRECTION('',(-1.,0.,0.));
#598=DIRECTION('',(0.,-1.,0.));
#599=DIRECTION('',(0.,0.,-1.));
#600=DIRECTION('',(0.,-1.,0.));
#601=DIRECTION('',(0.,0.,-1.));
#602=DIRECTION('',(0.,-1.,0.));
#603=DIRECTION('',(-1.,0.,0.));
#604=DIRECTION('',(0.,1.,0.));
#605=DIRECTION('',(0.,0.,1.));
#606=CARTESIAN_POINT('',(0.,0.,0.));
#607=CARTESIAN_POINT('',(0.,-5.25,0.));
#608=CARTESIAN_POINT('',(0.,-5.25,0.));
#609=CARTESIAN_POINT('',(0.,-5.25,2.5));
#610=CARTESIAN_POINT('',(0.,-2.55,0.));
#611=CARTESIAN_POINT('',(0.,-2.55,2.5));
#612=CARTESIAN_POINT('',(-6.3,12.5,3.63730669589464));
#613=CARTESIAN_POINT('',(-6.3,0.,3.63730669589464));
#614=CARTESIAN_POINT('',(-6.3,0.,3.63730669589464));
#615=CARTESIAN_POINT('',(-6.29999999999999,0.,-3.63730669589465));
#616=CARTESIAN_POINT('',(-6.3,12.5,3.63730669589464));
#617=CARTESIAN_POINT('',(-6.3,12.5,3.63730669589464));
#618=CARTESIAN_POINT('',(-6.3,12.5,3.63730669589464));
#619=CARTESIAN_POINT('',(-6.29999999999999,12.5,-3.63730669589465));
#620=CARTESIAN_POINT('',(-6.29999999999999,12.5,-3.63730669589465));
#621=CARTESIAN_POINT('',(-6.29999999999999,12.5,-3.63730669589465));
#622=CARTESIAN_POINT('',(-6.29999999999999,0.,-3.63730669589465));
#623=CARTESIAN_POINT('',(2.16840434497101E-14,0.,-7.27461339178927));
#624=CARTESIAN_POINT('',(-6.29999999999999,12.5,-3.63730669589465));
#625=CARTESIAN_POINT('',(2.16840434497101E-14,12.5,-7.27461339178927));
#626=CARTESIAN_POINT('',(2.16840434497101E-14,12.5,-7.27461339178927));
#627=CARTESIAN_POINT('',(2.16840434497101E-14,12.5,-7.27461339178927));
#628=CARTESIAN_POINT('',(2.16840434497101E-14,0.,-7.27461339178927));
#629=CARTESIAN_POINT('',(6.30000000000001,0.,-3.63730669589461));
#630=CARTESIAN_POINT('',(2.16840434497101E-14,12.5,-7.27461339178927));
#631=CARTESIAN_POINT('',(6.30000000000001,12.5,-3.63730669589461));
#632=CARTESIAN_POINT('',(6.30000000000001,12.5,-3.63730669589461));
#633=CARTESIAN_POINT('',(6.30000000000001,12.5,-3.63730669589461));
#634=CARTESIAN_POINT('',(6.30000000000001,0.,-3.63730669589461));
#635=CARTESIAN_POINT('',(6.29999999999999,0.,3.63730669589467));
#636=CARTESIAN_POINT('',(6.30000000000001,12.5,-3.63730669589461));
#637=CARTESIAN_POINT('',(6.29999999999999,12.5,3.63730669589467));
#638=CARTESIAN_POINT('',(6.29999999999999,12.5,3.63730669589467));
#639=CARTESIAN_POINT('',(6.29999999999999,12.5,3.63730669589467));
#640=CARTESIAN_POINT('',(6.29999999999999,0.,3.63730669589467));
#641=CARTESIAN_POINT('',(-8.67361737988404E-16,0.,7.27461339178928));
#642=CARTESIAN_POINT('',(6.29999999999999,12.5,3.63730669589467));
#643=CARTESIAN_POINT('',(-8.67361737988404E-16,12.5,7.27461339178928));
#644=CARTESIAN_POINT('',(-8.67361737988404E-16,12.5,7.27461339178928));
#645=CARTESIAN_POINT('',(0.,12.5,7.27461339178928));
#646=CARTESIAN_POINT('',(0.,0.,7.27461339178928));
#647=CARTESIAN_POINT('',(0.,12.5,7.27461339178928));
#648=CARTESIAN_POINT('',(0.,12.5,0.));
#649=CARTESIAN_POINT('',(0.,12.5,0.));
#650=CARTESIAN_POINT('',(-9.30004275408718E-15,12.5,6.));
#651=CARTESIAN_POINT('',(0.,0.,0.));
#652=CARTESIAN_POINT('',(0.,0.,0.));
#653=CARTESIAN_POINT('',(3.9,0.,0.));
#654=CARTESIAN_POINT('',(0.,-1.5,0.));
#655=CARTESIAN_POINT('',(0.,-1.5,0.));
#656=CARTESIAN_POINT('',(3.9,-1.5,0.));
#657=CARTESIAN_POINT('',(0.,-1.5,0.));
#658=CARTESIAN_POINT('',(0.,-1.5,0.));
#659=CARTESIAN_POINT('',(0.,-1.5,2.5));
#660=CARTESIAN_POINT('',(0.,-5.25,0.));
#661=CARTESIAN_POINT('',(0.,-5.25,0.));
#662=CARTESIAN_POINT('',(0.,-5.25,0.));
#663=CARTESIAN_POINT('',(1.,-5.25,0.));
#664=CARTESIAN_POINT('',(0.,2.14333524661742,0.));
#665=CARTESIAN_POINT('',(0.,2.14333524661742,0.));
#666=CARTESIAN_POINT('',(1.,2.14333524661742,0.));
#667=CARTESIAN_POINT('',(0.,14.5,0.));
#668=CARTESIAN_POINT('',(0.,14.5,0.));
#669=CARTESIAN_POINT('',(-9.30004275408718E-15,14.5,6.));
#670=CARTESIAN_POINT('',(0.,14.5,0.));
#671=CARTESIAN_POINT('',(0.,14.5,0.));
#672=CARTESIAN_POINT('',(-4.75,14.5,0.));
#673=CARTESIAN_POINT('',(0.,16.,0.));
#674=CARTESIAN_POINT('',(0.,16.,0.));
#675=CARTESIAN_POINT('',(-4.75,16.,0.));
#676=CARTESIAN_POINT('',(-4.62330858685825,18.,-5.40692021174942));
#677=CARTESIAN_POINT('',(-4.62330858685825,16.,-5.40692021174942));
#678=CARTESIAN_POINT('',(5.63785129692462E-15,18.,-7.64653989412528));
#679=CARTESIAN_POINT('',(5.63785129692462E-15,16.,-7.64653989412528));
#680=CARTESIAN_POINT('',(4.62330858685822,18.,-5.40692021174945));
#681=CARTESIAN_POINT('',(4.62330858685822,16.,-5.40692021174945));
#682=CARTESIAN_POINT('',(6.53834570657089,18.,-3.46944695195361E-15));
#683=CARTESIAN_POINT('',(6.53834570657089,16.,-3.46944695195361E-15));
#684=CARTESIAN_POINT('',(4.62330858685822,18.,5.40692021174946));
#685=CARTESIAN_POINT('',(4.62330858685822,16.,5.40692021174946));
#686=CARTESIAN_POINT('',(4.08608693755474E-15,18.,7.64653989412527));
#687=CARTESIAN_POINT('',(4.08608693755474E-15,16.,7.64653989412527));
#688=CARTESIAN_POINT('',(-4.62330858685823,18.,5.40692021174945));
#689=CARTESIAN_POINT('',(-4.62330858685823,16.,5.40692021174945));
#690=CARTESIAN_POINT('',(-6.53834570657088,18.,-2.4231918555051E-14));
#691=CARTESIAN_POINT('',(-6.53834570657088,16.,-2.4231918555051E-14));
#692=CARTESIAN_POINT('',(-4.62330858685825,18.,-5.40692021174942));
#693=CARTESIAN_POINT('',(-4.62330858685825,16.,-5.40692021174942));
#694=CARTESIAN_POINT('',(5.63785129692462E-15,18.,-7.64653989412528));
#695=CARTESIAN_POINT('',(5.63785129692462E-15,16.,-7.64653989412528));
#696=CARTESIAN_POINT('',(4.62330858685822,18.,-5.40692021174945));
#697=CARTESIAN_POINT('',(4.62330858685822,16.,-5.40692021174945));
#698=CARTESIAN_POINT('',(0.,18.,0.));
#699=CARTESIAN_POINT('',(0.,18.,-6.9));
#700=CARTESIAN_POINT('',(0.,16.,0.));
#701=CARTESIAN_POINT('',(0.,16.,-6.9));
#702=CARTESIAN_POINT('',(0.,18.,0.));
#703=CARTESIAN_POINT('',(0.,18.,0.));
#704=CARTESIAN_POINT('',(-3.175,18.,0.));
#705=CARTESIAN_POINT('',(0.,16.,0.));
#706=CARTESIAN_POINT('',(0.,2.14333524661742,0.));
#707=CARTESIAN_POINT('',(0.,2.14333524661742,0.));
#708=CARTESIAN_POINT('',(-3.175,2.14333524661742,0.));
#709=CARTESIAN_POINT('',(0.,2.14333524661742,0.));
#710=MECHANICAL_DESIGN_GEOMETRIC_PRESENTATION_REPRESENTATION('',(#295,#296,
#297,#298,#299,#300,#301,#302,#303,#304,#305,#306,#307,#308,#309,#310,#311,
#312,#313,#314,#315,#316),#711);
#711=(
GEOMETRIC_REPRESENTATION_CONTEXT(3)
GLOBAL_UNCERTAINTY_ASSIGNED_CONTEXT((#712))
GLOBAL_UNIT_ASSIGNED_CONTEXT((#715,#714,#713))
REPRESENTATION_CONTEXT('P1.1;4.10;32','TOP_LEVEL_ASSEMBLY_PART')
);
#712=UNCERTAINTY_MEASURE_WITH_UNIT(LENGTH_MEASURE(0.005),#715,
'DISTANCE_ACCURACY_VALUE','Maximum Tolerance applied to model');
#713=(
NAMED_UNIT(*)
SI_UNIT($,.STERADIAN.)
SOLID_ANGLE_UNIT()
);
#714=(
NAMED_UNIT(*)
PLANE_ANGLE_UNIT()
SI_UNIT($,.RADIAN.)
);
#715=(
LENGTH_UNIT()
NAMED_UNIT(*)
SI_UNIT(.MILLI.,.METRE.)
);
#716=PRODUCT_DEFINITION_SHAPE('','',#717);
#717=PRODUCT_DEFINITION('','',#719,#718);
#718=PRODUCT_DEFINITION_CONTEXT('',#725,'design');
#719=PRODUCT_DEFINITION_FORMATION_WITH_SPECIFIED_SOURCE('','',#721,
 .NOT_KNOWN.);
#720=PRODUCT_RELATED_PRODUCT_CATEGORY('','',(#721));
#721=PRODUCT('P1.1;4.10;32','P1.1;4.10;32','P1.1;4.10;32',(#723));
#722=PRODUCT_CATEGORY('','');
#723=PRODUCT_CONTEXT('',#725,'mechanical');
#724=APPLICATION_PROTOCOL_DEFINITION('international standard',
'automotive_design',2010,#725);
#725=APPLICATION_CONTEXT(
'core data for automotive mechanical design processes');
ENDSEC;
END-ISO-10303-21;
