ISO-10303-21;
HEADER;
/* Generated by software containing ST-Developer
 * from STEP Tools, Inc. (www.steptools.com) 
 */
/* OPTION: strings as raw bytes, not using required /X/ escapes */

FILE_DESCRIPTION(
/* description */ ('Unknown'),
/* implementation_level */ '2;1');

FILE_NAME(
/* name */ 'P1.1;4.1;4',
/* time_stamp */ '2018-09-24T15:09:48-04:00',
/* author */ ('Unknown'),
/* organization */ ('Unknown'),
/* preprocessor_version */ 'ST-DEVELOPER v16.7',
/* originating_system */ 'DEX',
/* authorisation */ $);

FILE_SCHEMA (('AUTOMOTIVE_DESIGN {1 0 10303 214 3 1 1}'));
ENDSEC;

DATA;
#10=PROPERTY_DEFINITION_REPRESENTATION(#14,#12);
#11=PROPERTY_DEFINITION_REPRESENTATION(#15,#13);
#12=REPRESENTATION('',(#16),#670);
#13=REPRESENTATION('',(#17),#670);
#14=PROPERTY_DEFINITION('pmi validation property','',#675);
#15=PROPERTY_DEFINITION('pmi validation property','',#675);
#16=VALUE_REPRESENTATION_ITEM('number of annotations',COUNT_MEASURE(0.));
#17=VALUE_REPRESENTATION_ITEM('number of views',COUNT_MEASURE(0.));
#18=SHAPE_REPRESENTATION_RELATIONSHIP('','',#449,#19);
#19=ADVANCED_BREP_SHAPE_REPRESENTATION('',(#447),#670);
#20=ELLIPSE('',#476,6.9,5.9);
#21=ELLIPSE('',#477,6.9,5.9);
#22=B_SPLINE_SURFACE_WITH_KNOTS('',3,1,((#635,#636),(#637,#638),(#639,#640),
(#641,#642),(#643,#644),(#645,#646),(#647,#648),(#649,#650),(#651,#652),
(#653,#654),(#655,#656)),.SURF_OF_LINEAR_EXTRUSION.,.T.,.F.,.F.,(1,1,1,
1,1,1,1,1,1,1,1,1,1,1,1),(2,2),(-2.35619449019234,-1.5707963267949,-0.785398163397448,
0.,0.785398163397448,1.5707963267949,2.35619449019234,3.14159265358979,
3.92699081698724,4.71238898038469,5.49778714378214,6.28318530717959,7.06858347057703,
7.85398163397448,8.63937979737193),(0.,1.),.UNSPECIFIED.);
#23=CONICAL_SURFACE('',#463,6.858,0.0436332312998582);
#24=LINE('',#577,#42);
#25=LINE('',#580,#43);
#26=LINE('',#582,#44);
#27=LINE('',#584,#45);
#28=LINE('',#586,#46);
#29=LINE('',#588,#47);
#30=LINE('',#590,#48);
#31=LINE('',#592,#49);
#32=LINE('',#594,#50);
#33=LINE('',#596,#51);
#34=LINE('',#598,#52);
#35=LINE('',#600,#53);
#36=LINE('',#602,#54);
#37=LINE('',#604,#55);
#38=LINE('',#606,#56);
#39=LINE('',#608,#57);
#40=LINE('',#610,#58);
#41=LINE('',#611,#59);
#42=VECTOR('',#494,1000.);
#43=VECTOR('',#495,1000.);
#44=VECTOR('',#496,1000.);
#45=VECTOR('',#497,1000.);
#46=VECTOR('',#500,1000.);
#47=VECTOR('',#501,1000.);
#48=VECTOR('',#502,1000.);
#49=VECTOR('',#505,1000.);
#50=VECTOR('',#506,1000.);
#51=VECTOR('',#507,1000.);
#52=VECTOR('',#510,1000.);
#53=VECTOR('',#511,1000.);
#54=VECTOR('',#512,1000.);
#55=VECTOR('',#515,1000.);
#56=VECTOR('',#516,1000.);
#57=VECTOR('',#517,1000.);
#58=VECTOR('',#520,1000.);
#59=VECTOR('',#521,1000.);
#60=PLANE('',#454);
#61=PLANE('',#455);
#62=PLANE('',#456);
#63=PLANE('',#457);
#64=PLANE('',#458);
#65=PLANE('',#459);
#66=PLANE('',#460);
#67=PLANE('',#462);
#68=PLANE('',#465);
#69=PLANE('',#468);
#70=PLANE('',#472);
#71=PLANE('',#478);
#72=PLANE('',#480);
#73=PLANE('',#483);
#74=ORIENTED_EDGE('',*,*,#136,.T.);
#75=ORIENTED_EDGE('',*,*,#137,.T.);
#76=ORIENTED_EDGE('',*,*,#138,.T.);
#77=ORIENTED_EDGE('',*,*,#139,.F.);
#78=ORIENTED_EDGE('',*,*,#140,.F.);
#79=ORIENTED_EDGE('',*,*,#141,.T.);
#80=ORIENTED_EDGE('',*,*,#142,.T.);
#81=ORIENTED_EDGE('',*,*,#143,.F.);
#82=ORIENTED_EDGE('',*,*,#144,.F.);
#83=ORIENTED_EDGE('',*,*,#139,.T.);
#84=ORIENTED_EDGE('',*,*,#145,.T.);
#85=ORIENTED_EDGE('',*,*,#146,.F.);
#86=ORIENTED_EDGE('',*,*,#147,.F.);
#87=ORIENTED_EDGE('',*,*,#143,.T.);
#88=ORIENTED_EDGE('',*,*,#148,.T.);
#89=ORIENTED_EDGE('',*,*,#149,.F.);
#90=ORIENTED_EDGE('',*,*,#150,.F.);
#91=ORIENTED_EDGE('',*,*,#146,.T.);
#92=ORIENTED_EDGE('',*,*,#151,.T.);
#93=ORIENTED_EDGE('',*,*,#152,.F.);
#94=ORIENTED_EDGE('',*,*,#153,.F.);
#95=ORIENTED_EDGE('',*,*,#149,.T.);
#96=ORIENTED_EDGE('',*,*,#154,.T.);
#97=ORIENTED_EDGE('',*,*,#141,.F.);
#98=ORIENTED_EDGE('',*,*,#155,.F.);
#99=ORIENTED_EDGE('',*,*,#152,.T.);
#100=ORIENTED_EDGE('',*,*,#156,.T.);
#101=ORIENTED_EDGE('',*,*,#140,.T.);
#102=ORIENTED_EDGE('',*,*,#144,.T.);
#103=ORIENTED_EDGE('',*,*,#147,.T.);
#104=ORIENTED_EDGE('',*,*,#150,.T.);
#105=ORIENTED_EDGE('',*,*,#153,.T.);
#106=ORIENTED_EDGE('',*,*,#155,.T.);
#107=ORIENTED_EDGE('',*,*,#136,.F.);
#108=ORIENTED_EDGE('',*,*,#138,.F.);
#109=ORIENTED_EDGE('',*,*,#154,.F.);
#110=ORIENTED_EDGE('',*,*,#151,.F.);
#111=ORIENTED_EDGE('',*,*,#148,.F.);
#112=ORIENTED_EDGE('',*,*,#145,.F.);
#113=ORIENTED_EDGE('',*,*,#142,.F.);
#114=ORIENTED_EDGE('',*,*,#137,.F.);
#115=ORIENTED_EDGE('',*,*,#157,.F.);
#116=ORIENTED_EDGE('',*,*,#157,.T.);
#117=ORIENTED_EDGE('',*,*,#158,.T.);
#118=ORIENTED_EDGE('',*,*,#156,.F.);
#119=ORIENTED_EDGE('',*,*,#159,.T.);
#120=ORIENTED_EDGE('',*,*,#158,.F.);
#121=ORIENTED_EDGE('',*,*,#160,.T.);
#122=ORIENTED_EDGE('',*,*,#159,.F.);
#123=ORIENTED_EDGE('',*,*,#161,.T.);
#124=ORIENTED_EDGE('',*,*,#160,.F.);
#125=ORIENTED_EDGE('',*,*,#162,.T.);
#126=ORIENTED_EDGE('',*,*,#161,.F.);
#127=ORIENTED_EDGE('',*,*,#163,.T.);
#128=ORIENTED_EDGE('',*,*,#164,.F.);
#129=ORIENTED_EDGE('',*,*,#165,.T.);
#130=ORIENTED_EDGE('',*,*,#163,.F.);
#131=ORIENTED_EDGE('',*,*,#162,.F.);
#132=ORIENTED_EDGE('',*,*,#164,.T.);
#133=ORIENTED_EDGE('',*,*,#166,.T.);
#134=ORIENTED_EDGE('',*,*,#165,.F.);
#135=ORIENTED_EDGE('',*,*,#166,.F.);
#136=EDGE_CURVE('',#167,#167,#192,.F.);
#137=EDGE_CURVE('',#168,#168,#193,.T.);
#138=EDGE_CURVE('',#169,#170,#24,.T.);
#139=EDGE_CURVE('',#171,#170,#25,.T.);
#140=EDGE_CURVE('',#172,#171,#26,.T.);
#141=EDGE_CURVE('',#172,#169,#27,.T.);
#142=EDGE_CURVE('',#170,#173,#28,.T.);
#143=EDGE_CURVE('',#174,#173,#29,.T.);
#144=EDGE_CURVE('',#171,#174,#30,.T.);
#145=EDGE_CURVE('',#173,#175,#31,.T.);
#146=EDGE_CURVE('',#176,#175,#32,.T.);
#147=EDGE_CURVE('',#174,#176,#33,.T.);
#148=EDGE_CURVE('',#175,#177,#34,.T.);
#149=EDGE_CURVE('',#178,#177,#35,.T.);
#150=EDGE_CURVE('',#176,#178,#36,.T.);
#151=EDGE_CURVE('',#177,#179,#37,.T.);
#152=EDGE_CURVE('',#180,#179,#38,.T.);
#153=EDGE_CURVE('',#178,#180,#39,.T.);
#154=EDGE_CURVE('',#179,#169,#40,.T.);
#155=EDGE_CURVE('',#180,#172,#41,.T.);
#156=EDGE_CURVE('',#181,#181,#194,.T.);
#157=EDGE_CURVE('',#182,#182,#195,.T.);
#158=EDGE_CURVE('',#183,#183,#196,.T.);
#159=EDGE_CURVE('',#184,#184,#197,.T.);
#160=EDGE_CURVE('',#185,#185,#198,.T.);
#161=EDGE_CURVE('',#186,#186,#199,.T.);
#162=EDGE_CURVE('',#187,#187,#200,.T.);
#163=EDGE_CURVE('',#188,#188,#20,.T.);
#164=EDGE_CURVE('',#189,#189,#21,.T.);
#165=EDGE_CURVE('',#190,#190,#201,.T.);
#166=EDGE_CURVE('',#191,#191,#202,.T.);
#167=VERTEX_POINT('',#573);
#168=VERTEX_POINT('',#575);
#169=VERTEX_POINT('',#578);
#170=VERTEX_POINT('',#579);
#171=VERTEX_POINT('',#581);
#172=VERTEX_POINT('',#583);
#173=VERTEX_POINT('',#587);
#174=VERTEX_POINT('',#589);
#175=VERTEX_POINT('',#593);
#176=VERTEX_POINT('',#595);
#177=VERTEX_POINT('',#599);
#178=VERTEX_POINT('',#601);
#179=VERTEX_POINT('',#605);
#180=VERTEX_POINT('',#607);
#181=VERTEX_POINT('',#614);
#182=VERTEX_POINT('',#618);
#183=VERTEX_POINT('',#622);
#184=VERTEX_POINT('',#625);
#185=VERTEX_POINT('',#628);
#186=VERTEX_POINT('',#631);
#187=VERTEX_POINT('',#634);
#188=VERTEX_POINT('',#658);
#189=VERTEX_POINT('',#660);
#190=VERTEX_POINT('',#663);
#191=VERTEX_POINT('',#667);
#192=CIRCLE('',#452,6.858);
#193=CIRCLE('',#453,6.858);
#194=CIRCLE('',#461,6.);
#195=CIRCLE('',#464,6.42050425377384);
#196=CIRCLE('',#467,6.);
#197=CIRCLE('',#469,4.75);
#198=CIRCLE('',#471,4.75);
#199=CIRCLE('',#473,3.675);
#200=CIRCLE('',#475,3.675);
#201=CIRCLE('',#479,3.175);
#202=CIRCLE('',#482,3.175);
#203=EDGE_LOOP('',(#74));
#204=EDGE_LOOP('',(#75));
#205=EDGE_LOOP('',(#76,#77,#78,#79));
#206=EDGE_LOOP('',(#80,#81,#82,#83));
#207=EDGE_LOOP('',(#84,#85,#86,#87));
#208=EDGE_LOOP('',(#88,#89,#90,#91));
#209=EDGE_LOOP('',(#92,#93,#94,#95));
#210=EDGE_LOOP('',(#96,#97,#98,#99));
#211=EDGE_LOOP('',(#100));
#212=EDGE_LOOP('',(#101,#102,#103,#104,#105,#106));
#213=EDGE_LOOP('',(#107));
#214=EDGE_LOOP('',(#108,#109,#110,#111,#112,#113));
#215=EDGE_LOOP('',(#114));
#216=EDGE_LOOP('',(#115));
#217=EDGE_LOOP('',(#116));
#218=EDGE_LOOP('',(#117));
#219=EDGE_LOOP('',(#118));
#220=EDGE_LOOP('',(#119));
#221=EDGE_LOOP('',(#120));
#222=EDGE_LOOP('',(#121));
#223=EDGE_LOOP('',(#122));
#224=EDGE_LOOP('',(#123));
#225=EDGE_LOOP('',(#124));
#226=EDGE_LOOP('',(#125));
#227=EDGE_LOOP('',(#126));
#228=EDGE_LOOP('',(#127));
#229=EDGE_LOOP('',(#128));
#230=EDGE_LOOP('',(#129));
#231=EDGE_LOOP('',(#130));
#232=EDGE_LOOP('',(#131));
#233=EDGE_LOOP('',(#132));
#234=EDGE_LOOP('',(#133));
#235=EDGE_LOOP('',(#134));
#236=EDGE_LOOP('',(#135));
#237=FACE_BOUND('',#203,.T.);
#238=FACE_BOUND('',#204,.T.);
#239=FACE_BOUND('',#205,.T.);
#240=FACE_BOUND('',#206,.T.);
#241=FACE_BOUND('',#207,.T.);
#242=FACE_BOUND('',#208,.T.);
#243=FACE_BOUND('',#209,.T.);
#244=FACE_BOUND('',#210,.T.);
#245=FACE_BOUND('',#211,.T.);
#246=FACE_BOUND('',#212,.T.);
#247=FACE_BOUND('',#213,.T.);
#248=FACE_BOUND('',#214,.T.);
#249=FACE_BOUND('',#215,.T.);
#250=FACE_BOUND('',#216,.T.);
#251=FACE_BOUND('',#217,.T.);
#252=FACE_BOUND('',#218,.T.);
#253=FACE_BOUND('',#219,.T.);
#254=FACE_BOUND('',#220,.T.);
#255=FACE_BOUND('',#221,.T.);
#256=FACE_BOUND('',#222,.T.);
#257=FACE_BOUND('',#223,.T.);
#258=FACE_BOUND('',#224,.T.);
#259=FACE_BOUND('',#225,.T.);
#260=FACE_BOUND('',#226,.T.);
#261=FACE_BOUND('',#227,.T.);
#262=FACE_BOUND('',#228,.T.);
#263=FACE_BOUND('',#229,.T.);
#264=FACE_BOUND('',#230,.T.);
#265=FACE_BOUND('',#231,.T.);
#266=FACE_BOUND('',#232,.T.);
#267=FACE_BOUND('',#233,.T.);
#268=FACE_BOUND('',#234,.T.);
#269=FACE_BOUND('',#235,.T.);
#270=FACE_BOUND('',#236,.T.);
#271=CYLINDRICAL_SURFACE('',#451,6.858);
#272=CYLINDRICAL_SURFACE('',#466,6.);
#273=CYLINDRICAL_SURFACE('',#470,4.75);
#274=CYLINDRICAL_SURFACE('',#474,3.675);
#275=CYLINDRICAL_SURFACE('',#481,3.175);
#276=STYLED_ITEM('',(#297),#425);
#277=STYLED_ITEM('',(#298),#426);
#278=STYLED_ITEM('',(#299),#427);
#279=STYLED_ITEM('',(#300),#428);
#280=STYLED_ITEM('',(#301),#429);
#281=STYLED_ITEM('',(#302),#430);
#282=STYLED_ITEM('',(#303),#431);
#283=STYLED_ITEM('',(#304),#432);
#284=STYLED_ITEM('',(#305),#433);
#285=STYLED_ITEM('',(#306),#434);
#286=STYLED_ITEM('',(#307),#435);
#287=STYLED_ITEM('',(#308),#436);
#288=STYLED_ITEM('',(#309),#437);
#289=STYLED_ITEM('',(#310),#438);
#290=STYLED_ITEM('',(#311),#439);
#291=STYLED_ITEM('',(#312),#440);
#292=STYLED_ITEM('',(#313),#441);
#293=STYLED_ITEM('',(#314),#442);
#294=STYLED_ITEM('',(#315),#443);
#295=STYLED_ITEM('',(#316),#444);
#296=STYLED_ITEM('',(#317),#445);
#297=PRESENTATION_STYLE_ASSIGNMENT((#318));
#298=PRESENTATION_STYLE_ASSIGNMENT((#319));
#299=PRESENTATION_STYLE_ASSIGNMENT((#320));
#300=PRESENTATION_STYLE_ASSIGNMENT((#321));
#301=PRESENTATION_STYLE_ASSIGNMENT((#322));
#302=PRESENTATION_STYLE_ASSIGNMENT((#323));
#303=PRESENTATION_STYLE_ASSIGNMENT((#324));
#304=PRESENTATION_STYLE_ASSIGNMENT((#325));
#305=PRESENTATION_STYLE_ASSIGNMENT((#326));
#306=PRESENTATION_STYLE_ASSIGNMENT((#327));
#307=PRESENTATION_STYLE_ASSIGNMENT((#328));
#308=PRESENTATION_STYLE_ASSIGNMENT((#329));
#309=PRESENTATION_STYLE_ASSIGNMENT((#330));
#310=PRESENTATION_STYLE_ASSIGNMENT((#331));
#311=PRESENTATION_STYLE_ASSIGNMENT((#332));
#312=PRESENTATION_STYLE_ASSIGNMENT((#333));
#313=PRESENTATION_STYLE_ASSIGNMENT((#334));
#314=PRESENTATION_STYLE_ASSIGNMENT((#335));
#315=PRESENTATION_STYLE_ASSIGNMENT((#336));
#316=PRESENTATION_STYLE_ASSIGNMENT((#337));
#317=PRESENTATION_STYLE_ASSIGNMENT((#338));
#318=SURFACE_STYLE_USAGE(.BOTH.,#339);
#319=SURFACE_STYLE_USAGE(.BOTH.,#340);
#320=SURFACE_STYLE_USAGE(.BOTH.,#341);
#321=SURFACE_STYLE_USAGE(.BOTH.,#342);
#322=SURFACE_STYLE_USAGE(.BOTH.,#343);
#323=SURFACE_STYLE_USAGE(.BOTH.,#344);
#324=SURFACE_STYLE_USAGE(.BOTH.,#345);
#325=SURFACE_STYLE_USAGE(.BOTH.,#346);
#326=SURFACE_STYLE_USAGE(.BOTH.,#347);
#327=SURFACE_STYLE_USAGE(.BOTH.,#348);
#328=SURFACE_STYLE_USAGE(.BOTH.,#349);
#329=SURFACE_STYLE_USAGE(.BOTH.,#350);
#330=SURFACE_STYLE_USAGE(.BOTH.,#351);
#331=SURFACE_STYLE_USAGE(.BOTH.,#352);
#332=SURFACE_STYLE_USAGE(.BOTH.,#353);
#333=SURFACE_STYLE_USAGE(.BOTH.,#354);
#334=SURFACE_STYLE_USAGE(.BOTH.,#355);
#335=SURFACE_STYLE_USAGE(.BOTH.,#356);
#336=SURFACE_STYLE_USAGE(.BOTH.,#357);
#337=SURFACE_STYLE_USAGE(.BOTH.,#358);
#338=SURFACE_STYLE_USAGE(.BOTH.,#359);
#339=SURFACE_SIDE_STYLE('',(#360));
#340=SURFACE_SIDE_STYLE('',(#361));
#341=SURFACE_SIDE_STYLE('',(#362));
#342=SURFACE_SIDE_STYLE('',(#363));
#343=SURFACE_SIDE_STYLE('',(#364));
#344=SURFACE_SIDE_STYLE('',(#365));
#345=SURFACE_SIDE_STYLE('',(#366));
#346=SURFACE_SIDE_STYLE('',(#367));
#347=SURFACE_SIDE_STYLE('',(#368));
#348=SURFACE_SIDE_STYLE('',(#369));
#349=SURFACE_SIDE_STYLE('',(#370));
#350=SURFACE_SIDE_STYLE('',(#371));
#351=SURFACE_SIDE_STYLE('',(#372));
#352=SURFACE_SIDE_STYLE('',(#373));
#353=SURFACE_SIDE_STYLE('',(#374));
#354=SURFACE_SIDE_STYLE('',(#375));
#355=SURFACE_SIDE_STYLE('',(#376));
#356=SURFACE_SIDE_STYLE('',(#377));
#357=SURFACE_SIDE_STYLE('',(#378));
#358=SURFACE_SIDE_STYLE('',(#379));
#359=SURFACE_SIDE_STYLE('',(#380));
#360=SURFACE_STYLE_FILL_AREA(#381);
#361=SURFACE_STYLE_FILL_AREA(#382);
#362=SURFACE_STYLE_FILL_AREA(#383);
#363=SURFACE_STYLE_FILL_AREA(#384);
#364=SURFACE_STYLE_FILL_AREA(#385);
#365=SURFACE_STYLE_FILL_AREA(#386);
#366=SURFACE_STYLE_FILL_AREA(#387);
#367=SURFACE_STYLE_FILL_AREA(#388);
#368=SURFACE_STYLE_FILL_AREA(#389);
#369=SURFACE_STYLE_FILL_AREA(#390);
#370=SURFACE_STYLE_FILL_AREA(#391);
#371=SURFACE_STYLE_FILL_AREA(#392);
#372=SURFACE_STYLE_FILL_AREA(#393);
#373=SURFACE_STYLE_FILL_AREA(#394);
#374=SURFACE_STYLE_FILL_AREA(#395);
#375=SURFACE_STYLE_FILL_AREA(#396);
#376=SURFACE_STYLE_FILL_AREA(#397);
#377=SURFACE_STYLE_FILL_AREA(#398);
#378=SURFACE_STYLE_FILL_AREA(#399);
#379=SURFACE_STYLE_FILL_AREA(#400);
#380=SURFACE_STYLE_FILL_AREA(#401);
#381=FILL_AREA_STYLE('',(#402));
#382=FILL_AREA_STYLE('',(#403));
#383=FILL_AREA_STYLE('',(#404));
#384=FILL_AREA_STYLE('',(#405));
#385=FILL_AREA_STYLE('',(#406));
#386=FILL_AREA_STYLE('',(#407));
#387=FILL_AREA_STYLE('',(#408));
#388=FILL_AREA_STYLE('',(#409));
#389=FILL_AREA_STYLE('',(#410));
#390=FILL_AREA_STYLE('',(#411));
#391=FILL_AREA_STYLE('',(#412));
#392=FILL_AREA_STYLE('',(#413));
#393=FILL_AREA_STYLE('',(#414));
#394=FILL_AREA_STYLE('',(#415));
#395=FILL_AREA_STYLE('',(#416));
#396=FILL_AREA_STYLE('',(#417));
#397=FILL_AREA_STYLE('',(#418));
#398=FILL_AREA_STYLE('',(#419));
#399=FILL_AREA_STYLE('',(#420));
#400=FILL_AREA_STYLE('',(#421));
#401=FILL_AREA_STYLE('',(#422));
#402=FILL_AREA_STYLE_COLOUR('',#423);
#403=FILL_AREA_STYLE_COLOUR('',#423);
#404=FILL_AREA_STYLE_COLOUR('',#423);
#405=FILL_AREA_STYLE_COLOUR('',#423);
#406=FILL_AREA_STYLE_COLOUR('',#423);
#407=FILL_AREA_STYLE_COLOUR('',#423);
#408=FILL_AREA_STYLE_COLOUR('',#423);
#409=FILL_AREA_STYLE_COLOUR('',#423);
#410=FILL_AREA_STYLE_COLOUR('',#423);
#411=FILL_AREA_STYLE_COLOUR('',#424);
#412=FILL_AREA_STYLE_COLOUR('',#423);
#413=FILL_AREA_STYLE_COLOUR('',#423);
#414=FILL_AREA_STYLE_COLOUR('',#423);
#415=FILL_AREA_STYLE_COLOUR('',#423);
#416=FILL_AREA_STYLE_COLOUR('',#423);
#417=FILL_AREA_STYLE_COLOUR('',#423);
#418=FILL_AREA_STYLE_COLOUR('',#423);
#419=FILL_AREA_STYLE_COLOUR('',#423);
#420=FILL_AREA_STYLE_COLOUR('',#423);
#421=FILL_AREA_STYLE_COLOUR('',#423);
#422=FILL_AREA_STYLE_COLOUR('',#423);
#423=COLOUR_RGB('',0.506983280181885,0.531564235687256,0.550000011920929);
#424=COLOUR_RGB('',0.1875,0.75,0.581249892711639);
#425=ADVANCED_FACE('',(#237,#238),#271,.T.);
#426=ADVANCED_FACE('',(#239),#60,.F.);
#427=ADVANCED_FACE('',(#240),#61,.F.);
#428=ADVANCED_FACE('',(#241),#62,.F.);
#429=ADVANCED_FACE('',(#242),#63,.F.);
#430=ADVANCED_FACE('',(#243),#64,.F.);
#431=ADVANCED_FACE('',(#244),#65,.F.);
#432=ADVANCED_FACE('',(#245,#246),#66,.T.);
#433=ADVANCED_FACE('',(#247,#248),#67,.F.);
#434=ADVANCED_FACE('',(#249,#250),#23,.T.);
#435=ADVANCED_FACE('',(#251),#68,.T.);
#436=ADVANCED_FACE('',(#252,#253),#272,.T.);
#437=ADVANCED_FACE('',(#254,#255),#69,.F.);
#438=ADVANCED_FACE('',(#256,#257),#273,.T.);
#439=ADVANCED_FACE('',(#258,#259),#70,.F.);
#440=ADVANCED_FACE('',(#260,#261),#274,.T.);
#441=ADVANCED_FACE('',(#262,#263),#22,.T.);
#442=ADVANCED_FACE('',(#264,#265),#71,.F.);
#443=ADVANCED_FACE('',(#266,#267),#72,.T.);
#444=ADVANCED_FACE('',(#268,#269),#275,.F.);
#445=ADVANCED_FACE('',(#270),#73,.F.);
#446=CLOSED_SHELL('',(#425,#426,#427,#428,#429,#430,#431,#432,#433,#434,
#435,#436,#437,#438,#439,#440,#441,#442,#443,#444,#445));
#447=MANIFOLD_SOLID_BREP('',#446);
#448=SHAPE_DEFINITION_REPRESENTATION(#675,#449);
#449=SHAPE_REPRESENTATION('P1.1;4.1;4',(#450),#670);
#450=AXIS2_PLACEMENT_3D('',#570,#484,#485);
#451=AXIS2_PLACEMENT_3D('',#571,#486,#487);
#452=AXIS2_PLACEMENT_3D('',#572,#488,#489);
#453=AXIS2_PLACEMENT_3D('',#574,#490,#491);
#454=AXIS2_PLACEMENT_3D('',#576,#492,#493);
#455=AXIS2_PLACEMENT_3D('',#585,#498,#499);
#456=AXIS2_PLACEMENT_3D('',#591,#503,#504);
#457=AXIS2_PLACEMENT_3D('',#597,#508,#509);
#458=AXIS2_PLACEMENT_3D('',#603,#513,#514);
#459=AXIS2_PLACEMENT_3D('',#609,#518,#519);
#460=AXIS2_PLACEMENT_3D('',#612,#522,#523);
#461=AXIS2_PLACEMENT_3D('',#613,#524,#525);
#462=AXIS2_PLACEMENT_3D('',#615,#526,#527);
#463=AXIS2_PLACEMENT_3D('',#616,#528,#529);
#464=AXIS2_PLACEMENT_3D('',#617,#530,#531);
#465=AXIS2_PLACEMENT_3D('',#619,#532,#533);
#466=AXIS2_PLACEMENT_3D('',#620,#534,#535);
#467=AXIS2_PLACEMENT_3D('',#621,#536,#537);
#468=AXIS2_PLACEMENT_3D('',#623,#538,#539);
#469=AXIS2_PLACEMENT_3D('',#624,#540,#541);
#470=AXIS2_PLACEMENT_3D('',#626,#542,#543);
#471=AXIS2_PLACEMENT_3D('',#627,#544,#545);
#472=AXIS2_PLACEMENT_3D('',#629,#546,#547);
#473=AXIS2_PLACEMENT_3D('',#630,#548,#549);
#474=AXIS2_PLACEMENT_3D('',#632,#550,#551);
#475=AXIS2_PLACEMENT_3D('',#633,#552,#553);
#476=AXIS2_PLACEMENT_3D('',#657,#554,#555);
#477=AXIS2_PLACEMENT_3D('',#659,#556,#557);
#478=AXIS2_PLACEMENT_3D('',#661,#558,#559);
#479=AXIS2_PLACEMENT_3D('',#662,#560,#561);
#480=AXIS2_PLACEMENT_3D('',#664,#562,#563);
#481=AXIS2_PLACEMENT_3D('',#665,#564,#565);
#482=AXIS2_PLACEMENT_3D('',#666,#566,#567);
#483=AXIS2_PLACEMENT_3D('',#668,#568,#569);
#484=DIRECTION('',(0.,0.,1.));
#485=DIRECTION('',(1.,0.,0.));
#486=DIRECTION('',(0.,1.,0.));
#487=DIRECTION('',(0.,0.,1.));
#488=DIRECTION('',(0.,1.,0.));
#489=DIRECTION('',(0.,0.,1.));
#490=DIRECTION('',(0.,1.,0.));
#491=DIRECTION('',(0.,0.,1.));
#492=DIRECTION('',(1.,0.,-1.58027482335606E-15));
#493=DIRECTION('',(-1.58027482335606E-15,0.,-1.));
#494=DIRECTION('',(1.58027482335606E-15,0.,1.));
#495=DIRECTION('',(0.,-1.,0.));
#496=DIRECTION('',(1.58027482335606E-15,0.,1.));
#497=DIRECTION('',(0.,-1.,0.));
#498=DIRECTION('',(0.499999999999998,0.,-0.86602540378444));
#499=DIRECTION('',(-0.86602540378444,0.,-0.499999999999998));
#500=DIRECTION('',(0.86602540378444,0.,0.499999999999998));
#501=DIRECTION('',(0.,-1.,0.));
#502=DIRECTION('',(0.86602540378444,0.,0.499999999999998));
#503=DIRECTION('',(-0.500000000000002,0.,-0.866025403784437));
#504=DIRECTION('',(-0.866025403784437,0.,0.500000000000002));
#505=DIRECTION('',(0.866025403784437,0.,-0.500000000000002));
#506=DIRECTION('',(0.,-1.,0.));
#507=DIRECTION('',(0.866025403784437,0.,-0.500000000000002));
#508=DIRECTION('',(-1.,0.,3.26590130160252E-15));
#509=DIRECTION('',(3.26590130160252E-15,0.,1.));
#510=DIRECTION('',(-3.26590130160252E-15,0.,-1.));
#511=DIRECTION('',(0.,-1.,0.));
#512=DIRECTION('',(-3.26590130160252E-15,0.,-1.));
#513=DIRECTION('',(-0.499999999999998,0.,0.86602540378444));
#514=DIRECTION('',(0.86602540378444,0.,0.499999999999998));
#515=DIRECTION('',(-0.86602540378444,0.,-0.499999999999998));
#516=DIRECTION('',(0.,-1.,0.));
#517=DIRECTION('',(-0.86602540378444,0.,-0.499999999999998));
#518=DIRECTION('',(0.500000000000001,0.,0.866025403784438));
#519=DIRECTION('',(0.866025403784438,0.,-0.500000000000001));
#520=DIRECTION('',(-0.866025403784438,0.,0.500000000000001));
#521=DIRECTION('',(-0.866025403784438,0.,0.500000000000001));
#522=DIRECTION('',(0.,1.,0.));
#523=DIRECTION('',(0.,0.,1.));
#524=DIRECTION('',(0.,-1.,0.));
#525=DIRECTION('',(0.866025403784437,0.,-0.500000000000002));
#526=DIRECTION('',(0.,1.,0.));
#527=DIRECTION('',(0.,0.,1.));
#528=DIRECTION('',(0.,1.,0.));
#529=DIRECTION('',(0.,0.,1.));
#530=DIRECTION('',(0.,-1.,0.));
#531=DIRECTION('',(0.,0.,-1.));
#532=DIRECTION('',(0.,-1.,0.));
#533=DIRECTION('',(0.,0.,-1.));
#534=DIRECTION('',(0.,-1.,0.));
#535=DIRECTION('',(0.,0.,-1.));
#536=DIRECTION('',(0.,-1.,0.));
#537=DIRECTION('',(0.866025403784437,0.,-0.500000000000002));
#538=DIRECTION('',(0.,-1.,0.));
#539=DIRECTION('',(0.,0.,-1.));
#540=DIRECTION('',(0.,-1.,0.));
#541=DIRECTION('',(-1.,0.,0.));
#542=DIRECTION('',(0.,-1.,0.));
#543=DIRECTION('',(0.,0.,-1.));
#544=DIRECTION('',(0.,-1.,0.));
#545=DIRECTION('',(-1.,0.,0.));
#546=DIRECTION('',(0.,-1.,0.));
#547=DIRECTION('',(0.,0.,-1.));
#548=DIRECTION('',(0.,-1.,0.));
#549=DIRECTION('',(0.,0.,-1.));
#550=DIRECTION('',(0.,-1.,0.));
#551=DIRECTION('',(0.,0.,-1.));
#552=DIRECTION('',(0.,-1.,0.));
#553=DIRECTION('',(0.,0.,-1.));
#554=DIRECTION('',(0.,-1.,0.));
#555=DIRECTION('',(-1.,0.,0.));
#556=DIRECTION('',(0.,-1.,0.));
#557=DIRECTION('',(-1.,0.,0.));
#558=DIRECTION('',(0.,-1.,0.));
#559=DIRECTION('',(0.,0.,-1.));
#560=DIRECTION('',(0.,-1.,0.));
#561=DIRECTION('',(-1.,0.,0.));
#562=DIRECTION('',(0.,-1.,0.));
#563=DIRECTION('',(0.,0.,-1.));
#564=DIRECTION('',(0.,1.,0.));
#565=DIRECTION('',(0.,0.,1.));
#566=DIRECTION('',(0.,-1.,0.));
#567=DIRECTION('',(-1.,0.,0.));
#568=DIRECTION('',(0.,-1.,0.));
#569=DIRECTION('',(0.,0.,-1.));
#570=CARTESIAN_POINT('',(0.,0.,0.));
#571=CARTESIAN_POINT('',(0.,-10.5,0.));
#572=CARTESIAN_POINT('',(0.,0.,0.));
#573=CARTESIAN_POINT('',(0.,0.,6.858));
#574=CARTESIAN_POINT('',(0.,-0.479700000000001,0.));
#575=CARTESIAN_POINT('',(0.,-0.479700000000001,6.858));
#576=CARTESIAN_POINT('',(-7.12999999999999,7.6,-4.11650741932203));
#577=CARTESIAN_POINT('',(-7.12999999999999,0.,-4.11650741932203));
#578=CARTESIAN_POINT('',(-7.12999999999999,0.,-4.11650741932203));
#579=CARTESIAN_POINT('',(-7.12999999999998,0.,4.11650741932203));
#580=CARTESIAN_POINT('',(-7.12999999999998,7.6,4.11650741932203));
#581=CARTESIAN_POINT('',(-7.12999999999998,7.6,4.11650741932203));
#582=CARTESIAN_POINT('',(-7.12999999999999,7.6,-4.11650741932203));
#583=CARTESIAN_POINT('',(-7.12999999999999,7.6,-4.11650741932203));
#584=CARTESIAN_POINT('',(-7.12999999999999,7.6,-4.11650741932203));
#585=CARTESIAN_POINT('',(-7.12999999999998,7.6,4.11650741932203));
#586=CARTESIAN_POINT('',(-7.12999999999998,0.,4.11650741932203));
#587=CARTESIAN_POINT('',(2.42861286636753E-14,0.,8.23301483864405));
#588=CARTESIAN_POINT('',(2.42861286636753E-14,7.6,8.23301483864405));
#589=CARTESIAN_POINT('',(2.42861286636753E-14,7.6,8.23301483864405));
#590=CARTESIAN_POINT('',(-7.12999999999998,7.6,4.11650741932203));
#591=CARTESIAN_POINT('',(2.42861286636753E-14,7.6,8.23301483864405));
#592=CARTESIAN_POINT('',(2.42861286636753E-14,0.,8.23301483864405));
#593=CARTESIAN_POINT('',(7.13000000000001,0.,4.116507419322));
#594=CARTESIAN_POINT('',(7.13000000000001,7.6,4.116507419322));
#595=CARTESIAN_POINT('',(7.13000000000001,7.6,4.116507419322));
#596=CARTESIAN_POINT('',(2.42861286636753E-14,7.6,8.23301483864405));
#597=CARTESIAN_POINT('',(7.13000000000001,7.6,4.116507419322));
#598=CARTESIAN_POINT('',(7.13000000000001,0.,4.116507419322));
#599=CARTESIAN_POINT('',(7.12999999999998,0.,-4.11650741932206));
#600=CARTESIAN_POINT('',(7.12999999999998,7.6,-4.11650741932206));
#601=CARTESIAN_POINT('',(7.12999999999998,7.6,-4.11650741932206));
#602=CARTESIAN_POINT('',(7.13000000000001,7.6,4.116507419322));
#603=CARTESIAN_POINT('',(7.12999999999998,7.6,-4.11650741932206));
#604=CARTESIAN_POINT('',(7.12999999999998,0.,-4.11650741932206));
#605=CARTESIAN_POINT('',(8.67361737988404E-16,0.,-8.23301483864406));
#606=CARTESIAN_POINT('',(8.67361737988404E-16,7.6,-8.23301483864406));
#607=CARTESIAN_POINT('',(8.67361737988404E-16,7.6,-8.23301483864406));
#608=CARTESIAN_POINT('',(7.12999999999998,7.6,-4.11650741932206));
#609=CARTESIAN_POINT('',(8.67361737988404E-16,7.6,-8.23301483864406));
#610=CARTESIAN_POINT('',(8.67361737988404E-16,0.,-8.23301483864406));
#611=CARTESIAN_POINT('',(8.67361737988404E-16,7.6,-8.23301483864406));
#612=CARTESIAN_POINT('',(0.,7.6,0.));
#613=CARTESIAN_POINT('',(-1.54074395550979E-30,7.6,7.70371977754894E-31));
#614=CARTESIAN_POINT('',(5.19615242270662,7.6,-3.00000000000001));
#615=CARTESIAN_POINT('',(0.,0.,0.));
#616=CARTESIAN_POINT('',(0.,-0.479700000000001,0.));
#617=CARTESIAN_POINT('',(0.,-10.5,0.));
#618=CARTESIAN_POINT('',(0.,-10.5,-6.42050425377384));
#619=CARTESIAN_POINT('',(0.,-10.5,0.));
#620=CARTESIAN_POINT('',(-1.54074395550979E-30,9.35,7.70371977754894E-31));
#621=CARTESIAN_POINT('',(-1.54074395550979E-30,9.35,7.70371977754894E-31));
#622=CARTESIAN_POINT('',(5.19615242270662,9.35,-3.00000000000001));
#623=CARTESIAN_POINT('',(-1.54074395550979E-30,9.35,7.70371977754894E-31));
#624=CARTESIAN_POINT('',(-1.54074395550979E-30,9.35,7.70371977754894E-31));
#625=CARTESIAN_POINT('',(-4.75,9.35,7.70371977754894E-31));
#626=CARTESIAN_POINT('',(-1.54074395550979E-30,10.85,7.70371977754894E-31));
#627=CARTESIAN_POINT('',(-1.54074395550979E-30,10.85,7.70371977754894E-31));
#628=CARTESIAN_POINT('',(-4.75,10.85,7.70371977754894E-31));
#629=CARTESIAN_POINT('',(-1.54074395550979E-30,10.85,7.70371977754894E-31));
#630=CARTESIAN_POINT('',(-1.54074395550979E-30,10.85,7.70371977754894E-31));
#631=CARTESIAN_POINT('',(-1.54074395550979E-30,10.85,-3.675));
#632=CARTESIAN_POINT('',(-1.54074395550979E-30,12.35,7.70371977754894E-31));
#633=CARTESIAN_POINT('',(-1.54074395550979E-30,12.35,7.70371977754894E-31));
#634=CARTESIAN_POINT('',(-1.54074395550979E-30,12.35,-3.675));
#635=CARTESIAN_POINT('',(-5.40692021174942,14.35,4.62330858685825));
#636=CARTESIAN_POINT('',(-5.40692021174942,12.35,4.62330858685825));
#637=CARTESIAN_POINT('',(-7.64653989412528,14.35,-5.63785129692462E-15));
#638=CARTESIAN_POINT('',(-7.64653989412528,12.35,-5.63785129692462E-15));
#639=CARTESIAN_POINT('',(-5.40692021174945,14.35,-4.62330858685822));
#640=CARTESIAN_POINT('',(-5.40692021174945,12.35,-4.62330858685822));
#641=CARTESIAN_POINT('',(-3.46944695195361E-15,14.35,-6.53834570657089));
#642=CARTESIAN_POINT('',(-3.46944695195361E-15,12.35,-6.53834570657089));
#643=CARTESIAN_POINT('',(5.40692021174946,14.35,-4.62330858685822));
#644=CARTESIAN_POINT('',(5.40692021174946,12.35,-4.62330858685822));
#645=CARTESIAN_POINT('',(7.64653989412527,14.35,-4.08608693755474E-15));
#646=CARTESIAN_POINT('',(7.64653989412527,12.35,-4.08608693755474E-15));
#647=CARTESIAN_POINT('',(5.40692021174945,14.35,4.62330858685823));
#648=CARTESIAN_POINT('',(5.40692021174945,12.35,4.62330858685823));
#649=CARTESIAN_POINT('',(-2.4231918555051E-14,14.35,6.53834570657088));
#650=CARTESIAN_POINT('',(-2.4231918555051E-14,12.35,6.53834570657088));
#651=CARTESIAN_POINT('',(-5.40692021174942,14.35,4.62330858685825));
#652=CARTESIAN_POINT('',(-5.40692021174942,12.35,4.62330858685825));
#653=CARTESIAN_POINT('',(-7.64653989412528,14.35,-5.63785129692462E-15));
#654=CARTESIAN_POINT('',(-7.64653989412528,12.35,-5.63785129692462E-15));
#655=CARTESIAN_POINT('',(-5.40692021174945,14.35,-4.62330858685822));
#656=CARTESIAN_POINT('',(-5.40692021174945,12.35,-4.62330858685822));
#657=CARTESIAN_POINT('',(-1.54074395550979E-30,14.35,7.70371977754894E-31));
#658=CARTESIAN_POINT('',(-6.9,14.35,7.70371977754894E-31));
#659=CARTESIAN_POINT('',(-1.54074395550979E-30,12.35,7.70371977754894E-31));
#660=CARTESIAN_POINT('',(-6.9,12.35,7.70371977754894E-31));
#661=CARTESIAN_POINT('',(-1.54074395550979E-30,14.35,7.70371977754894E-31));
#662=CARTESIAN_POINT('',(-1.54074395550979E-30,14.35,7.70371977754894E-31));
#663=CARTESIAN_POINT('',(-3.175,14.35,7.70371977754894E-31));
#664=CARTESIAN_POINT('',(-1.54074395550979E-30,12.35,7.70371977754894E-31));
#665=CARTESIAN_POINT('',(-1.54074395550979E-30,0.249481245236258,7.70371977754894E-31));
#666=CARTESIAN_POINT('',(-1.54074395550979E-30,0.249481245236258,7.70371977754894E-31));
#667=CARTESIAN_POINT('',(-3.175,0.249481245236258,7.70371977754894E-31));
#668=CARTESIAN_POINT('',(-1.54074395550979E-30,0.249481245236258,7.70371977754894E-31));
#669=MECHANICAL_DESIGN_GEOMETRIC_PRESENTATION_REPRESENTATION('',(#276,#277,
#278,#279,#280,#281,#282,#283,#284,#285,#286,#287,#288,#289,#290,#291,#292,
#293,#294,#295,#296),#670);
#670=(
GEOMETRIC_REPRESENTATION_CONTEXT(3)
GLOBAL_UNCERTAINTY_ASSIGNED_CONTEXT((#671))
GLOBAL_UNIT_ASSIGNED_CONTEXT((#674,#673,#672))
REPRESENTATION_CONTEXT('P1.1;4.1;4','TOP_LEVEL_ASSEMBLY_PART')
);
#671=UNCERTAINTY_MEASURE_WITH_UNIT(LENGTH_MEASURE(0.005),#674,
'DISTANCE_ACCURACY_VALUE','Maximum Tolerance applied to model');
#672=(
NAMED_UNIT(*)
SI_UNIT($,.STERADIAN.)
SOLID_ANGLE_UNIT()
);
#673=(
NAMED_UNIT(*)
PLANE_ANGLE_UNIT()
SI_UNIT($,.RADIAN.)
);
#674=(
LENGTH_UNIT()
NAMED_UNIT(*)
SI_UNIT(.MILLI.,.METRE.)
);
#675=PRODUCT_DEFINITION_SHAPE('','',#676);
#676=PRODUCT_DEFINITION('','',#678,#677);
#677=PRODUCT_DEFINITION_CONTEXT('',#684,'design');
#678=PRODUCT_DEFINITION_FORMATION_WITH_SPECIFIED_SOURCE('','',#680,
 .NOT_KNOWN.);
#679=PRODUCT_RELATED_PRODUCT_CATEGORY('','',(#680));
#680=PRODUCT('P1.1;4.1;4','P1.1;4.1;4','P1.1;4.1;4',(#682));
#681=PRODUCT_CATEGORY('','');
#682=PRODUCT_CONTEXT('',#684,'mechanical');
#683=APPLICATION_PROTOCOL_DEFINITION('international standard',
'automotive_design',2010,#684);
#684=APPLICATION_CONTEXT(
'core data for automotive mechanical design processes');
ENDSEC;
END-ISO-10303-21;
