ISO-10303-21;
HEADER;
/* Generated by software containing ST-Developer
 * from STEP Tools, Inc. (www.steptools.com) 
 */
/* OPTION: strings as raw bytes, not using required /X/ escapes */

FILE_DESCRIPTION(
/* description */ ('Unknown'),
/* implementation_level */ '2;1');

FILE_NAME(
/* name */ 'P3.3;8.5;16',
/* time_stamp */ '2018-10-29T10:17:57-04:00',
/* author */ ('Unknown'),
/* organization */ ('Unknown'),
/* preprocessor_version */ 'ST-DEVELOPER v16.7',
/* originating_system */ 'DEX',
/* authorisation */ $);

FILE_SCHEMA (('AUTOMOTIVE_DESIGN {1 0 10303 214 3 1 1}'));
ENDSEC;

DATA;
#10=PROPERTY_DEFINITION_REPRESENTATION(#14,#12);
#11=PROPERTY_DEFINITION_REPRESENTATION(#15,#13);
#12=REPRESENTATION('',(#16),#495);
#13=REPRESENTATION('',(#17),#495);
#14=PROPERTY_DEFINITION('pmi validation property','',#500);
#15=PROPERTY_DEFINITION('pmi validation property','',#500);
#16=VALUE_REPRESENTATION_ITEM('number of annotations',COUNT_MEASURE(0.));
#17=VALUE_REPRESENTATION_ITEM('number of views',COUNT_MEASURE(0.));
#18=SHAPE_REPRESENTATION_RELATIONSHIP('','',#253,#19);
#19=ADVANCED_BREP_SHAPE_REPRESENTATION('',(#251),#495);
#20=ELLIPSE('',#276,8.,7.);
#21=ELLIPSE('',#277,8.,7.);
#22=ELLIPSE('',#286,9.5,8.5);
#23=ELLIPSE('',#287,9.5,8.5);
#24=B_SPLINE_SURFACE_WITH_KNOTS('',3,1,((#407,#408),(#409,#410),(#411,#412),
(#413,#414),(#415,#416),(#417,#418),(#419,#420),(#421,#422),(#423,#424),
(#425,#426),(#427,#428)),.SURF_OF_LINEAR_EXTRUSION.,.T.,.F.,.F.,(1,1,1,
1,1,1,1,1,1,1,1,1,1,1,1),(2,2),(-2.35619449019234,-1.5707963267949,-0.785398163397448,
0.,0.785398163397448,1.5707963267949,2.35619449019234,3.14159265358979,
3.92699081698724,4.71238898038469,5.49778714378214,6.28318530717959,7.06858347057703,
7.85398163397448,8.63937979737193),(0.,1.),.UNSPECIFIED.);
#25=B_SPLINE_SURFACE_WITH_KNOTS('',3,1,((#444,#445),(#446,#447),(#448,#449),
(#450,#451),(#452,#453),(#454,#455),(#456,#457),(#458,#459),(#460,#461),
(#462,#463),(#464,#465),(#466,#467),(#468,#469),(#470,#471),(#472,#473),
(#474,#475),(#476,#477),(#478,#479),(#480,#481)),
 .SURF_OF_LINEAR_EXTRUSION.,.T.,.F.,.F.,(1,1,1,1,1,1,1,1,1,1,1,1,1,1,1,
1,1,1,1,1,1,1,1),(2,2),(-1.17809724509617,-0.785398163397448,-0.392699081698725,
0.,0.392699081698724,0.785398163397448,1.17809724509617,1.5707963267949,
1.96349540849362,2.35619449019234,2.74889357189107,3.14159265358979,3.53429173528852,
3.92699081698724,4.31968989868597,4.71238898038469,5.10508806208341,5.49778714378214,
5.89048622548086,6.28318530717959,6.67588438887831,7.06858347057703,7.46128255227576),
(0.,1.),.UNSPECIFIED.);
#26=CONICAL_SURFACE('',#271,7.,0.785398163397449);
#27=CONICAL_SURFACE('',#272,5.5,0.785398163397448);
#28=CONICAL_SURFACE('',#273,7.,0.785398163397448);
#29=PLANE('',#261);
#30=PLANE('',#266);
#31=PLANE('',#278);
#32=PLANE('',#280);
#33=PLANE('',#283);
#34=PLANE('',#288);
#35=PLANE('',#290);
#36=PLANE('',#293);
#37=ORIENTED_EDGE('',*,*,#77,.F.);
#38=ORIENTED_EDGE('',*,*,#78,.T.);
#39=ORIENTED_EDGE('',*,*,#79,.T.);
#40=ORIENTED_EDGE('',*,*,#80,.T.);
#41=ORIENTED_EDGE('',*,*,#81,.T.);
#42=ORIENTED_EDGE('',*,*,#80,.F.);
#43=ORIENTED_EDGE('',*,*,#82,.T.);
#44=ORIENTED_EDGE('',*,*,#83,.T.);
#45=ORIENTED_EDGE('',*,*,#84,.T.);
#46=ORIENTED_EDGE('',*,*,#85,.F.);
#47=ORIENTED_EDGE('',*,*,#86,.T.);
#48=ORIENTED_EDGE('',*,*,#85,.T.);
#49=ORIENTED_EDGE('',*,*,#86,.F.);
#50=ORIENTED_EDGE('',*,*,#83,.F.);
#51=ORIENTED_EDGE('',*,*,#79,.F.);
#52=ORIENTED_EDGE('',*,*,#77,.T.);
#53=ORIENTED_EDGE('',*,*,#78,.F.);
#54=ORIENTED_EDGE('',*,*,#82,.F.);
#55=ORIENTED_EDGE('',*,*,#87,.T.);
#56=ORIENTED_EDGE('',*,*,#81,.F.);
#57=ORIENTED_EDGE('',*,*,#88,.T.);
#58=ORIENTED_EDGE('',*,*,#89,.F.);
#59=ORIENTED_EDGE('',*,*,#90,.T.);
#60=ORIENTED_EDGE('',*,*,#88,.F.);
#61=ORIENTED_EDGE('',*,*,#87,.F.);
#62=ORIENTED_EDGE('',*,*,#89,.T.);
#63=ORIENTED_EDGE('',*,*,#91,.T.);
#64=ORIENTED_EDGE('',*,*,#90,.F.);
#65=ORIENTED_EDGE('',*,*,#91,.F.);
#66=ORIENTED_EDGE('',*,*,#92,.T.);
#67=ORIENTED_EDGE('',*,*,#84,.F.);
#68=ORIENTED_EDGE('',*,*,#93,.T.);
#69=ORIENTED_EDGE('',*,*,#94,.F.);
#70=ORIENTED_EDGE('',*,*,#95,.T.);
#71=ORIENTED_EDGE('',*,*,#93,.F.);
#72=ORIENTED_EDGE('',*,*,#92,.F.);
#73=ORIENTED_EDGE('',*,*,#94,.T.);
#74=ORIENTED_EDGE('',*,*,#96,.T.);
#75=ORIENTED_EDGE('',*,*,#95,.F.);
#76=ORIENTED_EDGE('',*,*,#96,.F.);
#77=EDGE_CURVE('',#97,#97,#117,.F.);
#78=EDGE_CURVE('',#98,#98,#118,.F.);
#79=EDGE_CURVE('',#99,#99,#119,.F.);
#80=EDGE_CURVE('',#100,#100,#120,.T.);
#81=EDGE_CURVE('',#101,#101,#121,.T.);
#82=EDGE_CURVE('',#102,#102,#122,.T.);
#83=EDGE_CURVE('',#103,#103,#123,.T.);
#84=EDGE_CURVE('',#104,#104,#124,.T.);
#85=EDGE_CURVE('',#105,#105,#125,.T.);
#86=EDGE_CURVE('',#106,#106,#126,.F.);
#87=EDGE_CURVE('',#107,#107,#127,.T.);
#88=EDGE_CURVE('',#108,#108,#20,.T.);
#89=EDGE_CURVE('',#109,#109,#21,.T.);
#90=EDGE_CURVE('',#110,#110,#128,.T.);
#91=EDGE_CURVE('',#111,#111,#129,.T.);
#92=EDGE_CURVE('',#112,#112,#130,.T.);
#93=EDGE_CURVE('',#113,#113,#22,.T.);
#94=EDGE_CURVE('',#114,#114,#23,.T.);
#95=EDGE_CURVE('',#115,#115,#131,.T.);
#96=EDGE_CURVE('',#116,#116,#132,.T.);
#97=VERTEX_POINT('',#377);
#98=VERTEX_POINT('',#379);
#99=VERTEX_POINT('',#382);
#100=VERTEX_POINT('',#384);
#101=VERTEX_POINT('',#387);
#102=VERTEX_POINT('',#390);
#103=VERTEX_POINT('',#392);
#104=VERTEX_POINT('',#395);
#105=VERTEX_POINT('',#397);
#106=VERTEX_POINT('',#400);
#107=VERTEX_POINT('',#406);
#108=VERTEX_POINT('',#430);
#109=VERTEX_POINT('',#432);
#110=VERTEX_POINT('',#435);
#111=VERTEX_POINT('',#439);
#112=VERTEX_POINT('',#443);
#113=VERTEX_POINT('',#483);
#114=VERTEX_POINT('',#485);
#115=VERTEX_POINT('',#488);
#116=VERTEX_POINT('',#492);
#117=CIRCLE('',#256,5.5);
#118=CIRCLE('',#257,5.5);
#119=CIRCLE('',#259,7.5);
#120=CIRCLE('',#260,7.5);
#121=CIRCLE('',#262,4.6);
#122=CIRCLE('',#264,7.);
#123=CIRCLE('',#265,7.);
#124=CIRCLE('',#267,5.3);
#125=CIRCLE('',#268,9.);
#126=CIRCLE('',#270,9.);
#127=CIRCLE('',#275,4.6);
#128=CIRCLE('',#279,4.1);
#129=CIRCLE('',#282,4.1);
#130=CIRCLE('',#285,5.3);
#131=CIRCLE('',#289,4.8);
#132=CIRCLE('',#292,4.8);
#133=EDGE_LOOP('',(#37));
#134=EDGE_LOOP('',(#38));
#135=EDGE_LOOP('',(#39));
#136=EDGE_LOOP('',(#40));
#137=EDGE_LOOP('',(#41));
#138=EDGE_LOOP('',(#42));
#139=EDGE_LOOP('',(#43));
#140=EDGE_LOOP('',(#44));
#141=EDGE_LOOP('',(#45));
#142=EDGE_LOOP('',(#46));
#143=EDGE_LOOP('',(#47));
#144=EDGE_LOOP('',(#48));
#145=EDGE_LOOP('',(#49));
#146=EDGE_LOOP('',(#50));
#147=EDGE_LOOP('',(#51));
#148=EDGE_LOOP('',(#52));
#149=EDGE_LOOP('',(#53));
#150=EDGE_LOOP('',(#54));
#151=EDGE_LOOP('',(#55));
#152=EDGE_LOOP('',(#56));
#153=EDGE_LOOP('',(#57));
#154=EDGE_LOOP('',(#58));
#155=EDGE_LOOP('',(#59));
#156=EDGE_LOOP('',(#60));
#157=EDGE_LOOP('',(#61));
#158=EDGE_LOOP('',(#62));
#159=EDGE_LOOP('',(#63));
#160=EDGE_LOOP('',(#64));
#161=EDGE_LOOP('',(#65));
#162=EDGE_LOOP('',(#66));
#163=EDGE_LOOP('',(#67));
#164=EDGE_LOOP('',(#68));
#165=EDGE_LOOP('',(#69));
#166=EDGE_LOOP('',(#70));
#167=EDGE_LOOP('',(#71));
#168=EDGE_LOOP('',(#72));
#169=EDGE_LOOP('',(#73));
#170=EDGE_LOOP('',(#74));
#171=EDGE_LOOP('',(#75));
#172=EDGE_LOOP('',(#76));
#173=FACE_BOUND('',#133,.T.);
#174=FACE_BOUND('',#134,.T.);
#175=FACE_BOUND('',#135,.T.);
#176=FACE_BOUND('',#136,.T.);
#177=FACE_BOUND('',#137,.T.);
#178=FACE_BOUND('',#138,.T.);
#179=FACE_BOUND('',#139,.T.);
#180=FACE_BOUND('',#140,.T.);
#181=FACE_BOUND('',#141,.T.);
#182=FACE_BOUND('',#142,.T.);
#183=FACE_BOUND('',#143,.T.);
#184=FACE_BOUND('',#144,.T.);
#185=FACE_BOUND('',#145,.T.);
#186=FACE_BOUND('',#146,.T.);
#187=FACE_BOUND('',#147,.T.);
#188=FACE_BOUND('',#148,.T.);
#189=FACE_BOUND('',#149,.T.);
#190=FACE_BOUND('',#150,.T.);
#191=FACE_BOUND('',#151,.T.);
#192=FACE_BOUND('',#152,.T.);
#193=FACE_BOUND('',#153,.T.);
#194=FACE_BOUND('',#154,.T.);
#195=FACE_BOUND('',#155,.T.);
#196=FACE_BOUND('',#156,.T.);
#197=FACE_BOUND('',#157,.T.);
#198=FACE_BOUND('',#158,.T.);
#199=FACE_BOUND('',#159,.T.);
#200=FACE_BOUND('',#160,.T.);
#201=FACE_BOUND('',#161,.T.);
#202=FACE_BOUND('',#162,.T.);
#203=FACE_BOUND('',#163,.T.);
#204=FACE_BOUND('',#164,.T.);
#205=FACE_BOUND('',#165,.T.);
#206=FACE_BOUND('',#166,.T.);
#207=FACE_BOUND('',#167,.T.);
#208=FACE_BOUND('',#168,.T.);
#209=FACE_BOUND('',#169,.T.);
#210=FACE_BOUND('',#170,.T.);
#211=FACE_BOUND('',#171,.T.);
#212=FACE_BOUND('',#172,.T.);
#213=CYLINDRICAL_SURFACE('',#255,5.5);
#214=CYLINDRICAL_SURFACE('',#258,7.5);
#215=CYLINDRICAL_SURFACE('',#263,7.);
#216=CYLINDRICAL_SURFACE('',#269,9.);
#217=CYLINDRICAL_SURFACE('',#274,4.6);
#218=CYLINDRICAL_SURFACE('',#281,4.1);
#219=CYLINDRICAL_SURFACE('',#284,5.3);
#220=CYLINDRICAL_SURFACE('',#291,4.8);
#221=ADVANCED_FACE('',(#173,#174),#213,.T.);
#222=ADVANCED_FACE('',(#175,#176),#214,.T.);
#223=ADVANCED_FACE('',(#177,#178),#29,.F.);
#224=ADVANCED_FACE('',(#179,#180),#215,.T.);
#225=ADVANCED_FACE('',(#181,#182),#30,.T.);
#226=ADVANCED_FACE('',(#183,#184),#216,.T.);
#227=ADVANCED_FACE('',(#185,#186),#26,.T.);
#228=ADVANCED_FACE('',(#187,#188),#27,.T.);
#229=ADVANCED_FACE('',(#189,#190),#28,.T.);
#230=ADVANCED_FACE('',(#191,#192),#217,.T.);
#231=ADVANCED_FACE('',(#193,#194),#24,.T.);
#232=ADVANCED_FACE('',(#195,#196),#31,.F.);
#233=ADVANCED_FACE('',(#197,#198),#32,.T.);
#234=ADVANCED_FACE('',(#199,#200),#218,.F.);
#235=ADVANCED_FACE('',(#201),#33,.F.);
#236=ADVANCED_FACE('',(#202,#203),#219,.T.);
#237=ADVANCED_FACE('',(#204,#205),#25,.T.);
#238=ADVANCED_FACE('',(#206,#207),#34,.F.);
#239=ADVANCED_FACE('',(#208,#209),#35,.T.);
#240=ADVANCED_FACE('',(#210,#211),#220,.F.);
#241=ADVANCED_FACE('',(#212),#36,.F.);
#242=CLOSED_SHELL('',(#221,#222,#223,#224,#225,#226,#227,#228,#229,#230,
#231,#232,#233,#234,#235,#236,#237,#238,#239,#240,#241));
#243=STYLED_ITEM('',(#244),#251);
#244=PRESENTATION_STYLE_ASSIGNMENT((#245));
#245=SURFACE_STYLE_USAGE(.BOTH.,#246);
#246=SURFACE_SIDE_STYLE('',(#247));
#247=SURFACE_STYLE_FILL_AREA(#248);
#248=FILL_AREA_STYLE('',(#249));
#249=FILL_AREA_STYLE_COLOUR('',#250);
#250=COLOUR_RGB('',0.506983280181885,0.531564235687256,0.550000011920929);
#251=MANIFOLD_SOLID_BREP('',#242);
#252=SHAPE_DEFINITION_REPRESENTATION(#500,#253);
#253=SHAPE_REPRESENTATION('P3.3;8.5;16',(#254),#495);
#254=AXIS2_PLACEMENT_3D('',#374,#294,#295);
#255=AXIS2_PLACEMENT_3D('',#375,#296,#297);
#256=AXIS2_PLACEMENT_3D('',#376,#298,#299);
#257=AXIS2_PLACEMENT_3D('',#378,#300,#301);
#258=AXIS2_PLACEMENT_3D('',#380,#302,#303);
#259=AXIS2_PLACEMENT_3D('',#381,#304,#305);
#260=AXIS2_PLACEMENT_3D('',#383,#306,#307);
#261=AXIS2_PLACEMENT_3D('',#385,#308,#309);
#262=AXIS2_PLACEMENT_3D('',#386,#310,#311);
#263=AXIS2_PLACEMENT_3D('',#388,#312,#313);
#264=AXIS2_PLACEMENT_3D('',#389,#314,#315);
#265=AXIS2_PLACEMENT_3D('',#391,#316,#317);
#266=AXIS2_PLACEMENT_3D('',#393,#318,#319);
#267=AXIS2_PLACEMENT_3D('',#394,#320,#321);
#268=AXIS2_PLACEMENT_3D('',#396,#322,#323);
#269=AXIS2_PLACEMENT_3D('',#398,#324,#325);
#270=AXIS2_PLACEMENT_3D('',#399,#326,#327);
#271=AXIS2_PLACEMENT_3D('',#401,#328,#329);
#272=AXIS2_PLACEMENT_3D('',#402,#330,#331);
#273=AXIS2_PLACEMENT_3D('',#403,#332,#333);
#274=AXIS2_PLACEMENT_3D('',#404,#334,#335);
#275=AXIS2_PLACEMENT_3D('',#405,#336,#337);
#276=AXIS2_PLACEMENT_3D('',#429,#338,#339);
#277=AXIS2_PLACEMENT_3D('',#431,#340,#341);
#278=AXIS2_PLACEMENT_3D('',#433,#342,#343);
#279=AXIS2_PLACEMENT_3D('',#434,#344,#345);
#280=AXIS2_PLACEMENT_3D('',#436,#346,#347);
#281=AXIS2_PLACEMENT_3D('',#437,#348,#349);
#282=AXIS2_PLACEMENT_3D('',#438,#350,#351);
#283=AXIS2_PLACEMENT_3D('',#440,#352,#353);
#284=AXIS2_PLACEMENT_3D('',#441,#354,#355);
#285=AXIS2_PLACEMENT_3D('',#442,#356,#357);
#286=AXIS2_PLACEMENT_3D('',#482,#358,#359);
#287=AXIS2_PLACEMENT_3D('',#484,#360,#361);
#288=AXIS2_PLACEMENT_3D('',#486,#362,#363);
#289=AXIS2_PLACEMENT_3D('',#487,#364,#365);
#290=AXIS2_PLACEMENT_3D('',#489,#366,#367);
#291=AXIS2_PLACEMENT_3D('',#490,#368,#369);
#292=AXIS2_PLACEMENT_3D('',#491,#370,#371);
#293=AXIS2_PLACEMENT_3D('',#493,#372,#373);
#294=DIRECTION('',(0.,0.,1.));
#295=DIRECTION('',(1.,0.,0.));
#296=DIRECTION('',(0.,-1.,0.));
#297=DIRECTION('',(0.,0.,-1.));
#298=DIRECTION('',(0.,-1.,0.));
#299=DIRECTION('',(0.,0.,-1.));
#300=DIRECTION('',(1.92747052886312E-16,-1.,0.));
#301=DIRECTION('',(1.,1.92747052886312E-16,0.));
#302=DIRECTION('',(0.,1.,0.));
#303=DIRECTION('',(0.,0.,1.));
#304=DIRECTION('',(0.,-1.,0.));
#305=DIRECTION('',(0.,0.,-1.));
#306=DIRECTION('',(0.,-1.,0.));
#307=DIRECTION('',(-1.,0.,0.));
#308=DIRECTION('',(0.,-1.,0.));
#309=DIRECTION('',(0.,0.,-1.));
#310=DIRECTION('',(0.,-1.,0.));
#311=DIRECTION('',(-1.,0.,0.));
#312=DIRECTION('',(0.,-1.,0.));
#313=DIRECTION('',(0.,0.,-1.));
#314=DIRECTION('',(0.,-1.,0.));
#315=DIRECTION('',(0.,0.,-1.));
#316=DIRECTION('',(0.,1.,0.));
#317=DIRECTION('',(0.,0.,1.));
#318=DIRECTION('',(0.,-1.,0.));
#319=DIRECTION('',(0.,0.,-1.));
#320=DIRECTION('',(0.,1.,0.));
#321=DIRECTION('',(1.,0.,0.));
#322=DIRECTION('',(0.,1.,0.));
#323=DIRECTION('',(1.,0.,0.));
#324=DIRECTION('',(0.,-1.,0.));
#325=DIRECTION('',(0.,0.,-1.));
#326=DIRECTION('',(0.,1.,0.));
#327=DIRECTION('',(0.,0.,1.));
#328=DIRECTION('',(0.,-1.,0.));
#329=DIRECTION('',(0.,0.,-1.));
#330=DIRECTION('',(0.,1.,0.));
#331=DIRECTION('',(0.,0.,1.));
#332=DIRECTION('',(0.,-1.,0.));
#333=DIRECTION('',(0.,0.,-1.));
#334=DIRECTION('',(0.,-1.,0.));
#335=DIRECTION('',(0.,0.,-1.));
#336=DIRECTION('',(0.,-1.,0.));
#337=DIRECTION('',(-1.,0.,0.));
#338=DIRECTION('',(0.,-1.,0.));
#339=DIRECTION('',(-1.,0.,0.));
#340=DIRECTION('',(0.,-1.,0.));
#341=DIRECTION('',(-1.,0.,0.));
#342=DIRECTION('',(0.,-1.,0.));
#343=DIRECTION('',(0.,0.,-1.));
#344=DIRECTION('',(0.,-1.,0.));
#345=DIRECTION('',(-1.,0.,0.));
#346=DIRECTION('',(0.,-1.,0.));
#347=DIRECTION('',(0.,0.,-1.));
#348=DIRECTION('',(0.,1.,0.));
#349=DIRECTION('',(0.,0.,1.));
#350=DIRECTION('',(0.,-1.,0.));
#351=DIRECTION('',(-1.,0.,0.));
#352=DIRECTION('',(0.,-1.,0.));
#353=DIRECTION('',(0.,0.,-1.));
#354=DIRECTION('',(0.,1.,0.));
#355=DIRECTION('',(0.,0.,1.));
#356=DIRECTION('',(0.,1.,0.));
#357=DIRECTION('',(1.,0.,0.));
#358=DIRECTION('',(0.,1.,0.));
#359=DIRECTION('',(1.,0.,0.));
#360=DIRECTION('',(0.,1.,0.));
#361=DIRECTION('',(1.,0.,0.));
#362=DIRECTION('',(0.,1.,0.));
#363=DIRECTION('',(0.,0.,1.));
#364=DIRECTION('',(0.,1.,0.));
#365=DIRECTION('',(1.,0.,0.));
#366=DIRECTION('',(0.,1.,0.));
#367=DIRECTION('',(0.,0.,1.));
#368=DIRECTION('',(0.,-1.,0.));
#369=DIRECTION('',(0.,0.,-1.));
#370=DIRECTION('',(0.,1.,0.));
#371=DIRECTION('',(1.,0.,0.));
#372=DIRECTION('',(0.,1.,0.));
#373=DIRECTION('',(0.,0.,1.));
#374=CARTESIAN_POINT('',(0.,0.,0.));
#375=CARTESIAN_POINT('',(0.,36.,0.));
#376=CARTESIAN_POINT('',(0.,22.5,0.));
#377=CARTESIAN_POINT('',(0.,22.5,-5.5));
#378=CARTESIAN_POINT('',(0.,19.8,0.));
#379=CARTESIAN_POINT('',(5.5,19.8,0.));
#380=CARTESIAN_POINT('',(0.,22.5,0.));
#381=CARTESIAN_POINT('',(0.,24.5,0.));
#382=CARTESIAN_POINT('',(0.,24.5,-7.5));
#383=CARTESIAN_POINT('',(0.,36.,0.));
#384=CARTESIAN_POINT('',(-7.5,36.,0.));
#385=CARTESIAN_POINT('',(0.,36.,0.));
#386=CARTESIAN_POINT('',(0.,36.,0.));
#387=CARTESIAN_POINT('',(-4.6,36.,0.));
#388=CARTESIAN_POINT('',(0.,19.8,0.));
#389=CARTESIAN_POINT('',(0.,18.3,0.));
#390=CARTESIAN_POINT('',(0.,18.3,-7.));
#391=CARTESIAN_POINT('',(0.,15.4,0.));
#392=CARTESIAN_POINT('',(0.,15.4,7.));
#393=CARTESIAN_POINT('',(0.,0.,0.));
#394=CARTESIAN_POINT('',(0.,0.,0.));
#395=CARTESIAN_POINT('',(5.3,0.,0.));
#396=CARTESIAN_POINT('',(0.,0.,0.));
#397=CARTESIAN_POINT('',(9.,0.,0.));
#398=CARTESIAN_POINT('',(0.,15.4,0.));
#399=CARTESIAN_POINT('',(0.,13.4,0.));
#400=CARTESIAN_POINT('',(0.,13.4,9.));
#401=CARTESIAN_POINT('',(0.,15.4,0.));
#402=CARTESIAN_POINT('',(0.,22.5,0.));
#403=CARTESIAN_POINT('',(0.,18.3,0.));
#404=CARTESIAN_POINT('',(0.,37.2,0.));
#405=CARTESIAN_POINT('',(0.,37.2,0.));
#406=CARTESIAN_POINT('',(-4.6,37.2,0.));
#407=CARTESIAN_POINT('',(-6.26889299912976,39.2,5.4852813742386));
#408=CARTESIAN_POINT('',(-6.26889299912976,37.2,5.4852813742386));
#409=CARTESIAN_POINT('',(-8.86555350043511,39.2,-6.28837260041593E-15));
#410=CARTESIAN_POINT('',(-8.86555350043511,37.2,-6.28837260041593E-15));
#411=CARTESIAN_POINT('',(-6.26889299912979,39.2,-5.48528137423857));
#412=CARTESIAN_POINT('',(-6.26889299912979,37.2,-5.48528137423857));
#413=CARTESIAN_POINT('',(-3.52365706057789E-15,39.2,-7.75735931288072));
#414=CARTESIAN_POINT('',(-3.52365706057789E-15,37.2,-7.75735931288072));
#415=CARTESIAN_POINT('',(6.2688929991298,39.2,-5.48528137423856));
#416=CARTESIAN_POINT('',(6.2688929991298,37.2,-5.48528137423856));
#417=CARTESIAN_POINT('',(8.8655535004351,39.2,-5.12624339678303E-15));
#418=CARTESIAN_POINT('',(8.8655535004351,37.2,-5.12624339678303E-15));
#419=CARTESIAN_POINT('',(6.2688929991298,39.2,5.48528137423858));
#420=CARTESIAN_POINT('',(6.2688929991298,37.2,5.48528137423858));
#421=CARTESIAN_POINT('',(-2.78639958328775E-14,39.2,7.75735931288071));
#422=CARTESIAN_POINT('',(-2.78639958328775E-14,37.2,7.75735931288071));
#423=CARTESIAN_POINT('',(-6.26889299912976,39.2,5.4852813742386));
#424=CARTESIAN_POINT('',(-6.26889299912976,37.2,5.4852813742386));
#425=CARTESIAN_POINT('',(-8.86555350043511,39.2,-6.28837260041593E-15));
#426=CARTESIAN_POINT('',(-8.86555350043511,37.2,-6.28837260041593E-15));
#427=CARTESIAN_POINT('',(-6.26889299912979,39.2,-5.48528137423857));
#428=CARTESIAN_POINT('',(-6.26889299912979,37.2,-5.48528137423857));
#429=CARTESIAN_POINT('',(0.,39.2,0.));
#430=CARTESIAN_POINT('',(-8.,39.2,0.));
#431=CARTESIAN_POINT('',(0.,37.2,0.));
#432=CARTESIAN_POINT('',(-8.,37.2,0.));
#433=CARTESIAN_POINT('',(0.,39.2,0.));
#434=CARTESIAN_POINT('',(0.,39.2,0.));
#435=CARTESIAN_POINT('',(-4.1,39.2,0.));
#436=CARTESIAN_POINT('',(0.,37.2,0.));
#437=CARTESIAN_POINT('',(0.,27.2,0.));
#438=CARTESIAN_POINT('',(0.,27.2,0.));
#439=CARTESIAN_POINT('',(-4.1,27.2,0.));
#440=CARTESIAN_POINT('',(0.,27.2,0.));
#441=CARTESIAN_POINT('',(0.,-1.2,0.));
#442=CARTESIAN_POINT('',(0.,-1.2,0.));
#443=CARTESIAN_POINT('',(5.3,-1.2,0.));
#444=CARTESIAN_POINT('',(9.00535278002944,-3.2,3.33749301802746));
#445=CARTESIAN_POINT('',(9.00535278002944,-1.2,3.33749301802746));
#446=CARTESIAN_POINT('',(9.74732360998528,-3.2,-7.58941520739853E-16));
#447=CARTESIAN_POINT('',(9.74732360998528,-1.2,-7.58941520739853E-16));
#448=CARTESIAN_POINT('',(9.00535278002944,-3.2,-3.33749301802745));
#449=CARTESIAN_POINT('',(9.00535278002944,-1.2,-3.33749301802745));
#450=CARTESIAN_POINT('',(6.89239862304034,-3.2,-6.16688297850977));
#451=CARTESIAN_POINT('',(6.89239862304034,-1.2,-6.16688297850977));
#452=CARTESIAN_POINT('',(3.73013925544244,-3.2,-8.05742090844739));
#453=CARTESIAN_POINT('',(3.73013925544244,-1.2,-8.05742090844739));
#454=CARTESIAN_POINT('',(3.11030498231779E-15,-3.2,-8.72128954577631));
#455=CARTESIAN_POINT('',(3.11030498231779E-15,-1.2,-8.72128954577631));
#456=CARTESIAN_POINT('',(-3.73013925544245,-3.2,-8.05742090844739));
#457=CARTESIAN_POINT('',(-3.73013925544245,-1.2,-8.05742090844739));
#458=CARTESIAN_POINT('',(-6.89239862304034,-3.2,-6.16688297850976));
#459=CARTESIAN_POINT('',(-6.89239862304034,-1.2,-6.16688297850976));
#460=CARTESIAN_POINT('',(-9.00535278002942,-3.2,-3.33749301802747));
#461=CARTESIAN_POINT('',(-9.00535278002942,-1.2,-3.33749301802747));
#462=CARTESIAN_POINT('',(-9.74732360998528,-3.2,9.64622957901369E-15));
#463=CARTESIAN_POINT('',(-9.74732360998528,-1.2,9.64622957901369E-15));
#464=CARTESIAN_POINT('',(-9.00535278002945,-3.2,3.33749301802743));
#465=CARTESIAN_POINT('',(-9.00535278002945,-1.2,3.33749301802743));
#466=CARTESIAN_POINT('',(-6.89239862304032,-3.2,6.16688297850979));
#467=CARTESIAN_POINT('',(-6.89239862304032,-1.2,6.16688297850979));
#468=CARTESIAN_POINT('',(-3.73013925544248,-3.2,8.05742090844738));
#469=CARTESIAN_POINT('',(-3.73013925544248,-1.2,8.05742090844738));
#470=CARTESIAN_POINT('',(3.69103077095534E-14,-3.2,8.72128954577631));
#471=CARTESIAN_POINT('',(3.69103077095534E-14,-1.2,8.72128954577631));
#472=CARTESIAN_POINT('',(3.73013925544242,-3.2,8.05742090844739));
#473=CARTESIAN_POINT('',(3.73013925544242,-1.2,8.05742090844739));
#474=CARTESIAN_POINT('',(6.89239862304031,-3.2,6.1668829785098));
#475=CARTESIAN_POINT('',(6.89239862304031,-1.2,6.1668829785098));
#476=CARTESIAN_POINT('',(9.00535278002944,-3.2,3.33749301802746));
#477=CARTESIAN_POINT('',(9.00535278002944,-1.2,3.33749301802746));
#478=CARTESIAN_POINT('',(9.74732360998528,-3.2,-7.58941520739853E-16));
#479=CARTESIAN_POINT('',(9.74732360998528,-1.2,-7.58941520739853E-16));
#480=CARTESIAN_POINT('',(9.00535278002944,-3.2,-3.33749301802745));
#481=CARTESIAN_POINT('',(9.00535278002944,-1.2,-3.33749301802745));
#482=CARTESIAN_POINT('',(0.,-3.2,0.));
#483=CARTESIAN_POINT('',(9.5,-3.2,0.));
#484=CARTESIAN_POINT('',(0.,-1.2,0.));
#485=CARTESIAN_POINT('',(9.5,-1.2,0.));
#486=CARTESIAN_POINT('',(0.,-3.2,0.));
#487=CARTESIAN_POINT('',(0.,-3.2,0.));
#488=CARTESIAN_POINT('',(4.8,-3.2,0.));
#489=CARTESIAN_POINT('',(0.,-1.2,0.));
#490=CARTESIAN_POINT('',(0.,8.8,0.));
#491=CARTESIAN_POINT('',(0.,8.8,0.));
#492=CARTESIAN_POINT('',(4.8,8.8,0.));
#493=CARTESIAN_POINT('',(0.,8.8,0.));
#494=MECHANICAL_DESIGN_GEOMETRIC_PRESENTATION_REPRESENTATION('',(#243),
#495);
#495=(
GEOMETRIC_REPRESENTATION_CONTEXT(3)
GLOBAL_UNCERTAINTY_ASSIGNED_CONTEXT((#496))
GLOBAL_UNIT_ASSIGNED_CONTEXT((#499,#498,#497))
REPRESENTATION_CONTEXT('P3.3;8.5;16','TOP_LEVEL_ASSEMBLY_PART')
);
#496=UNCERTAINTY_MEASURE_WITH_UNIT(LENGTH_MEASURE(0.005),#499,
'DISTANCE_ACCURACY_VALUE','Maximum Tolerance applied to model');
#497=(
NAMED_UNIT(*)
SI_UNIT($,.STERADIAN.)
SOLID_ANGLE_UNIT()
);
#498=(
NAMED_UNIT(*)
PLANE_ANGLE_UNIT()
SI_UNIT($,.RADIAN.)
);
#499=(
LENGTH_UNIT()
NAMED_UNIT(*)
SI_UNIT(.MILLI.,.METRE.)
);
#500=PRODUCT_DEFINITION_SHAPE('','',#501);
#501=PRODUCT_DEFINITION('','',#503,#502);
#502=PRODUCT_DEFINITION_CONTEXT('',#509,'design');
#503=PRODUCT_DEFINITION_FORMATION_WITH_SPECIFIED_SOURCE('','',#505,
 .NOT_KNOWN.);
#504=PRODUCT_RELATED_PRODUCT_CATEGORY('','',(#505));
#505=PRODUCT('P3.3;8.5;16','P3.3;8.5;16','P3.3;8.5;16',(#507));
#506=PRODUCT_CATEGORY('','');
#507=PRODUCT_CONTEXT('',#509,'mechanical');
#508=APPLICATION_PROTOCOL_DEFINITION('international standard',
'automotive_design',2010,#509);
#509=APPLICATION_CONTEXT(
'core data for automotive mechanical design processes');
ENDSEC;
END-ISO-10303-21;
