ISO-10303-21;
HEADER;
/* Generated by software containing ST-Developer
 * from STEP Tools, Inc. (www.steptools.com) 
 */
/* OPTION: strings as raw bytes, not using required /X/ escapes */

FILE_DESCRIPTION(
/* description */ ('Unknown'),
/* implementation_level */ '2;1');

FILE_NAME(
/* name */ 'P3S.1;4',
/* time_stamp */ '2018-10-29T09:00:17-04:00',
/* author */ ('Unknown'),
/* organization */ ('Unknown'),
/* preprocessor_version */ 'ST-DEVELOPER v16.7',
/* originating_system */ 'DEX',
/* authorisation */ $);

FILE_SCHEMA (('AUTOMOTIVE_DESIGN {1 0 10303 214 3 1 1}'));
ENDSEC;

DATA;
#10=PROPERTY_DEFINITION_REPRESENTATION(#14,#12);
#11=PROPERTY_DEFINITION_REPRESENTATION(#15,#13);
#12=REPRESENTATION('',(#16),#439);
#13=REPRESENTATION('',(#17),#439);
#14=PROPERTY_DEFINITION('pmi validation property','',#444);
#15=PROPERTY_DEFINITION('pmi validation property','',#444);
#16=VALUE_REPRESENTATION_ITEM('number of annotations',COUNT_MEASURE(0.));
#17=VALUE_REPRESENTATION_ITEM('number of views',COUNT_MEASURE(0.));
#18=SHAPE_REPRESENTATION_RELATIONSHIP('','',#231,#19);
#19=ADVANCED_BREP_SHAPE_REPRESENTATION('',(#229),#439);
#20=ELLIPSE('',#252,7.,6.);
#21=ELLIPSE('',#253,7.,6.);
#22=ELLIPSE('',#257,7.,6.);
#23=ELLIPSE('',#258,7.,6.);
#24=B_SPLINE_SURFACE_WITH_KNOTS('',3,1,((#370,#371),(#372,#373),(#374,#375),
(#376,#377),(#378,#379),(#380,#381),(#382,#383),(#384,#385),(#386,#387),
(#388,#389),(#390,#391)),.SURF_OF_LINEAR_EXTRUSION.,.T.,.F.,.F.,(1,1,1,
1,1,1,1,1,1,1,1,1,1,1,1),(2,2),(-2.35619449019234,-1.5707963267949,-0.785398163397448,
0.,0.785398163397448,1.5707963267949,2.35619449019234,3.14159265358979,
3.92699081698724,4.71238898038469,5.49778714378214,6.28318530717959,7.06858347057703,
7.85398163397448,8.63937979737193),(0.,1.),.UNSPECIFIED.);
#25=B_SPLINE_SURFACE_WITH_KNOTS('',3,1,((#400,#401),(#402,#403),(#404,#405),
(#406,#407),(#408,#409),(#410,#411),(#412,#413),(#414,#415),(#416,#417),
(#418,#419),(#420,#421)),.SURF_OF_LINEAR_EXTRUSION.,.T.,.F.,.F.,(1,1,1,
1,1,1,1,1,1,1,1,1,1,1,1),(2,2),(-2.35619449019234,-1.5707963267949,-0.785398163397448,
0.,0.785398163397448,1.5707963267949,2.35619449019234,3.14159265358979,
3.92699081698724,4.71238898038469,5.49778714378214,6.28318530717959,7.06858347057703,
7.85398163397448,8.63937979737193),(0.,1.),.UNSPECIFIED.);
#26=CONICAL_SURFACE('',#246,6.5,0.785398163397448);
#27=CONICAL_SURFACE('',#247,5.75,0.785398163397448);
#28=PLANE('',#236);
#29=PLANE('',#241);
#30=PLANE('',#254);
#31=PLANE('',#256);
#32=PLANE('',#259);
#33=PLANE('',#261);
#34=PLANE('',#264);
#35=PLANE('',#267);
#36=ORIENTED_EDGE('',*,*,#72,.T.);
#37=ORIENTED_EDGE('',*,*,#73,.T.);
#38=ORIENTED_EDGE('',*,*,#74,.T.);
#39=ORIENTED_EDGE('',*,*,#73,.F.);
#40=ORIENTED_EDGE('',*,*,#75,.T.);
#41=ORIENTED_EDGE('',*,*,#76,.F.);
#42=ORIENTED_EDGE('',*,*,#77,.T.);
#43=ORIENTED_EDGE('',*,*,#78,.T.);
#44=ORIENTED_EDGE('',*,*,#79,.T.);
#45=ORIENTED_EDGE('',*,*,#78,.F.);
#46=ORIENTED_EDGE('',*,*,#76,.T.);
#47=ORIENTED_EDGE('',*,*,#72,.F.);
#48=ORIENTED_EDGE('',*,*,#79,.F.);
#49=ORIENTED_EDGE('',*,*,#75,.F.);
#50=ORIENTED_EDGE('',*,*,#80,.T.);
#51=ORIENTED_EDGE('',*,*,#74,.F.);
#52=ORIENTED_EDGE('',*,*,#81,.T.);
#53=ORIENTED_EDGE('',*,*,#77,.F.);
#54=ORIENTED_EDGE('',*,*,#82,.T.);
#55=ORIENTED_EDGE('',*,*,#83,.F.);
#56=ORIENTED_EDGE('',*,*,#84,.T.);
#57=ORIENTED_EDGE('',*,*,#82,.F.);
#58=ORIENTED_EDGE('',*,*,#81,.F.);
#59=ORIENTED_EDGE('',*,*,#83,.T.);
#60=ORIENTED_EDGE('',*,*,#85,.T.);
#61=ORIENTED_EDGE('',*,*,#86,.F.);
#62=ORIENTED_EDGE('',*,*,#87,.T.);
#63=ORIENTED_EDGE('',*,*,#85,.F.);
#64=ORIENTED_EDGE('',*,*,#80,.F.);
#65=ORIENTED_EDGE('',*,*,#86,.T.);
#66=ORIENTED_EDGE('',*,*,#88,.T.);
#67=ORIENTED_EDGE('',*,*,#87,.F.);
#68=ORIENTED_EDGE('',*,*,#88,.F.);
#69=ORIENTED_EDGE('',*,*,#89,.T.);
#70=ORIENTED_EDGE('',*,*,#84,.F.);
#71=ORIENTED_EDGE('',*,*,#89,.F.);
#72=EDGE_CURVE('',#90,#90,#108,.T.);
#73=EDGE_CURVE('',#91,#91,#109,.T.);
#74=EDGE_CURVE('',#92,#92,#110,.T.);
#75=EDGE_CURVE('',#93,#93,#111,.T.);
#76=EDGE_CURVE('',#94,#94,#112,.T.);
#77=EDGE_CURVE('',#95,#95,#113,.T.);
#78=EDGE_CURVE('',#96,#96,#114,.T.);
#79=EDGE_CURVE('',#97,#97,#115,.T.);
#80=EDGE_CURVE('',#98,#98,#116,.T.);
#81=EDGE_CURVE('',#99,#99,#117,.T.);
#82=EDGE_CURVE('',#100,#100,#20,.T.);
#83=EDGE_CURVE('',#101,#101,#21,.T.);
#84=EDGE_CURVE('',#102,#102,#118,.T.);
#85=EDGE_CURVE('',#103,#103,#22,.T.);
#86=EDGE_CURVE('',#104,#104,#23,.T.);
#87=EDGE_CURVE('',#105,#105,#119,.T.);
#88=EDGE_CURVE('',#106,#106,#120,.T.);
#89=EDGE_CURVE('',#107,#107,#121,.T.);
#90=VERTEX_POINT('',#343);
#91=VERTEX_POINT('',#345);
#92=VERTEX_POINT('',#348);
#93=VERTEX_POINT('',#351);
#94=VERTEX_POINT('',#353);
#95=VERTEX_POINT('',#356);
#96=VERTEX_POINT('',#358);
#97=VERTEX_POINT('',#361);
#98=VERTEX_POINT('',#366);
#99=VERTEX_POINT('',#369);
#100=VERTEX_POINT('',#393);
#101=VERTEX_POINT('',#395);
#102=VERTEX_POINT('',#398);
#103=VERTEX_POINT('',#423);
#104=VERTEX_POINT('',#425);
#105=VERTEX_POINT('',#428);
#106=VERTEX_POINT('',#432);
#107=VERTEX_POINT('',#436);
#108=CIRCLE('',#234,6.5);
#109=CIRCLE('',#235,6.5);
#110=CIRCLE('',#237,3.75);
#111=CIRCLE('',#239,5.75);
#112=CIRCLE('',#240,5.75);
#113=CIRCLE('',#242,3.75);
#114=CIRCLE('',#243,6.5);
#115=CIRCLE('',#245,6.5);
#116=CIRCLE('',#249,3.75);
#117=CIRCLE('',#251,3.75);
#118=CIRCLE('',#255,3.25);
#119=CIRCLE('',#260,3.25);
#120=CIRCLE('',#263,3.25);
#121=CIRCLE('',#266,3.25);
#122=EDGE_LOOP('',(#36));
#123=EDGE_LOOP('',(#37));
#124=EDGE_LOOP('',(#38));
#125=EDGE_LOOP('',(#39));
#126=EDGE_LOOP('',(#40));
#127=EDGE_LOOP('',(#41));
#128=EDGE_LOOP('',(#42));
#129=EDGE_LOOP('',(#43));
#130=EDGE_LOOP('',(#44));
#131=EDGE_LOOP('',(#45));
#132=EDGE_LOOP('',(#46));
#133=EDGE_LOOP('',(#47));
#134=EDGE_LOOP('',(#48));
#135=EDGE_LOOP('',(#49));
#136=EDGE_LOOP('',(#50));
#137=EDGE_LOOP('',(#51));
#138=EDGE_LOOP('',(#52));
#139=EDGE_LOOP('',(#53));
#140=EDGE_LOOP('',(#54));
#141=EDGE_LOOP('',(#55));
#142=EDGE_LOOP('',(#56));
#143=EDGE_LOOP('',(#57));
#144=EDGE_LOOP('',(#58));
#145=EDGE_LOOP('',(#59));
#146=EDGE_LOOP('',(#60));
#147=EDGE_LOOP('',(#61));
#148=EDGE_LOOP('',(#62));
#149=EDGE_LOOP('',(#63));
#150=EDGE_LOOP('',(#64));
#151=EDGE_LOOP('',(#65));
#152=EDGE_LOOP('',(#66));
#153=EDGE_LOOP('',(#67));
#154=EDGE_LOOP('',(#68));
#155=EDGE_LOOP('',(#69));
#156=EDGE_LOOP('',(#70));
#157=EDGE_LOOP('',(#71));
#158=FACE_BOUND('',#122,.T.);
#159=FACE_BOUND('',#123,.T.);
#160=FACE_BOUND('',#124,.T.);
#161=FACE_BOUND('',#125,.T.);
#162=FACE_BOUND('',#126,.T.);
#163=FACE_BOUND('',#127,.T.);
#164=FACE_BOUND('',#128,.T.);
#165=FACE_BOUND('',#129,.T.);
#166=FACE_BOUND('',#130,.T.);
#167=FACE_BOUND('',#131,.T.);
#168=FACE_BOUND('',#132,.T.);
#169=FACE_BOUND('',#133,.T.);
#170=FACE_BOUND('',#134,.T.);
#171=FACE_BOUND('',#135,.T.);
#172=FACE_BOUND('',#136,.T.);
#173=FACE_BOUND('',#137,.T.);
#174=FACE_BOUND('',#138,.T.);
#175=FACE_BOUND('',#139,.T.);
#176=FACE_BOUND('',#140,.T.);
#177=FACE_BOUND('',#141,.T.);
#178=FACE_BOUND('',#142,.T.);
#179=FACE_BOUND('',#143,.T.);
#180=FACE_BOUND('',#144,.T.);
#181=FACE_BOUND('',#145,.T.);
#182=FACE_BOUND('',#146,.T.);
#183=FACE_BOUND('',#147,.T.);
#184=FACE_BOUND('',#148,.T.);
#185=FACE_BOUND('',#149,.T.);
#186=FACE_BOUND('',#150,.T.);
#187=FACE_BOUND('',#151,.T.);
#188=FACE_BOUND('',#152,.T.);
#189=FACE_BOUND('',#153,.T.);
#190=FACE_BOUND('',#154,.T.);
#191=FACE_BOUND('',#155,.T.);
#192=FACE_BOUND('',#156,.T.);
#193=FACE_BOUND('',#157,.T.);
#194=CYLINDRICAL_SURFACE('',#233,6.5);
#195=CYLINDRICAL_SURFACE('',#238,5.75);
#196=CYLINDRICAL_SURFACE('',#244,6.5);
#197=CYLINDRICAL_SURFACE('',#248,3.75);
#198=CYLINDRICAL_SURFACE('',#250,3.75);
#199=CYLINDRICAL_SURFACE('',#262,3.25);
#200=CYLINDRICAL_SURFACE('',#265,3.25);
#201=ADVANCED_FACE('',(#158,#159),#194,.T.);
#202=ADVANCED_FACE('',(#160,#161),#28,.F.);
#203=ADVANCED_FACE('',(#162,#163),#195,.T.);
#204=ADVANCED_FACE('',(#164,#165),#29,.T.);
#205=ADVANCED_FACE('',(#166,#167),#196,.T.);
#206=ADVANCED_FACE('',(#168,#169),#26,.T.);
#207=ADVANCED_FACE('',(#170,#171),#27,.T.);
#208=ADVANCED_FACE('',(#172,#173),#197,.T.);
#209=ADVANCED_FACE('',(#174,#175),#198,.T.);
#210=ADVANCED_FACE('',(#176,#177),#24,.T.);
#211=ADVANCED_FACE('',(#178,#179),#30,.F.);
#212=ADVANCED_FACE('',(#180,#181),#31,.T.);
#213=ADVANCED_FACE('',(#182,#183),#25,.T.);
#214=ADVANCED_FACE('',(#184,#185),#32,.F.);
#215=ADVANCED_FACE('',(#186,#187),#33,.T.);
#216=ADVANCED_FACE('',(#188,#189),#199,.F.);
#217=ADVANCED_FACE('',(#190),#34,.F.);
#218=ADVANCED_FACE('',(#191,#192),#200,.F.);
#219=ADVANCED_FACE('',(#193),#35,.F.);
#220=CLOSED_SHELL('',(#201,#202,#203,#204,#205,#206,#207,#208,#209,#210,
#211,#212,#213,#214,#215,#216,#217,#218,#219));
#221=STYLED_ITEM('',(#222),#229);
#222=PRESENTATION_STYLE_ASSIGNMENT((#223));
#223=SURFACE_STYLE_USAGE(.BOTH.,#224);
#224=SURFACE_SIDE_STYLE('',(#225));
#225=SURFACE_STYLE_FILL_AREA(#226);
#226=FILL_AREA_STYLE('',(#227));
#227=FILL_AREA_STYLE_COLOUR('',#228);
#228=COLOUR_RGB('',0.506983280181885,0.531564235687256,0.550000011920929);
#229=MANIFOLD_SOLID_BREP('',#220);
#230=SHAPE_DEFINITION_REPRESENTATION(#444,#231);
#231=SHAPE_REPRESENTATION('P3S.1;4',(#232),#439);
#232=AXIS2_PLACEMENT_3D('',#340,#268,#269);
#233=AXIS2_PLACEMENT_3D('',#341,#270,#271);
#234=AXIS2_PLACEMENT_3D('',#342,#272,#273);
#235=AXIS2_PLACEMENT_3D('',#344,#274,#275);
#236=AXIS2_PLACEMENT_3D('',#346,#276,#277);
#237=AXIS2_PLACEMENT_3D('',#347,#278,#279);
#238=AXIS2_PLACEMENT_3D('',#349,#280,#281);
#239=AXIS2_PLACEMENT_3D('',#350,#282,#283);
#240=AXIS2_PLACEMENT_3D('',#352,#284,#285);
#241=AXIS2_PLACEMENT_3D('',#354,#286,#287);
#242=AXIS2_PLACEMENT_3D('',#355,#288,#289);
#243=AXIS2_PLACEMENT_3D('',#357,#290,#291);
#244=AXIS2_PLACEMENT_3D('',#359,#292,#293);
#245=AXIS2_PLACEMENT_3D('',#360,#294,#295);
#246=AXIS2_PLACEMENT_3D('',#362,#296,#297);
#247=AXIS2_PLACEMENT_3D('',#363,#298,#299);
#248=AXIS2_PLACEMENT_3D('',#364,#300,#301);
#249=AXIS2_PLACEMENT_3D('',#365,#302,#303);
#250=AXIS2_PLACEMENT_3D('',#367,#304,#305);
#251=AXIS2_PLACEMENT_3D('',#368,#306,#307);
#252=AXIS2_PLACEMENT_3D('',#392,#308,#309);
#253=AXIS2_PLACEMENT_3D('',#394,#310,#311);
#254=AXIS2_PLACEMENT_3D('',#396,#312,#313);
#255=AXIS2_PLACEMENT_3D('',#397,#314,#315);
#256=AXIS2_PLACEMENT_3D('',#399,#316,#317);
#257=AXIS2_PLACEMENT_3D('',#422,#318,#319);
#258=AXIS2_PLACEMENT_3D('',#424,#320,#321);
#259=AXIS2_PLACEMENT_3D('',#426,#322,#323);
#260=AXIS2_PLACEMENT_3D('',#427,#324,#325);
#261=AXIS2_PLACEMENT_3D('',#429,#326,#327);
#262=AXIS2_PLACEMENT_3D('',#430,#328,#329);
#263=AXIS2_PLACEMENT_3D('',#431,#330,#331);
#264=AXIS2_PLACEMENT_3D('',#433,#332,#333);
#265=AXIS2_PLACEMENT_3D('',#434,#334,#335);
#266=AXIS2_PLACEMENT_3D('',#435,#336,#337);
#267=AXIS2_PLACEMENT_3D('',#437,#338,#339);
#268=DIRECTION('',(0.,0.,1.));
#269=DIRECTION('',(1.,0.,0.));
#270=DIRECTION('',(0.,-1.,0.));
#271=DIRECTION('',(0.,0.,-1.));
#272=DIRECTION('',(0.,1.,0.));
#273=DIRECTION('',(0.,0.,1.));
#274=DIRECTION('',(0.,-1.,0.));
#275=DIRECTION('',(1.,0.,0.));
#276=DIRECTION('',(0.,-1.,0.));
#277=DIRECTION('',(0.,0.,-1.));
#278=DIRECTION('',(0.,-1.,0.));
#279=DIRECTION('',(-1.,0.,0.));
#280=DIRECTION('',(0.,1.,0.));
#281=DIRECTION('',(0.,0.,1.));
#282=DIRECTION('',(0.,1.,0.));
#283=DIRECTION('',(0.,0.,1.));
#284=DIRECTION('',(0.,1.,0.));
#285=DIRECTION('',(0.,0.,1.));
#286=DIRECTION('',(0.,-1.,0.));
#287=DIRECTION('',(0.,0.,-1.));
#288=DIRECTION('',(0.,1.,0.));
#289=DIRECTION('',(1.,0.,0.));
#290=DIRECTION('',(0.,-1.,0.));
#291=DIRECTION('',(1.,0.,0.));
#292=DIRECTION('',(0.,-1.,0.));
#293=DIRECTION('',(0.,0.,-1.));
#294=DIRECTION('',(0.,-1.,0.));
#295=DIRECTION('',(0.,0.,-1.));
#296=DIRECTION('',(0.,1.,0.));
#297=DIRECTION('',(0.,0.,1.));
#298=DIRECTION('',(0.,-1.,0.));
#299=DIRECTION('',(0.,0.,-1.));
#300=DIRECTION('',(0.,-1.,0.));
#301=DIRECTION('',(0.,0.,-1.));
#302=DIRECTION('',(0.,-1.,0.));
#303=DIRECTION('',(-1.,0.,0.));
#304=DIRECTION('',(0.,1.,0.));
#305=DIRECTION('',(0.,0.,1.));
#306=DIRECTION('',(0.,1.,0.));
#307=DIRECTION('',(1.,0.,0.));
#308=DIRECTION('',(0.,1.,0.));
#309=DIRECTION('',(1.,0.,0.));
#310=DIRECTION('',(0.,1.,0.));
#311=DIRECTION('',(1.,0.,0.));
#312=DIRECTION('',(0.,1.,0.));
#313=DIRECTION('',(0.,0.,1.));
#314=DIRECTION('',(0.,1.,0.));
#315=DIRECTION('',(1.,0.,0.));
#316=DIRECTION('',(0.,1.,0.));
#317=DIRECTION('',(0.,0.,1.));
#318=DIRECTION('',(0.,-1.,0.));
#319=DIRECTION('',(-1.,0.,0.));
#320=DIRECTION('',(0.,-1.,0.));
#321=DIRECTION('',(-1.,0.,0.));
#322=DIRECTION('',(0.,-1.,0.));
#323=DIRECTION('',(0.,0.,-1.));
#324=DIRECTION('',(0.,-1.,0.));
#325=DIRECTION('',(-1.,0.,0.));
#326=DIRECTION('',(0.,-1.,0.));
#327=DIRECTION('',(0.,0.,-1.));
#328=DIRECTION('',(0.,1.,0.));
#329=DIRECTION('',(0.,0.,1.));
#330=DIRECTION('',(0.,-1.,0.));
#331=DIRECTION('',(-1.,0.,0.));
#332=DIRECTION('',(0.,-1.,0.));
#333=DIRECTION('',(0.,0.,-1.));
#334=DIRECTION('',(0.,-1.,0.));
#335=DIRECTION('',(0.,0.,-1.));
#336=DIRECTION('',(0.,1.,0.));
#337=DIRECTION('',(1.,0.,0.));
#338=DIRECTION('',(0.,1.,0.));
#339=DIRECTION('',(0.,0.,1.));
#340=CARTESIAN_POINT('',(0.,0.,0.));
#341=CARTESIAN_POINT('',(0.,40.75,0.));
#342=CARTESIAN_POINT('',(0.,29.72,0.));
#343=CARTESIAN_POINT('',(0.,29.72,6.5));
#344=CARTESIAN_POINT('',(0.,40.75,0.));
#345=CARTESIAN_POINT('',(6.5,40.75,0.));
#346=CARTESIAN_POINT('',(0.,40.75,0.));
#347=CARTESIAN_POINT('',(0.,40.75,0.));
#348=CARTESIAN_POINT('',(-3.75,40.75,0.));
#349=CARTESIAN_POINT('',(0.,0.815000000000002,0.));
#350=CARTESIAN_POINT('',(0.,27.17,0.));
#351=CARTESIAN_POINT('',(0.,27.17,5.75));
#352=CARTESIAN_POINT('',(0.,28.97,0.));
#353=CARTESIAN_POINT('',(0.,28.97,5.75));
#354=CARTESIAN_POINT('',(0.,0.,0.));
#355=CARTESIAN_POINT('',(0.,0.,0.));
#356=CARTESIAN_POINT('',(3.75,0.,0.));
#357=CARTESIAN_POINT('',(0.,0.,0.));
#358=CARTESIAN_POINT('',(6.5,0.,0.));
#359=CARTESIAN_POINT('',(0.,40.75,0.));
#360=CARTESIAN_POINT('',(0.,26.42,0.));
#361=CARTESIAN_POINT('',(0.,26.42,-6.5));
#362=CARTESIAN_POINT('',(0.,29.72,0.));
#363=CARTESIAN_POINT('',(0.,27.17,0.));
#364=CARTESIAN_POINT('',(0.,41.95,0.));
#365=CARTESIAN_POINT('',(0.,41.95,0.));
#366=CARTESIAN_POINT('',(-3.75,41.95,0.));
#367=CARTESIAN_POINT('',(0.,-1.2,0.));
#368=CARTESIAN_POINT('',(0.,-1.2,0.));
#369=CARTESIAN_POINT('',(3.75,-1.2,0.));
#370=CARTESIAN_POINT('',(5.48528137423854,-3.2,4.70166974934737));
#371=CARTESIAN_POINT('',(5.48528137423854,-1.2,4.70166974934737));
#372=CARTESIAN_POINT('',(7.75735931288072,-3.2,-5.85469173142172E-15));
#373=CARTESIAN_POINT('',(7.75735931288072,-1.2,-5.85469173142172E-15));
#374=CARTESIAN_POINT('',(5.48528137423857,-3.2,-4.70166974934735));
#375=CARTESIAN_POINT('',(5.48528137423857,-1.2,-4.70166974934735));
#376=CARTESIAN_POINT('',(3.30681662608079E-15,-3.2,-6.64916512532633));
#377=CARTESIAN_POINT('',(3.30681662608079E-15,-1.2,-6.64916512532633));
#378=CARTESIAN_POINT('',(-5.48528137423858,-3.2,-4.70166974934734));
#379=CARTESIAN_POINT('',(-5.48528137423858,-1.2,-4.70166974934734));
#380=CARTESIAN_POINT('',(-7.75735931288071,-3.2,-4.72305571388998E-15));
#381=CARTESIAN_POINT('',(-7.75735931288071,-1.2,-4.72305571388998E-15));
#382=CARTESIAN_POINT('',(-5.48528137423857,-3.2,4.70166974934735));
#383=CARTESIAN_POINT('',(-5.48528137423857,-1.2,4.70166974934735));
#384=CARTESIAN_POINT('',(2.41777084464267E-14,-3.2,6.64916512532632));
#385=CARTESIAN_POINT('',(2.41777084464267E-14,-1.2,6.64916512532632));
#386=CARTESIAN_POINT('',(5.48528137423854,-3.2,4.70166974934737));
#387=CARTESIAN_POINT('',(5.48528137423854,-1.2,4.70166974934737));
#388=CARTESIAN_POINT('',(7.75735931288072,-3.2,-5.85469173142172E-15));
#389=CARTESIAN_POINT('',(7.75735931288072,-1.2,-5.85469173142172E-15));
#390=CARTESIAN_POINT('',(5.48528137423857,-3.2,-4.70166974934735));
#391=CARTESIAN_POINT('',(5.48528137423857,-1.2,-4.70166974934735));
#392=CARTESIAN_POINT('',(0.,-3.2,0.));
#393=CARTESIAN_POINT('',(7.,-3.2,0.));
#394=CARTESIAN_POINT('',(0.,-1.2,0.));
#395=CARTESIAN_POINT('',(7.,-1.2,0.));
#396=CARTESIAN_POINT('',(0.,-3.2,0.));
#397=CARTESIAN_POINT('',(0.,-3.2,0.));
#398=CARTESIAN_POINT('',(3.25,-3.2,0.));
#399=CARTESIAN_POINT('',(0.,-1.2,0.));
#400=CARTESIAN_POINT('',(-5.48528137423854,43.95,4.70166974934737));
#401=CARTESIAN_POINT('',(-5.48528137423854,41.95,4.70166974934737));
#402=CARTESIAN_POINT('',(-7.75735931288072,43.95,-5.85469173142172E-15));
#403=CARTESIAN_POINT('',(-7.75735931288072,41.95,-5.85469173142172E-15));
#404=CARTESIAN_POINT('',(-5.48528137423857,43.95,-4.70166974934735));
#405=CARTESIAN_POINT('',(-5.48528137423857,41.95,-4.70166974934735));
#406=CARTESIAN_POINT('',(-3.30681662608079E-15,43.95,-6.64916512532633));
#407=CARTESIAN_POINT('',(-3.30681662608079E-15,41.95,-6.64916512532633));
#408=CARTESIAN_POINT('',(5.48528137423858,43.95,-4.70166974934734));
#409=CARTESIAN_POINT('',(5.48528137423858,41.95,-4.70166974934734));
#410=CARTESIAN_POINT('',(7.75735931288071,43.95,-4.72305571388998E-15));
#411=CARTESIAN_POINT('',(7.75735931288071,41.95,-4.72305571388998E-15));
#412=CARTESIAN_POINT('',(5.48528137423857,43.95,4.70166974934735));
#413=CARTESIAN_POINT('',(5.48528137423857,41.95,4.70166974934735));
#414=CARTESIAN_POINT('',(-2.41777084464267E-14,43.95,6.64916512532632));
#415=CARTESIAN_POINT('',(-2.41777084464267E-14,41.95,6.64916512532632));
#416=CARTESIAN_POINT('',(-5.48528137423854,43.95,4.70166974934737));
#417=CARTESIAN_POINT('',(-5.48528137423854,41.95,4.70166974934737));
#418=CARTESIAN_POINT('',(-7.75735931288072,43.95,-5.85469173142172E-15));
#419=CARTESIAN_POINT('',(-7.75735931288072,41.95,-5.85469173142172E-15));
#420=CARTESIAN_POINT('',(-5.48528137423857,43.95,-4.70166974934735));
#421=CARTESIAN_POINT('',(-5.48528137423857,41.95,-4.70166974934735));
#422=CARTESIAN_POINT('',(0.,43.95,0.));
#423=CARTESIAN_POINT('',(-7.,43.95,0.));
#424=CARTESIAN_POINT('',(0.,41.95,0.));
#425=CARTESIAN_POINT('',(-7.,41.95,0.));
#426=CARTESIAN_POINT('',(0.,43.95,0.));
#427=CARTESIAN_POINT('',(0.,43.95,0.));
#428=CARTESIAN_POINT('',(-3.25,43.95,0.));
#429=CARTESIAN_POINT('',(0.,41.95,0.));
#430=CARTESIAN_POINT('',(0.,26.95,0.));
#431=CARTESIAN_POINT('',(0.,26.95,0.));
#432=CARTESIAN_POINT('',(-3.25,26.95,0.));
#433=CARTESIAN_POINT('',(0.,26.95,0.));
#434=CARTESIAN_POINT('',(0.,13.8,0.));
#435=CARTESIAN_POINT('',(0.,13.8,0.));
#436=CARTESIAN_POINT('',(3.25,13.8,0.));
#437=CARTESIAN_POINT('',(0.,13.8,0.));
#438=MECHANICAL_DESIGN_GEOMETRIC_PRESENTATION_REPRESENTATION('',(#221),
#439);
#439=(
GEOMETRIC_REPRESENTATION_CONTEXT(3)
GLOBAL_UNCERTAINTY_ASSIGNED_CONTEXT((#440))
GLOBAL_UNIT_ASSIGNED_CONTEXT((#443,#442,#441))
REPRESENTATION_CONTEXT('P3S.1;4','TOP_LEVEL_ASSEMBLY_PART')
);
#440=UNCERTAINTY_MEASURE_WITH_UNIT(LENGTH_MEASURE(0.005),#443,
'DISTANCE_ACCURACY_VALUE','Maximum Tolerance applied to model');
#441=(
NAMED_UNIT(*)
SI_UNIT($,.STERADIAN.)
SOLID_ANGLE_UNIT()
);
#442=(
NAMED_UNIT(*)
PLANE_ANGLE_UNIT()
SI_UNIT($,.RADIAN.)
);
#443=(
LENGTH_UNIT()
NAMED_UNIT(*)
SI_UNIT(.MILLI.,.METRE.)
);
#444=PRODUCT_DEFINITION_SHAPE('','',#445);
#445=PRODUCT_DEFINITION('','',#447,#446);
#446=PRODUCT_DEFINITION_CONTEXT('',#453,'design');
#447=PRODUCT_DEFINITION_FORMATION_WITH_SPECIFIED_SOURCE('','',#449,
 .NOT_KNOWN.);
#448=PRODUCT_RELATED_PRODUCT_CATEGORY('','',(#449));
#449=PRODUCT('P3S.1;4','P3S.1;4','P3S.1;4',(#451));
#450=PRODUCT_CATEGORY('','');
#451=PRODUCT_CONTEXT('',#453,'mechanical');
#452=APPLICATION_PROTOCOL_DEFINITION('international standard',
'automotive_design',2010,#453);
#453=APPLICATION_CONTEXT(
'core data for automotive mechanical design processes');
ENDSEC;
END-ISO-10303-21;
