ISO-10303-21;
HEADER;
/* Generated by software containing ST-Developer
 * from STEP Tools, Inc. (www.steptools.com) 
 */
/* OPTION: strings as raw bytes, not using required /X/ escapes */

FILE_DESCRIPTION(
/* description */ ('Unknown'),
/* implementation_level */ '2;1');

FILE_NAME(
/* name */ 'P7.10',
/* time_stamp */ '2019-02-13T08:56:49-05:00',
/* author */ ('Unknown'),
/* organization */ ('Unknown'),
/* preprocessor_version */ 'ST-DEVELOPER v16.7',
/* originating_system */ 'DEX',
/* authorisation */ $);

FILE_SCHEMA (('AUTOMOTIVE_DESIGN {1 0 10303 214 3 1 1}'));
ENDSEC;

DATA;
#10=PROPERTY_DEFINITION_REPRESENTATION(#14,#12);
#11=PROPERTY_DEFINITION_REPRESENTATION(#15,#13);
#12=REPRESENTATION('',(#16),#237);
#13=REPRESENTATION('',(#17),#237);
#14=PROPERTY_DEFINITION('pmi validation property','',#242);
#15=PROPERTY_DEFINITION('pmi validation property','',#242);
#16=VALUE_REPRESENTATION_ITEM('number of annotations',COUNT_MEASURE(0.));
#17=VALUE_REPRESENTATION_ITEM('number of views',COUNT_MEASURE(0.));
#18=SHAPE_REPRESENTATION_RELATIONSHIP('','',#141,#19);
#19=ADVANCED_BREP_SHAPE_REPRESENTATION('',(#139),#237);
#20=TOROIDAL_SURFACE('',#161,4.5,0.499999999999999);
#21=TOROIDAL_SURFACE('',#162,4.5,0.499999999999999);
#22=PLANE('',#146);
#23=PLANE('',#152);
#24=PLANE('',#154);
#25=PLANE('',#157);
#26=ORIENTED_EDGE('',*,*,#46,.T.);
#27=ORIENTED_EDGE('',*,*,#47,.F.);
#28=ORIENTED_EDGE('',*,*,#48,.T.);
#29=ORIENTED_EDGE('',*,*,#49,.F.);
#30=ORIENTED_EDGE('',*,*,#50,.T.);
#31=ORIENTED_EDGE('',*,*,#51,.F.);
#32=ORIENTED_EDGE('',*,*,#52,.T.);
#33=ORIENTED_EDGE('',*,*,#50,.F.);
#34=ORIENTED_EDGE('',*,*,#47,.T.);
#35=ORIENTED_EDGE('',*,*,#51,.T.);
#36=ORIENTED_EDGE('',*,*,#53,.T.);
#37=ORIENTED_EDGE('',*,*,#52,.F.);
#38=ORIENTED_EDGE('',*,*,#54,.T.);
#39=ORIENTED_EDGE('',*,*,#55,.T.);
#40=ORIENTED_EDGE('',*,*,#49,.T.);
#41=ORIENTED_EDGE('',*,*,#55,.F.);
#42=ORIENTED_EDGE('',*,*,#54,.F.);
#43=ORIENTED_EDGE('',*,*,#53,.F.);
#44=ORIENTED_EDGE('',*,*,#48,.F.);
#45=ORIENTED_EDGE('',*,*,#46,.F.);
#46=EDGE_CURVE('',#56,#56,#66,.T.);
#47=EDGE_CURVE('',#57,#57,#67,.T.);
#48=EDGE_CURVE('',#58,#58,#68,.F.);
#49=EDGE_CURVE('',#59,#59,#69,.T.);
#50=EDGE_CURVE('',#60,#60,#70,.T.);
#51=EDGE_CURVE('',#61,#61,#71,.T.);
#52=EDGE_CURVE('',#62,#62,#72,.T.);
#53=EDGE_CURVE('',#63,#63,#73,.T.);
#54=EDGE_CURVE('',#64,#64,#74,.F.);
#55=EDGE_CURVE('',#65,#65,#75,.T.);
#56=VERTEX_POINT('',#208);
#57=VERTEX_POINT('',#210);
#58=VERTEX_POINT('',#213);
#59=VERTEX_POINT('',#215);
#60=VERTEX_POINT('',#218);
#61=VERTEX_POINT('',#220);
#62=VERTEX_POINT('',#223);
#63=VERTEX_POINT('',#227);
#64=VERTEX_POINT('',#230);
#65=VERTEX_POINT('',#232);
#66=CIRCLE('',#144,5.);
#67=CIRCLE('',#145,5.);
#68=CIRCLE('',#147,4.5);
#69=CIRCLE('',#148,3.15);
#70=CIRCLE('',#150,5.425);
#71=CIRCLE('',#151,5.425);
#72=CIRCLE('',#153,5.);
#73=CIRCLE('',#156,5.);
#74=CIRCLE('',#158,4.5);
#75=CIRCLE('',#159,3.15);
#76=EDGE_LOOP('',(#26));
#77=EDGE_LOOP('',(#27));
#78=EDGE_LOOP('',(#28));
#79=EDGE_LOOP('',(#29));
#80=EDGE_LOOP('',(#30));
#81=EDGE_LOOP('',(#31));
#82=EDGE_LOOP('',(#32));
#83=EDGE_LOOP('',(#33));
#84=EDGE_LOOP('',(#34));
#85=EDGE_LOOP('',(#35));
#86=EDGE_LOOP('',(#36));
#87=EDGE_LOOP('',(#37));
#88=EDGE_LOOP('',(#38));
#89=EDGE_LOOP('',(#39));
#90=EDGE_LOOP('',(#40));
#91=EDGE_LOOP('',(#41));
#92=EDGE_LOOP('',(#42));
#93=EDGE_LOOP('',(#43));
#94=EDGE_LOOP('',(#44));
#95=EDGE_LOOP('',(#45));
#96=FACE_BOUND('',#76,.T.);
#97=FACE_BOUND('',#77,.T.);
#98=FACE_BOUND('',#78,.T.);
#99=FACE_BOUND('',#79,.T.);
#100=FACE_BOUND('',#80,.T.);
#101=FACE_BOUND('',#81,.T.);
#102=FACE_BOUND('',#82,.T.);
#103=FACE_BOUND('',#83,.T.);
#104=FACE_BOUND('',#84,.T.);
#105=FACE_BOUND('',#85,.T.);
#106=FACE_BOUND('',#86,.T.);
#107=FACE_BOUND('',#87,.T.);
#108=FACE_BOUND('',#88,.T.);
#109=FACE_BOUND('',#89,.T.);
#110=FACE_BOUND('',#90,.T.);
#111=FACE_BOUND('',#91,.T.);
#112=FACE_BOUND('',#92,.T.);
#113=FACE_BOUND('',#93,.T.);
#114=FACE_BOUND('',#94,.T.);
#115=FACE_BOUND('',#95,.T.);
#116=CYLINDRICAL_SURFACE('',#143,5.);
#117=CYLINDRICAL_SURFACE('',#149,5.425);
#118=CYLINDRICAL_SURFACE('',#155,5.);
#119=CYLINDRICAL_SURFACE('',#160,3.15);
#120=ADVANCED_FACE('',(#96,#97),#116,.T.);
#121=ADVANCED_FACE('',(#98,#99),#22,.F.);
#122=ADVANCED_FACE('',(#100,#101),#117,.T.);
#123=ADVANCED_FACE('',(#102,#103),#23,.F.);
#124=ADVANCED_FACE('',(#104,#105),#24,.T.);
#125=ADVANCED_FACE('',(#106,#107),#118,.T.);
#126=ADVANCED_FACE('',(#108,#109),#25,.F.);
#127=ADVANCED_FACE('',(#110,#111),#119,.F.);
#128=ADVANCED_FACE('',(#112,#113),#20,.T.);
#129=ADVANCED_FACE('',(#114,#115),#21,.T.);
#130=CLOSED_SHELL('',(#120,#121,#122,#123,#124,#125,#126,#127,#128,#129));
#131=STYLED_ITEM('',(#132),#139);
#132=PRESENTATION_STYLE_ASSIGNMENT((#133));
#133=SURFACE_STYLE_USAGE(.BOTH.,#134);
#134=SURFACE_SIDE_STYLE('',(#135));
#135=SURFACE_STYLE_FILL_AREA(#136);
#136=FILL_AREA_STYLE('',(#137));
#137=FILL_AREA_STYLE_COLOUR('',#138);
#138=COLOUR_RGB('',0.506983280181885,0.531564235687256,0.550000011920929);
#139=MANIFOLD_SOLID_BREP('',#130);
#140=SHAPE_DEFINITION_REPRESENTATION(#242,#141);
#141=SHAPE_REPRESENTATION('P7.10',(#142),#237);
#142=AXIS2_PLACEMENT_3D('',#205,#163,#164);
#143=AXIS2_PLACEMENT_3D('',#206,#165,#166);
#144=AXIS2_PLACEMENT_3D('',#207,#167,#168);
#145=AXIS2_PLACEMENT_3D('',#209,#169,#170);
#146=AXIS2_PLACEMENT_3D('',#211,#171,#172);
#147=AXIS2_PLACEMENT_3D('',#212,#173,#174);
#148=AXIS2_PLACEMENT_3D('',#214,#175,#176);
#149=AXIS2_PLACEMENT_3D('',#216,#177,#178);
#150=AXIS2_PLACEMENT_3D('',#217,#179,#180);
#151=AXIS2_PLACEMENT_3D('',#219,#181,#182);
#152=AXIS2_PLACEMENT_3D('',#221,#183,#184);
#153=AXIS2_PLACEMENT_3D('',#222,#185,#186);
#154=AXIS2_PLACEMENT_3D('',#224,#187,#188);
#155=AXIS2_PLACEMENT_3D('',#225,#189,#190);
#156=AXIS2_PLACEMENT_3D('',#226,#191,#192);
#157=AXIS2_PLACEMENT_3D('',#228,#193,#194);
#158=AXIS2_PLACEMENT_3D('',#229,#195,#196);
#159=AXIS2_PLACEMENT_3D('',#231,#197,#198);
#160=AXIS2_PLACEMENT_3D('',#233,#199,#200);
#161=AXIS2_PLACEMENT_3D('',#234,#201,#202);
#162=AXIS2_PLACEMENT_3D('',#235,#203,#204);
#163=DIRECTION('',(0.,0.,1.));
#164=DIRECTION('',(1.,0.,0.));
#165=DIRECTION('',(0.,-1.,0.));
#166=DIRECTION('',(0.,0.,-1.));
#167=DIRECTION('',(0.,1.,0.));
#168=DIRECTION('',(0.,0.,1.));
#169=DIRECTION('',(0.,1.,0.));
#170=DIRECTION('',(1.,0.,0.));
#171=DIRECTION('',(0.,1.,0.));
#172=DIRECTION('',(0.,0.,1.));
#173=DIRECTION('',(0.,1.,0.));
#174=DIRECTION('',(0.,0.,1.));
#175=DIRECTION('',(0.,-1.,0.));
#176=DIRECTION('',(-1.,0.,0.));
#177=DIRECTION('',(0.,-1.,0.));
#178=DIRECTION('',(0.,0.,-1.));
#179=DIRECTION('',(0.,-1.,0.));
#180=DIRECTION('',(-1.,0.,0.));
#181=DIRECTION('',(0.,-1.,0.));
#182=DIRECTION('',(-1.,0.,0.));
#183=DIRECTION('',(0.,-1.,0.));
#184=DIRECTION('',(0.,0.,-1.));
#185=DIRECTION('',(0.,-1.,0.));
#186=DIRECTION('',(-1.,0.,0.));
#187=DIRECTION('',(0.,-1.,0.));
#188=DIRECTION('',(0.,0.,-1.));
#189=DIRECTION('',(0.,-1.,0.));
#190=DIRECTION('',(0.,0.,-1.));
#191=DIRECTION('',(0.,-1.,0.));
#192=DIRECTION('',(0.,0.,-1.));
#193=DIRECTION('',(0.,-1.,0.));
#194=DIRECTION('',(0.,0.,-1.));
#195=DIRECTION('',(0.,-1.,0.));
#196=DIRECTION('',(0.,0.,-1.));
#197=DIRECTION('',(0.,-1.,0.));
#198=DIRECTION('',(-1.,0.,0.));
#199=DIRECTION('',(0.,1.,0.));
#200=DIRECTION('',(0.,0.,1.));
#201=DIRECTION('',(0.,-1.,0.));
#202=DIRECTION('',(0.,0.,-1.));
#203=DIRECTION('',(0.,1.,0.));
#204=DIRECTION('',(0.,0.,1.));
#205=CARTESIAN_POINT('',(0.,0.,0.));
#206=CARTESIAN_POINT('',(0.,22.5,0.));
#207=CARTESIAN_POINT('',(0.,0.5,0.));
#208=CARTESIAN_POINT('',(0.,0.5,5.));
#209=CARTESIAN_POINT('',(0.,22.5,0.));
#210=CARTESIAN_POINT('',(5.,22.5,0.));
#211=CARTESIAN_POINT('',(0.,0.,0.));
#212=CARTESIAN_POINT('',(0.,0.,0.));
#213=CARTESIAN_POINT('',(0.,0.,4.5));
#214=CARTESIAN_POINT('',(0.,0.,0.));
#215=CARTESIAN_POINT('',(-3.15,0.,0.));
#216=CARTESIAN_POINT('',(0.,24.5,0.));
#217=CARTESIAN_POINT('',(0.,24.5,0.));
#218=CARTESIAN_POINT('',(-5.425,24.5,0.));
#219=CARTESIAN_POINT('',(0.,22.5,0.));
#220=CARTESIAN_POINT('',(-5.425,22.5,0.));
#221=CARTESIAN_POINT('',(0.,24.5,0.));
#222=CARTESIAN_POINT('',(0.,24.5,0.));
#223=CARTESIAN_POINT('',(-5.,24.5,0.));
#224=CARTESIAN_POINT('',(0.,22.5,0.));
#225=CARTESIAN_POINT('',(0.,47.,0.));
#226=CARTESIAN_POINT('',(0.,46.5,0.));
#227=CARTESIAN_POINT('',(0.,46.5,-5.));
#228=CARTESIAN_POINT('',(0.,47.,0.));
#229=CARTESIAN_POINT('',(0.,47.,0.));
#230=CARTESIAN_POINT('',(0.,47.,-4.5));
#231=CARTESIAN_POINT('',(0.,47.,0.));
#232=CARTESIAN_POINT('',(-3.15,47.,0.));
#233=CARTESIAN_POINT('',(0.,0.,0.));
#234=CARTESIAN_POINT('',(0.,46.5,0.));
#235=CARTESIAN_POINT('',(0.,0.5,0.));
#236=MECHANICAL_DESIGN_GEOMETRIC_PRESENTATION_REPRESENTATION('',(#131),
#237);
#237=(
GEOMETRIC_REPRESENTATION_CONTEXT(3)
GLOBAL_UNCERTAINTY_ASSIGNED_CONTEXT((#238))
GLOBAL_UNIT_ASSIGNED_CONTEXT((#241,#240,#239))
REPRESENTATION_CONTEXT('P7.10','TOP_LEVEL_ASSEMBLY_PART')
);
#238=UNCERTAINTY_MEASURE_WITH_UNIT(LENGTH_MEASURE(0.005),#241,
'DISTANCE_ACCURACY_VALUE','Maximum Tolerance applied to model');
#239=(
NAMED_UNIT(*)
SI_UNIT($,.STERADIAN.)
SOLID_ANGLE_UNIT()
);
#240=(
NAMED_UNIT(*)
PLANE_ANGLE_UNIT()
SI_UNIT($,.RADIAN.)
);
#241=(
LENGTH_UNIT()
NAMED_UNIT(*)
SI_UNIT(.MILLI.,.METRE.)
);
#242=PRODUCT_DEFINITION_SHAPE('','',#243);
#243=PRODUCT_DEFINITION('','',#245,#244);
#244=PRODUCT_DEFINITION_CONTEXT('',#251,'design');
#245=PRODUCT_DEFINITION_FORMATION_WITH_SPECIFIED_SOURCE('','',#247,
 .NOT_KNOWN.);
#246=PRODUCT_RELATED_PRODUCT_CATEGORY('','',(#247));
#247=PRODUCT('P7.10','P7.10','P7.10',(#249));
#248=PRODUCT_CATEGORY('','');
#249=PRODUCT_CONTEXT('',#251,'mechanical');
#250=APPLICATION_PROTOCOL_DEFINITION('international standard',
'automotive_design',2010,#251);
#251=APPLICATION_CONTEXT(
'core data for automotive mechanical design processes');
ENDSEC;
END-ISO-10303-21;
