ISO-10303-21;
HEADER;
/****************************************************************
 * Generated by software with PDE/Lib inside                    *
 * PDElib Version v51a, created Thu 12/14/2006                  *
 * International Technegroup Inc. (www.iti-oh.com)              *
 ****************************************************************/
FILE_DESCRIPTION((''),'2;1');
FILE_NAME('PP04-mdt.stp','2017-07-31T14:41:29',(''),(''),'Mechanical Desktop 2009','Mechanical Desktop 2009',', , ');
FILE_SCHEMA(('CONFIG_CONTROL_DESIGN'));
ENDSEC;
DATA;
#8=(NAMED_UNIT(*)PLANE_ANGLE_UNIT()SI_UNIT($,.RADIAN.));
#9=DIMENSIONAL_EXPONENTS(0.0,0.0,0.0,0.0,0.0,0.0,0.0);
#10=PLANE_ANGLE_MEASURE_WITH_UNIT(PLANE_ANGLE_MEASURE(0.017453292500000),#8);
#14=(CONVERSION_BASED_UNIT('DEGREE',#10)NAMED_UNIT(#9)PLANE_ANGLE_UNIT());
#18=(NAMED_UNIT(*)SI_UNIT($,.STERADIAN.)SOLID_ANGLE_UNIT());
#22=(LENGTH_UNIT()NAMED_UNIT(*)SI_UNIT(.MILLI.,.METRE.));
#23=UNCERTAINTY_MEASURE_WITH_UNIT(LENGTH_MEASURE(0.000001000000000),#22,'DISTANCE_ACCURACY_VALUE','');
#28=(GEOMETRIC_REPRESENTATION_CONTEXT(3)GLOBAL_UNCERTAINTY_ASSIGNED_CONTEXT((#23))GLOBAL_UNIT_ASSIGNED_CONTEXT((#14,#18,#22))REPRESENTATION_CONTEXT('None','None'));
#29=APPLICATION_CONTEXT('CONFIGURATION CONTROLLED 3D DESIGNS OF MECHANICAL PARTS AND ASSEMBLIES');
#30=APPLICATION_PROTOCOL_DEFINITION('INTERNATIONAL STANDARD','config_control_design',1995,#29);
#31=MECHANICAL_CONTEXT('3D Mechanical Parts',#29,'mechanical');
#32=PRODUCT('PP04-MDT','PP04-MDT',' ',(#31));
#33=PRODUCT_RELATED_PRODUCT_CATEGORY('detail',$,(#32,#130));
#34=PRODUCT_CATEGORY('part',$);
#35=PRODUCT_CATEGORY_RELATIONSHIP('None','None',#34,#33);
#36=PERSON('1','Design','Joe',$,$,$);
#37=ORGANIZATION($,'None','None');
#38=PERSON_AND_ORGANIZATION(#36,#37);
#39=PERSON_AND_ORGANIZATION_ROLE('design_owner');
#40=CC_DESIGN_PERSON_AND_ORGANIZATION_ASSIGNMENT(#38,#39,(#32,#130));
#41=PRODUCT_DEFINITION_FORMATION_WITH_SPECIFIED_SOURCE('None','None',#32,.NOT_KNOWN.);
#42=PERSON('2','Creator','Joe',$,$,$);
#43=ORGANIZATION($,'None','None');
#44=PERSON_AND_ORGANIZATION(#42,#43);
#45=PERSON_AND_ORGANIZATION_ROLE('creator');
#46=CC_DESIGN_PERSON_AND_ORGANIZATION_ASSIGNMENT(#44,#45,(#41,#131));
#47=PERSON('3','Supplier','Joe',$,$,$);
#48=ORGANIZATION($,'None','None');
#49=PERSON_AND_ORGANIZATION(#47,#48);
#50=PERSON_AND_ORGANIZATION_ROLE('design_supplier');
#51=CC_DESIGN_PERSON_AND_ORGANIZATION_ASSIGNMENT(#49,#50,(#41,#131));
#52=APPROVAL_STATUS('approved');
#53=APPROVAL(#52,'None');
#54=PERSON('4','Approver','Joe',$,$,$);
#55=ORGANIZATION($,'None','None');
#56=PERSON_AND_ORGANIZATION(#54,#55);
#57=APPROVAL_ROLE('approver');
#58=APPROVAL_PERSON_ORGANIZATION(#56,#53,#57);
#59=COORDINATED_UNIVERSAL_TIME_OFFSET(8,$,.BEHIND.);
#60=CALENDAR_DATE(1996,29,5);
#61=LOCAL_TIME(12,0,0.0,#59);
#62=DATE_AND_TIME(#60,#61);
#63=APPROVAL_DATE_TIME(#62,#53);
#64=CC_DESIGN_APPROVAL(#53,(#41,#131));
#65=SECURITY_CLASSIFICATION_LEVEL('unclassified');
#66=SECURITY_CLASSIFICATION('security','None',#65);
#67=CC_DESIGN_SECURITY_CLASSIFICATION(#66,(#41,#131,#589));
#68=APPROVAL_STATUS('approved');
#69=APPROVAL(#68,'None');
#70=PERSON('5','Approver','Joe',$,$,$);
#71=ORGANIZATION($,'None','None');
#72=PERSON_AND_ORGANIZATION(#70,#71);
#73=APPROVAL_ROLE('approver');
#74=APPROVAL_PERSON_ORGANIZATION(#72,#69,#73);
#75=COORDINATED_UNIVERSAL_TIME_OFFSET(8,$,.BEHIND.);
#76=CALENDAR_DATE(1996,29,5);
#77=LOCAL_TIME(12,0,0.0,#75);
#78=DATE_AND_TIME(#76,#77);
#79=APPROVAL_DATE_TIME(#78,#69);
#80=CC_DESIGN_APPROVAL(#69,(#66));
#81=PERSON('6','Classifier','Joe',$,$,$);
#82=ORGANIZATION($,'None','None');
#83=PERSON_AND_ORGANIZATION(#81,#82);
#84=PERSON_AND_ORGANIZATION_ROLE('classification_officer');
#85=CC_DESIGN_PERSON_AND_ORGANIZATION_ASSIGNMENT(#83,#84,(#66));
#86=COORDINATED_UNIVERSAL_TIME_OFFSET(8,$,.BEHIND.);
#87=CALENDAR_DATE(1996,29,5);
#88=LOCAL_TIME(12,0,0.0,#86);
#89=DATE_AND_TIME(#87,#88);
#90=DATE_TIME_ROLE('classification_date');
#91=CC_DESIGN_DATE_AND_TIME_ASSIGNMENT(#89,#90,(#66));
#92=DESIGN_CONTEXT('Design Context',#29,'design');
#93=PRODUCT_DEFINITION('None','None',#41,#92);
#94=PERSON('7','Creator','Joe',$,$,$);
#95=ORGANIZATION($,'None','None');
#96=PERSON_AND_ORGANIZATION(#94,#95);
#97=PERSON_AND_ORGANIZATION_ROLE('creator');
#98=CC_DESIGN_PERSON_AND_ORGANIZATION_ASSIGNMENT(#96,#97,(#93,#132));
#99=COORDINATED_UNIVERSAL_TIME_OFFSET(8,$,.BEHIND.);
#100=CALENDAR_DATE(1996,29,5);
#101=LOCAL_TIME(12,0,0.0,#99);
#102=DATE_AND_TIME(#100,#101);
#103=DATE_TIME_ROLE('creation_date');
#104=CC_DESIGN_DATE_AND_TIME_ASSIGNMENT(#102,#103,(#93,#132));
#105=APPROVAL_STATUS('approved');
#106=APPROVAL(#105,'None');
#107=PERSON('8','Approver','Joe',$,$,$);
#108=ORGANIZATION($,'None','None');
#109=PERSON_AND_ORGANIZATION(#107,#108);
#110=APPROVAL_ROLE('approver');
#111=APPROVAL_PERSON_ORGANIZATION(#109,#106,#110);
#112=COORDINATED_UNIVERSAL_TIME_OFFSET(8,$,.BEHIND.);
#113=CALENDAR_DATE(1996,29,5);
#114=LOCAL_TIME(12,0,0.0,#112);
#115=DATE_AND_TIME(#113,#114);
#116=APPROVAL_DATE_TIME(#115,#106);
#117=CC_DESIGN_APPROVAL(#106,(#93,#132));
#118=CARTESIAN_POINT('NONE',(0.0,0.0,0.0));
#119=DIRECTION('NONE',(0.0,0.0,1.0));
#120=DIRECTION('NONE',(1.0,0.0,0.0));
#121=AXIS2_PLACEMENT_3D('NONE',#118,#119,#120);
#122=SHAPE_REPRESENTATION('SR1',(#121,#583),#28);
#123=PRODUCT_DEFINITION_SHAPE('PDS1','Test Part',#93);
#124=SHAPE_DEFINITION_REPRESENTATION(#123,#122);
#129=(GEOMETRIC_REPRESENTATION_CONTEXT(3)GLOBAL_UNCERTAINTY_ASSIGNED_CONTEXT((#23))GLOBAL_UNIT_ASSIGNED_CONTEXT((#14,#18,#22))REPRESENTATION_CONTEXT('Component','Component'));
#130=PRODUCT('PART1','PART1',' ',(#31));
#131=PRODUCT_DEFINITION_FORMATION_WITH_SPECIFIED_SOURCE('None','None',#130,.NOT_KNOWN.);
#132=PRODUCT_DEFINITION('None','None',#131,#92);
#133=SHAPE_REPRESENTATION('SR2',(#121),#129);
#134=PRODUCT_DEFINITION_SHAPE('PDS2','Test Part',#132);
#135=SHAPE_DEFINITION_REPRESENTATION(#134,#133);
#136=CARTESIAN_POINT('',(203.722825958343150,147.724032469036730,7.500000000000000));
#137=DIRECTION('',(0.0,0.0,1.0));
#138=DIRECTION('',(-1.0,0.0,0.0));
#139=AXIS2_PLACEMENT_3D('',#136,#137,#138);
#140=CYLINDRICAL_SURFACE('',#139,1.500000000000000);
#141=CARTESIAN_POINT('',(202.222825958343150,147.724032469036730,2.000000000000001));
#142=VERTEX_POINT('',#141);
#143=CARTESIAN_POINT('',(202.222825958343150,147.724032469036730,13.0));
#144=VERTEX_POINT('',#143);
#145=CARTESIAN_POINT('',(202.222825958343150,147.724032469036730,2.000000000000001));
#146=DIRECTION('',(0.0,0.0,1.0));
#147=VECTOR('',#146,11.0);
#148=LINE('',#145,#147);
#149=EDGE_CURVE('',#142,#144,#148,.T.);
#150=ORIENTED_EDGE('',*,*,#149,.F.);
#151=CARTESIAN_POINT('',(205.222825958343150,147.724032469036730,2.0));
#152=VERTEX_POINT('',#151);
#153=CARTESIAN_POINT('',(203.722825958343150,147.724032469036730,2.0));
#154=DIRECTION('',(0.0,0.0,1.0));
#155=DIRECTION('',(-1.0,0.0,0.0));
#156=AXIS2_PLACEMENT_3D('',#153,#154,#155);
#157=CIRCLE('',#156,1.500000000000000);
#158=EDGE_CURVE('',#142,#152,#157,.T.);
#159=ORIENTED_EDGE('',*,*,#158,.T.);
#160=CARTESIAN_POINT('',(205.222825958343150,147.724032469036730,13.0));
#161=VERTEX_POINT('',#160);
#162=CARTESIAN_POINT('',(205.222825958343150,147.724032469036730,2.0));
#163=DIRECTION('',(0.0,0.0,1.0));
#164=VECTOR('',#163,11.0);
#165=LINE('',#162,#164);
#166=EDGE_CURVE('',#152,#161,#165,.T.);
#167=ORIENTED_EDGE('',*,*,#166,.T.);
#168=CARTESIAN_POINT('',(203.722825958343150,147.724032469036730,13.0));
#169=DIRECTION('',(0.0,0.0,1.0));
#170=DIRECTION('',(-1.0,0.0,0.0));
#171=AXIS2_PLACEMENT_3D('',#168,#169,#170);
#172=CIRCLE('',#171,1.500000000000000);
#173=EDGE_CURVE('',#144,#161,#172,.T.);
#174=ORIENTED_EDGE('',*,*,#173,.F.);
#175=EDGE_LOOP('',(#150,#159,#167,#174));
#176=FACE_OUTER_BOUND('',#175,.T.);
#177=ADVANCED_FACE('',(#176),#140,.T.);
#178=CARTESIAN_POINT('',(203.722825958343150,147.724032469036730,13.250000000000000));
#179=DIRECTION('',(0.0,0.0,1.0));
#180=DIRECTION('',(1.0,0.0,0.0));
#181=AXIS2_PLACEMENT_3D('',#178,#179,#180);
#182=CONICAL_SURFACE('',#181,1.750000000000000,44.999999999999993);
#183=CARTESIAN_POINT('',(205.722825958343150,147.724032469036730,13.500000000000000));
#184=VERTEX_POINT('',#183);
#185=CARTESIAN_POINT('',(205.722825958343150,147.724032469036730,13.500000000000000));
#186=DIRECTION('',(-0.707106781186547,0.0,-0.707106781186547));
#187=VECTOR('',#186,0.707106781186548);
#188=LINE('',#185,#187);
#189=EDGE_CURVE('',#184,#161,#188,.T.);
#190=ORIENTED_EDGE('',*,*,#189,.F.);
#191=CARTESIAN_POINT('',(201.722825958343150,147.724032469036730,13.500000000000000));
#192=VERTEX_POINT('',#191);
#193=CARTESIAN_POINT('',(203.722825958343150,147.724032469036730,13.500000000000000));
#194=DIRECTION('',(0.0,0.0,-1.0));
#195=DIRECTION('',(1.0,0.0,0.0));
#196=AXIS2_PLACEMENT_3D('',#193,#194,#195);
#197=CIRCLE('',#196,2.0);
#198=EDGE_CURVE('',#184,#192,#197,.T.);
#199=ORIENTED_EDGE('',*,*,#198,.T.);
#200=CARTESIAN_POINT('',(201.722825958343150,147.724032469036730,13.500000000000000));
#201=DIRECTION('',(0.707106781186547,0.0,-0.707106781186547));
#202=VECTOR('',#201,0.707106781186548);
#203=LINE('',#200,#202);
#204=EDGE_CURVE('',#192,#144,#203,.T.);
#205=ORIENTED_EDGE('',*,*,#204,.T.);
#206=ORIENTED_EDGE('',*,*,#173,.T.);
#207=EDGE_LOOP('',(#190,#199,#205,#206));
#208=FACE_OUTER_BOUND('',#207,.T.);
#209=ADVANCED_FACE('',(#208),#182,.T.);
#210=CARTESIAN_POINT('',(203.722825958343150,147.724032469036730,1.750000000000000));
#211=DIRECTION('',(0.0,0.0,-1.0));
#212=DIRECTION('',(1.0,0.0,0.0));
#213=AXIS2_PLACEMENT_3D('',#210,#211,#212);
#214=CONICAL_SURFACE('',#213,1.750000000000000,44.999999999999993);
#215=CARTESIAN_POINT('',(205.722825958343150,147.724032469036730,1.500000000000000));
#216=VERTEX_POINT('',#215);
#217=CARTESIAN_POINT('',(205.722825958343150,147.724032469036730,1.500000000000000));
#218=DIRECTION('',(-0.707106781186547,0.0,0.707106781186547));
#219=VECTOR('',#218,0.707106781186548);
#220=LINE('',#217,#219);
#221=EDGE_CURVE('',#216,#152,#220,.T.);
#222=ORIENTED_EDGE('',*,*,#221,.F.);
#223=CARTESIAN_POINT('',(201.722825958343150,147.724032469036730,1.500000000000000));
#224=VERTEX_POINT('',#223);
#225=CARTESIAN_POINT('',(203.722825958343150,147.724032469036730,1.500000000000000));
#226=DIRECTION('',(0.0,0.0,1.0));
#227=DIRECTION('',(1.0,0.0,0.0));
#228=AXIS2_PLACEMENT_3D('',#225,#226,#227);
#229=CIRCLE('',#228,2.0);
#230=EDGE_CURVE('',#216,#224,#229,.T.);
#231=ORIENTED_EDGE('',*,*,#230,.T.);
#232=CARTESIAN_POINT('',(201.722825958343150,147.724032469036730,1.500000000000000));
#233=DIRECTION('',(0.707106781186547,0.0,0.707106781186548));
#234=VECTOR('',#233,0.707106781186548);
#235=LINE('',#232,#234);
#236=EDGE_CURVE('',#224,#142,#235,.T.);
#237=ORIENTED_EDGE('',*,*,#236,.T.);
#238=CARTESIAN_POINT('',(203.722825958343150,147.724032469036730,2.0));
#239=DIRECTION('',(0.0,0.0,1.0));
#240=DIRECTION('',(-1.0,0.0,0.0));
#241=AXIS2_PLACEMENT_3D('',#238,#239,#240);
#242=CIRCLE('',#241,1.500000000000000);
#243=EDGE_CURVE('',#152,#142,#242,.T.);
#244=ORIENTED_EDGE('',*,*,#243,.F.);
#245=EDGE_LOOP('',(#222,#231,#237,#244));
#246=FACE_OUTER_BOUND('',#245,.T.);
#247=ADVANCED_FACE('',(#246),#214,.T.);
#248=CARTESIAN_POINT('',(203.722825958343150,147.724032469036730,0.0));
#249=DIRECTION('',(0.0,0.0,1.0));
#250=DIRECTION('',(1.0,0.0,0.0));
#251=AXIS2_PLACEMENT_3D('',#248,#249,#250);
#252=CYLINDRICAL_SURFACE('',#251,2.0);
#253=CARTESIAN_POINT('',(205.722825958343150,147.724032469036730,27.800000000000001));
#254=VERTEX_POINT('',#253);
#255=CARTESIAN_POINT('',(205.722825958343150,147.724032469036730,27.800000000000001));
#256=DIRECTION('',(0.0,0.0,-1.0));
#257=VECTOR('',#256,14.300000000000001);
#258=LINE('',#255,#257);
#259=EDGE_CURVE('',#254,#184,#258,.T.);
#260=ORIENTED_EDGE('',*,*,#259,.F.);
#261=CARTESIAN_POINT('',(201.722825958343150,147.724032469036730,27.800000000000001));
#262=VERTEX_POINT('',#261);
#263=CARTESIAN_POINT('',(203.722825958343150,147.724032469036730,27.800000000000001));
#264=DIRECTION('',(0.0,0.0,1.0));
#265=DIRECTION('',(-1.0,0.0,0.0));
#266=AXIS2_PLACEMENT_3D('',#263,#264,#265);
#267=CIRCLE('',#266,2.0);
#268=EDGE_CURVE('',#262,#254,#267,.T.);
#269=ORIENTED_EDGE('',*,*,#268,.F.);
#270=CARTESIAN_POINT('',(201.722825958343150,147.724032469036730,27.800000000000001));
#271=DIRECTION('',(0.0,0.0,-1.0));
#272=VECTOR('',#271,14.300000000000001);
#273=LINE('',#270,#272);
#274=EDGE_CURVE('',#262,#192,#273,.T.);
#275=ORIENTED_EDGE('',*,*,#274,.T.);
#276=ORIENTED_EDGE('',*,*,#198,.F.);
#277=EDGE_LOOP('',(#260,#269,#275,#276));
#278=FACE_OUTER_BOUND('',#277,.T.);
#279=ADVANCED_FACE('',(#278),#252,.T.);
#280=CARTESIAN_POINT('',(203.722825958343150,147.724032469036730,27.800000000000001));
#281=DIRECTION('',(0.0,0.0,-1.0));
#282=DIRECTION('',(-1.0,0.0,0.0));
#283=AXIS2_PLACEMENT_3D('',#280,#281,#282);
#284=TOROIDAL_SURFACE('',#283,1.800000000000000,0.200000000000000);
#285=CARTESIAN_POINT('',(201.922825958343140,147.724032469036730,28.0));
#286=VERTEX_POINT('',#285);
#287=CARTESIAN_POINT('',(201.922825958343140,147.724032469036730,27.800000000000001));
#288=DIRECTION('',(0.0,1.0,0.0));
#289=DIRECTION('',(-1.0,0.0,0.0));
#290=AXIS2_PLACEMENT_3D('',#287,#288,#289);
#291=CIRCLE('',#290,0.200000000000000);
#292=EDGE_CURVE('',#262,#286,#291,.T.);
#293=ORIENTED_EDGE('',*,*,#292,.F.);
#294=ORIENTED_EDGE('',*,*,#268,.T.);
#295=CARTESIAN_POINT('',(205.522825958343160,147.724032469036730,28.0));
#296=VERTEX_POINT('',#295);
#297=CARTESIAN_POINT('',(205.522825958343160,147.724032469036730,27.800000000000001));
#298=DIRECTION('',(0.0,-1.0,0.0));
#299=DIRECTION('',(1.0,0.0,0.0));
#300=AXIS2_PLACEMENT_3D('',#297,#298,#299);
#301=CIRCLE('',#300,0.200000000000000);
#302=EDGE_CURVE('',#254,#296,#301,.T.);
#303=ORIENTED_EDGE('',*,*,#302,.T.);
#304=CARTESIAN_POINT('',(203.722825958343150,147.724032469036730,28.0));
#305=DIRECTION('',(0.0,0.0,-1.0));
#306=DIRECTION('',(-1.0,0.0,0.0));
#307=AXIS2_PLACEMENT_3D('',#304,#305,#306);
#308=CIRCLE('',#307,1.800000000000000);
#309=EDGE_CURVE('',#296,#286,#308,.T.);
#310=ORIENTED_EDGE('',*,*,#309,.T.);
#311=EDGE_LOOP('',(#293,#294,#303,#310));
#312=FACE_OUTER_BOUND('',#311,.T.);
#313=ADVANCED_FACE('',(#312),#284,.T.);
#314=CARTESIAN_POINT('',(203.722825958343150,147.724032469036730,0.250000000000000));
#315=DIRECTION('',(0.0,0.0,1.0));
#316=DIRECTION('',(-1.0,0.0,0.0));
#317=AXIS2_PLACEMENT_3D('',#314,#315,#316);
#318=CONICAL_SURFACE('',#317,1.750000000000000,44.999999999999993);
#319=CARTESIAN_POINT('',(201.781404602105820,147.724032469036730,0.441421356237315));
#320=VERTEX_POINT('',#319);
#321=CARTESIAN_POINT('',(202.222825958343150,147.724032469036730,8.326673E-017));
#322=VERTEX_POINT('',#321);
#323=CARTESIAN_POINT('',(201.781404602105820,147.724032469036730,0.441421356237315));
#324=DIRECTION('',(0.707106781186558,0.0,-0.707106781186537));
#325=VECTOR('',#324,0.624264068711945);
#326=LINE('',#323,#325);
#327=EDGE_CURVE('',#320,#322,#326,.T.);
#328=ORIENTED_EDGE('',*,*,#327,.F.);
#329=CARTESIAN_POINT('',(205.664247314580480,147.724032469036730,0.441421356237315));
#330=VERTEX_POINT('',#329);
#331=CARTESIAN_POINT('',(203.722825958343150,147.724032469036730,0.441421356237315));
#332=DIRECTION('',(0.0,0.0,1.0));
#333=DIRECTION('',(-1.0,0.0,0.0));
#334=AXIS2_PLACEMENT_3D('',#331,#332,#333);
#335=CIRCLE('',#334,1.941421356237328);
#336=EDGE_CURVE('',#330,#320,#335,.T.);
#337=ORIENTED_EDGE('',*,*,#336,.F.);
#338=CARTESIAN_POINT('',(205.222825958343150,147.724032469036730,0.0));
#339=VERTEX_POINT('',#338);
#340=CARTESIAN_POINT('',(205.664247314580480,147.724032469036730,0.441421356237315));
#341=DIRECTION('',(-0.707106781186558,0.0,-0.707106781186538));
#342=VECTOR('',#341,0.624264068711945);
#343=LINE('',#340,#342);
#344=EDGE_CURVE('',#330,#339,#343,.T.);
#345=ORIENTED_EDGE('',*,*,#344,.T.);
#346=CARTESIAN_POINT('',(203.722825958343150,147.724032469036730,0.0));
#347=DIRECTION('',(0.0,0.0,1.0));
#348=DIRECTION('',(-1.0,0.0,0.0));
#349=AXIS2_PLACEMENT_3D('',#346,#347,#348);
#350=CIRCLE('',#349,1.500000000000000);
#351=EDGE_CURVE('',#339,#322,#350,.T.);
#352=ORIENTED_EDGE('',*,*,#351,.T.);
#353=EDGE_LOOP('',(#328,#337,#345,#352));
#354=FACE_OUTER_BOUND('',#353,.T.);
#355=ADVANCED_FACE('',(#354),#318,.T.);
#356=CARTESIAN_POINT('',(203.722825958343150,147.724032469036730,0.0));
#357=DIRECTION('',(0.0,0.0,1.0));
#358=DIRECTION('',(1.0,0.0,0.0));
#359=AXIS2_PLACEMENT_3D('',#356,#357,#358);
#360=CYLINDRICAL_SURFACE('',#359,2.0);
#361=CARTESIAN_POINT('',(205.722825958343150,147.724032469036730,0.582842712474619));
#362=VERTEX_POINT('',#361);
#363=CARTESIAN_POINT('',(205.722825958343150,147.724032469036730,1.500000000000000));
#364=DIRECTION('',(0.0,0.0,-1.0));
#365=VECTOR('',#364,0.917157287525381);
#366=LINE('',#363,#365);
#367=EDGE_CURVE('',#216,#362,#366,.T.);
#368=ORIENTED_EDGE('',*,*,#367,.F.);
#369=CARTESIAN_POINT('',(203.722825958343150,147.724032469036730,1.500000000000000));
#370=DIRECTION('',(0.0,0.0,1.0));
#371=DIRECTION('',(1.0,0.0,0.0));
#372=AXIS2_PLACEMENT_3D('',#369,#370,#371);
#373=CIRCLE('',#372,2.0);
#374=EDGE_CURVE('',#224,#216,#373,.T.);
#375=ORIENTED_EDGE('',*,*,#374,.F.);
#376=CARTESIAN_POINT('',(201.722825958343150,147.724032469036730,0.582842712474619));
#377=VERTEX_POINT('',#376);
#378=CARTESIAN_POINT('',(201.722825958343150,147.724032469036730,1.500000000000000));
#379=DIRECTION('',(0.0,0.0,-1.0));
#380=VECTOR('',#379,0.917157287525381);
#381=LINE('',#378,#380);
#382=EDGE_CURVE('',#224,#377,#381,.T.);
#383=ORIENTED_EDGE('',*,*,#382,.T.);
#384=CARTESIAN_POINT('',(203.722825958343150,147.724032469036730,0.582842712474619));
#385=DIRECTION('',(0.0,0.0,-1.0));
#386=DIRECTION('',(-1.0,0.0,0.0));
#387=AXIS2_PLACEMENT_3D('',#384,#385,#386);
#388=CIRCLE('',#387,2.0);
#389=EDGE_CURVE('',#362,#377,#388,.T.);
#390=ORIENTED_EDGE('',*,*,#389,.F.);
#391=EDGE_LOOP('',(#368,#375,#383,#390));
#392=FACE_OUTER_BOUND('',#391,.T.);
#393=ADVANCED_FACE('',(#392),#360,.T.);
#394=CARTESIAN_POINT('',(203.722825958343150,147.724032469036730,0.582842712474619));
#395=DIRECTION('',(0.0,0.0,-1.0));
#396=DIRECTION('',(-1.0,0.0,0.0));
#397=AXIS2_PLACEMENT_3D('',#394,#395,#396);
#398=TOROIDAL_SURFACE('',#397,1.800000000000000,0.200000000000000);
#399=CARTESIAN_POINT('',(201.922825958343140,147.724032469036730,0.582842712474619));
#400=DIRECTION('',(0.0,1.0,0.0));
#401=DIRECTION('',(-1.0,0.0,0.0));
#402=AXIS2_PLACEMENT_3D('',#399,#400,#401);
#403=CIRCLE('',#402,0.200000000000000);
#404=EDGE_CURVE('',#320,#377,#403,.T.);
#405=ORIENTED_EDGE('',*,*,#404,.F.);
#406=CARTESIAN_POINT('',(203.722825958343150,147.724032469036730,0.441421356237315));
#407=DIRECTION('',(0.0,0.0,1.0));
#408=DIRECTION('',(-1.0,0.0,0.0));
#409=AXIS2_PLACEMENT_3D('',#406,#407,#408);
#410=CIRCLE('',#409,1.941421356237328);
#411=EDGE_CURVE('',#320,#330,#410,.T.);
#412=ORIENTED_EDGE('',*,*,#411,.T.);
#413=CARTESIAN_POINT('',(205.522825958343160,147.724032469036730,0.582842712474619));
#414=DIRECTION('',(0.0,-1.0,0.0));
#415=DIRECTION('',(1.0,0.0,0.0));
#416=AXIS2_PLACEMENT_3D('',#413,#414,#415);
#417=CIRCLE('',#416,0.200000000000000);
#418=EDGE_CURVE('',#330,#362,#417,.T.);
#419=ORIENTED_EDGE('',*,*,#418,.T.);
#420=ORIENTED_EDGE('',*,*,#389,.T.);
#421=EDGE_LOOP('',(#405,#412,#419,#420));
#422=FACE_OUTER_BOUND('',#421,.T.);
#423=ADVANCED_FACE('',(#422),#398,.T.);
#424=CARTESIAN_POINT('',(203.722825958343150,147.724032469036730,0.582842712474619));
#425=DIRECTION('',(0.0,0.0,-1.0));
#426=DIRECTION('',(-1.0,0.0,0.0));
#427=AXIS2_PLACEMENT_3D('',#424,#425,#426);
#428=TOROIDAL_SURFACE('',#427,1.800000000000000,0.200000000000000);
#429=ORIENTED_EDGE('',*,*,#404,.T.);
#430=CARTESIAN_POINT('',(203.722825958343150,147.724032469036730,0.582842712474619));
#431=DIRECTION('',(0.0,0.0,-1.0));
#432=DIRECTION('',(-1.0,0.0,0.0));
#433=AXIS2_PLACEMENT_3D('',#430,#431,#432);
#434=CIRCLE('',#433,2.0);
#435=EDGE_CURVE('',#377,#362,#434,.T.);
#436=ORIENTED_EDGE('',*,*,#435,.T.);
#437=ORIENTED_EDGE('',*,*,#418,.F.);
#438=ORIENTED_EDGE('',*,*,#336,.T.);
#439=EDGE_LOOP('',(#429,#436,#437,#438));
#440=FACE_OUTER_BOUND('',#439,.T.);
#441=ADVANCED_FACE('',(#440),#428,.T.);
#442=CARTESIAN_POINT('',(203.722825958343150,147.724032469036730,0.0));
#443=DIRECTION('',(0.0,0.0,1.0));
#444=DIRECTION('',(1.0,0.0,0.0));
#445=AXIS2_PLACEMENT_3D('',#442,#443,#444);
#446=CYLINDRICAL_SURFACE('',#445,2.0);
#447=ORIENTED_EDGE('',*,*,#367,.T.);
#448=ORIENTED_EDGE('',*,*,#435,.F.);
#449=ORIENTED_EDGE('',*,*,#382,.F.);
#450=ORIENTED_EDGE('',*,*,#230,.F.);
#451=EDGE_LOOP('',(#447,#448,#449,#450));
#452=FACE_OUTER_BOUND('',#451,.T.);
#453=ADVANCED_FACE('',(#452),#446,.T.);
#454=CARTESIAN_POINT('',(203.722825958343150,147.724032469036730,0.250000000000000));
#455=DIRECTION('',(0.0,0.0,1.0));
#456=DIRECTION('',(-1.0,0.0,0.0));
#457=AXIS2_PLACEMENT_3D('',#454,#455,#456);
#458=CONICAL_SURFACE('',#457,1.750000000000000,44.999999999999993);
#459=ORIENTED_EDGE('',*,*,#327,.T.);
#460=CARTESIAN_POINT('',(203.722825958343150,147.724032469036730,0.0));
#461=DIRECTION('',(0.0,0.0,1.0));
#462=DIRECTION('',(-1.0,0.0,0.0));
#463=AXIS2_PLACEMENT_3D('',#460,#461,#462);
#464=CIRCLE('',#463,1.500000000000000);
#465=EDGE_CURVE('',#322,#339,#464,.T.);
#466=ORIENTED_EDGE('',*,*,#465,.T.);
#467=ORIENTED_EDGE('',*,*,#344,.F.);
#468=ORIENTED_EDGE('',*,*,#411,.F.);
#469=EDGE_LOOP('',(#459,#466,#467,#468));
#470=FACE_OUTER_BOUND('',#469,.T.);
#471=ADVANCED_FACE('',(#470),#458,.T.);
#472=CARTESIAN_POINT('',(203.722825958343150,147.724032469036730,27.800000000000001));
#473=DIRECTION('',(0.0,0.0,-1.0));
#474=DIRECTION('',(-1.0,0.0,0.0));
#475=AXIS2_PLACEMENT_3D('',#472,#473,#474);
#476=TOROIDAL_SURFACE('',#475,1.800000000000000,0.200000000000000);
#477=ORIENTED_EDGE('',*,*,#292,.T.);
#478=CARTESIAN_POINT('',(203.722825958343150,147.724032469036730,28.0));
#479=DIRECTION('',(0.0,0.0,-1.0));
#480=DIRECTION('',(-1.0,0.0,0.0));
#481=AXIS2_PLACEMENT_3D('',#478,#479,#480);
#482=CIRCLE('',#481,1.800000000000000);
#483=EDGE_CURVE('',#286,#296,#482,.T.);
#484=ORIENTED_EDGE('',*,*,#483,.T.);
#485=ORIENTED_EDGE('',*,*,#302,.F.);
#486=CARTESIAN_POINT('',(203.722825958343150,147.724032469036730,27.800000000000001));
#487=DIRECTION('',(0.0,0.0,1.0));
#488=DIRECTION('',(-1.0,0.0,0.0));
#489=AXIS2_PLACEMENT_3D('',#486,#487,#488);
#490=CIRCLE('',#489,2.0);
#491=EDGE_CURVE('',#254,#262,#490,.T.);
#492=ORIENTED_EDGE('',*,*,#491,.T.);
#493=EDGE_LOOP('',(#477,#484,#485,#492));
#494=FACE_OUTER_BOUND('',#493,.T.);
#495=ADVANCED_FACE('',(#494),#476,.T.);
#496=CARTESIAN_POINT('',(203.722825958343150,147.724032469036730,0.0));
#497=DIRECTION('',(0.0,0.0,1.0));
#498=DIRECTION('',(1.0,0.0,0.0));
#499=AXIS2_PLACEMENT_3D('',#496,#497,#498);
#500=CYLINDRICAL_SURFACE('',#499,2.0);
#501=ORIENTED_EDGE('',*,*,#259,.T.);
#502=CARTESIAN_POINT('',(203.722825958343150,147.724032469036730,13.500000000000000));
#503=DIRECTION('',(0.0,0.0,-1.0));
#504=DIRECTION('',(1.0,0.0,0.0));
#505=AXIS2_PLACEMENT_3D('',#502,#503,#504);
#506=CIRCLE('',#505,2.0);
#507=EDGE_CURVE('',#192,#184,#506,.T.);
#508=ORIENTED_EDGE('',*,*,#507,.F.);
#509=ORIENTED_EDGE('',*,*,#274,.F.);
#510=ORIENTED_EDGE('',*,*,#491,.F.);
#511=EDGE_LOOP('',(#501,#508,#509,#510));
#512=FACE_OUTER_BOUND('',#511,.T.);
#513=ADVANCED_FACE('',(#512),#500,.T.);
#514=CARTESIAN_POINT('',(205.722825958343150,147.724032469036730,28.0));
#515=DIRECTION('',(0.0,0.0,1.0));
#516=DIRECTION('',(1.0,0.0,0.0));
#517=AXIS2_PLACEMENT_3D('',#514,#515,#516);
#518=PLANE('',#517);
#519=ORIENTED_EDGE('',*,*,#309,.F.);
#520=ORIENTED_EDGE('',*,*,#483,.F.);
#521=EDGE_LOOP('',(#519,#520));
#522=FACE_OUTER_BOUND('',#521,.T.);
#523=ADVANCED_FACE('',(#522),#518,.T.);
#524=CARTESIAN_POINT('',(203.722825958343150,147.724032469036730,1.750000000000000));
#525=DIRECTION('',(0.0,0.0,-1.0));
#526=DIRECTION('',(1.0,0.0,0.0));
#527=AXIS2_PLACEMENT_3D('',#524,#525,#526);
#528=CONICAL_SURFACE('',#527,1.750000000000000,44.999999999999993);
#529=ORIENTED_EDGE('',*,*,#221,.T.);
#530=ORIENTED_EDGE('',*,*,#158,.F.);
#531=ORIENTED_EDGE('',*,*,#236,.F.);
#532=ORIENTED_EDGE('',*,*,#374,.T.);
#533=EDGE_LOOP('',(#529,#530,#531,#532));
#534=FACE_OUTER_BOUND('',#533,.T.);
#535=ADVANCED_FACE('',(#534),#528,.T.);
#536=CARTESIAN_POINT('',(203.722825958343150,147.724032469036730,13.250000000000000));
#537=DIRECTION('',(0.0,0.0,1.0));
#538=DIRECTION('',(1.0,0.0,0.0));
#539=AXIS2_PLACEMENT_3D('',#536,#537,#538);
#540=CONICAL_SURFACE('',#539,1.750000000000000,44.999999999999993);
#541=ORIENTED_EDGE('',*,*,#189,.T.);
#542=CARTESIAN_POINT('',(203.722825958343150,147.724032469036730,13.0));
#543=DIRECTION('',(0.0,0.0,1.0));
#544=DIRECTION('',(-1.0,0.0,0.0));
#545=AXIS2_PLACEMENT_3D('',#542,#543,#544);
#546=CIRCLE('',#545,1.500000000000000);
#547=EDGE_CURVE('',#161,#144,#546,.T.);
#548=ORIENTED_EDGE('',*,*,#547,.T.);
#549=ORIENTED_EDGE('',*,*,#204,.F.);
#550=ORIENTED_EDGE('',*,*,#507,.T.);
#551=EDGE_LOOP('',(#541,#548,#549,#550));
#552=FACE_OUTER_BOUND('',#551,.T.);
#553=ADVANCED_FACE('',(#552),#540,.T.);
#554=CARTESIAN_POINT('',(203.722825958343150,147.724032469036700,0.0));
#555=DIRECTION('',(0.0,0.0,1.0));
#556=DIRECTION('',(1.0,0.0,0.0));
#557=AXIS2_PLACEMENT_3D('',#554,#555,#556);
#558=PLANE('',#557);
#559=ORIENTED_EDGE('',*,*,#351,.F.);
#560=ORIENTED_EDGE('',*,*,#465,.F.);
#561=EDGE_LOOP('',(#559,#560));
#562=FACE_OUTER_BOUND('',#561,.T.);
#563=ADVANCED_FACE('',(#562),#558,.F.);
#564=CARTESIAN_POINT('',(203.722825958343150,147.724032469036730,7.500000000000000));
#565=DIRECTION('',(0.0,0.0,1.0));
#566=DIRECTION('',(-1.0,0.0,0.0));
#567=AXIS2_PLACEMENT_3D('',#564,#565,#566);
#568=CYLINDRICAL_SURFACE('',#567,1.500000000000000);
#569=ORIENTED_EDGE('',*,*,#149,.T.);
#570=ORIENTED_EDGE('',*,*,#547,.F.);
#571=ORIENTED_EDGE('',*,*,#166,.F.);
#572=ORIENTED_EDGE('',*,*,#243,.T.);
#573=EDGE_LOOP('',(#569,#570,#571,#572));
#574=FACE_OUTER_BOUND('',#573,.T.);
#575=ADVANCED_FACE('',(#574),#568,.T.);
#576=CLOSED_SHELL('',(#177,#209,#247,#279,#313,#355,#393,#423,#441,#453,#471,#495,#513,#523,#535,#553,#563,#575));
#577=MANIFOLD_SOLID_BREP('1EE',#576);
#578=ADVANCED_BREP_SHAPE_REPRESENTATION('ABSR1',(#577),#129);
#579=SHAPE_REPRESENTATION_RELATIONSHIP('SRRPL1',' ',#578,#133);
#580=CARTESIAN_POINT('NONE',(0.0,147.724032469036730,-147.724032469036730));
#581=DIRECTION('NONE',(0.0,-1.0,6.123032E-017));
#582=DIRECTION('NONE',(1.0,0.0,0.0));
#583=AXIS2_PLACEMENT_3D('NONE',#580,#581,#582);
#584=ITEM_DEFINED_TRANSFORMATION('IDT1',' ',#121,#583);
#588=(REPRESENTATION_RELATIONSHIP(' ',' ',#133,#122)REPRESENTATION_RELATIONSHIP_WITH_TRANSFORMATION(#584)SHAPE_REPRESENTATION_RELATIONSHIP());
#589=NEXT_ASSEMBLY_USAGE_OCCURRENCE('NAUO1','PART1_1','PART1_1',#93,#132,$);
#590=PRODUCT_DEFINITION_SHAPE('PDS_NAUO1',' ',#589);
#591=CONTEXT_DEPENDENT_SHAPE_REPRESENTATION(#588,#590);
ENDSEC;
END-ISO-10303-21;
