ISO-10303-21;
HEADER;
/****************************************************************
 * Generated by software with PDE/Lib inside                    *
 * PDElib Version v51a, created Thu 12/14/2006                  *
 * International Technegroup Inc. (www.iti-oh.com)              *
 ****************************************************************/
FILE_DESCRIPTION((''),'2;1');
FILE_NAME('PP06-mdt.stp','2017-07-31T14:41:38',(''),(''),'Mechanical Desktop 2009','Mechanical Desktop 2009',', , ');
FILE_SCHEMA(('CONFIG_CONTROL_DESIGN'));
ENDSEC;
DATA;
#8=(NAMED_UNIT(*)PLANE_ANGLE_UNIT()SI_UNIT($,.RADIAN.));
#9=DIMENSIONAL_EXPONENTS(0.0,0.0,0.0,0.0,0.0,0.0,0.0);
#10=PLANE_ANGLE_MEASURE_WITH_UNIT(PLANE_ANGLE_MEASURE(0.017453292500000),#8);
#14=(CONVERSION_BASED_UNIT('DEGREE',#10)NAMED_UNIT(#9)PLANE_ANGLE_UNIT());
#18=(NAMED_UNIT(*)SI_UNIT($,.STERADIAN.)SOLID_ANGLE_UNIT());
#22=(LENGTH_UNIT()NAMED_UNIT(*)SI_UNIT(.MILLI.,.METRE.));
#23=UNCERTAINTY_MEASURE_WITH_UNIT(LENGTH_MEASURE(0.000001000000000),#22,'DISTANCE_ACCURACY_VALUE','');
#28=(GEOMETRIC_REPRESENTATION_CONTEXT(3)GLOBAL_UNCERTAINTY_ASSIGNED_CONTEXT((#23))GLOBAL_UNIT_ASSIGNED_CONTEXT((#14,#18,#22))REPRESENTATION_CONTEXT('None','None'));
#29=APPLICATION_CONTEXT('CONFIGURATION CONTROLLED 3D DESIGNS OF MECHANICAL PARTS AND ASSEMBLIES');
#30=APPLICATION_PROTOCOL_DEFINITION('INTERNATIONAL STANDARD','config_control_design',1995,#29);
#31=MECHANICAL_CONTEXT('3D Mechanical Parts',#29,'mechanical');
#32=PRODUCT('PP06-MDT','PP06-MDT',' ',(#31));
#33=PRODUCT_RELATED_PRODUCT_CATEGORY('detail',$,(#32,#130));
#34=PRODUCT_CATEGORY('part',$);
#35=PRODUCT_CATEGORY_RELATIONSHIP('None','None',#34,#33);
#36=PERSON('1','Design','Joe',$,$,$);
#37=ORGANIZATION($,'None','None');
#38=PERSON_AND_ORGANIZATION(#36,#37);
#39=PERSON_AND_ORGANIZATION_ROLE('design_owner');
#40=CC_DESIGN_PERSON_AND_ORGANIZATION_ASSIGNMENT(#38,#39,(#32,#130));
#41=PRODUCT_DEFINITION_FORMATION_WITH_SPECIFIED_SOURCE('None','None',#32,.NOT_KNOWN.);
#42=PERSON('2','Creator','Joe',$,$,$);
#43=ORGANIZATION($,'None','None');
#44=PERSON_AND_ORGANIZATION(#42,#43);
#45=PERSON_AND_ORGANIZATION_ROLE('creator');
#46=CC_DESIGN_PERSON_AND_ORGANIZATION_ASSIGNMENT(#44,#45,(#41,#131));
#47=PERSON('3','Supplier','Joe',$,$,$);
#48=ORGANIZATION($,'None','None');
#49=PERSON_AND_ORGANIZATION(#47,#48);
#50=PERSON_AND_ORGANIZATION_ROLE('design_supplier');
#51=CC_DESIGN_PERSON_AND_ORGANIZATION_ASSIGNMENT(#49,#50,(#41,#131));
#52=APPROVAL_STATUS('approved');
#53=APPROVAL(#52,'None');
#54=PERSON('4','Approver','Joe',$,$,$);
#55=ORGANIZATION($,'None','None');
#56=PERSON_AND_ORGANIZATION(#54,#55);
#57=APPROVAL_ROLE('approver');
#58=APPROVAL_PERSON_ORGANIZATION(#56,#53,#57);
#59=COORDINATED_UNIVERSAL_TIME_OFFSET(8,$,.BEHIND.);
#60=CALENDAR_DATE(1996,29,5);
#61=LOCAL_TIME(12,0,0.0,#59);
#62=DATE_AND_TIME(#60,#61);
#63=APPROVAL_DATE_TIME(#62,#53);
#64=CC_DESIGN_APPROVAL(#53,(#41,#131));
#65=SECURITY_CLASSIFICATION_LEVEL('unclassified');
#66=SECURITY_CLASSIFICATION('security','None',#65);
#67=CC_DESIGN_SECURITY_CLASSIFICATION(#66,(#41,#131,#537));
#68=APPROVAL_STATUS('approved');
#69=APPROVAL(#68,'None');
#70=PERSON('5','Approver','Joe',$,$,$);
#71=ORGANIZATION($,'None','None');
#72=PERSON_AND_ORGANIZATION(#70,#71);
#73=APPROVAL_ROLE('approver');
#74=APPROVAL_PERSON_ORGANIZATION(#72,#69,#73);
#75=COORDINATED_UNIVERSAL_TIME_OFFSET(8,$,.BEHIND.);
#76=CALENDAR_DATE(1996,29,5);
#77=LOCAL_TIME(12,0,0.0,#75);
#78=DATE_AND_TIME(#76,#77);
#79=APPROVAL_DATE_TIME(#78,#69);
#80=CC_DESIGN_APPROVAL(#69,(#66));
#81=PERSON('6','Classifier','Joe',$,$,$);
#82=ORGANIZATION($,'None','None');
#83=PERSON_AND_ORGANIZATION(#81,#82);
#84=PERSON_AND_ORGANIZATION_ROLE('classification_officer');
#85=CC_DESIGN_PERSON_AND_ORGANIZATION_ASSIGNMENT(#83,#84,(#66));
#86=COORDINATED_UNIVERSAL_TIME_OFFSET(8,$,.BEHIND.);
#87=CALENDAR_DATE(1996,29,5);
#88=LOCAL_TIME(12,0,0.0,#86);
#89=DATE_AND_TIME(#87,#88);
#90=DATE_TIME_ROLE('classification_date');
#91=CC_DESIGN_DATE_AND_TIME_ASSIGNMENT(#89,#90,(#66));
#92=DESIGN_CONTEXT('Design Context',#29,'design');
#93=PRODUCT_DEFINITION('None','None',#41,#92);
#94=PERSON('7','Creator','Joe',$,$,$);
#95=ORGANIZATION($,'None','None');
#96=PERSON_AND_ORGANIZATION(#94,#95);
#97=PERSON_AND_ORGANIZATION_ROLE('creator');
#98=CC_DESIGN_PERSON_AND_ORGANIZATION_ASSIGNMENT(#96,#97,(#93,#132));
#99=COORDINATED_UNIVERSAL_TIME_OFFSET(8,$,.BEHIND.);
#100=CALENDAR_DATE(1996,29,5);
#101=LOCAL_TIME(12,0,0.0,#99);
#102=DATE_AND_TIME(#100,#101);
#103=DATE_TIME_ROLE('creation_date');
#104=CC_DESIGN_DATE_AND_TIME_ASSIGNMENT(#102,#103,(#93,#132));
#105=APPROVAL_STATUS('approved');
#106=APPROVAL(#105,'None');
#107=PERSON('8','Approver','Joe',$,$,$);
#108=ORGANIZATION($,'None','None');
#109=PERSON_AND_ORGANIZATION(#107,#108);
#110=APPROVAL_ROLE('approver');
#111=APPROVAL_PERSON_ORGANIZATION(#109,#106,#110);
#112=COORDINATED_UNIVERSAL_TIME_OFFSET(8,$,.BEHIND.);
#113=CALENDAR_DATE(1996,29,5);
#114=LOCAL_TIME(12,0,0.0,#112);
#115=DATE_AND_TIME(#113,#114);
#116=APPROVAL_DATE_TIME(#115,#106);
#117=CC_DESIGN_APPROVAL(#106,(#93,#132));
#118=CARTESIAN_POINT('NONE',(0.0,0.0,0.0));
#119=DIRECTION('NONE',(0.0,0.0,1.0));
#120=DIRECTION('NONE',(1.0,0.0,0.0));
#121=AXIS2_PLACEMENT_3D('NONE',#118,#119,#120);
#122=SHAPE_REPRESENTATION('SR1',(#121,#531),#28);
#123=PRODUCT_DEFINITION_SHAPE('PDS1','Test Part',#93);
#124=SHAPE_DEFINITION_REPRESENTATION(#123,#122);
#129=(GEOMETRIC_REPRESENTATION_CONTEXT(3)GLOBAL_UNCERTAINTY_ASSIGNED_CONTEXT((#23))GLOBAL_UNIT_ASSIGNED_CONTEXT((#14,#18,#22))REPRESENTATION_CONTEXT('Component','Component'));
#130=PRODUCT('PART1','PART1',' ',(#31));
#131=PRODUCT_DEFINITION_FORMATION_WITH_SPECIFIED_SOURCE('None','None',#130,.NOT_KNOWN.);
#132=PRODUCT_DEFINITION('None','None',#131,#92);
#133=SHAPE_REPRESENTATION('SR2',(#121),#129);
#134=PRODUCT_DEFINITION_SHAPE('PDS2','Test Part',#132);
#135=SHAPE_DEFINITION_REPRESENTATION(#134,#133);
#136=CARTESIAN_POINT('',(203.722825958343150,147.724032469036730,7.0));
#137=DIRECTION('',(0.0,0.0,1.0));
#138=DIRECTION('',(-1.0,0.0,0.0));
#139=AXIS2_PLACEMENT_3D('',#136,#137,#138);
#140=CYLINDRICAL_SURFACE('',#139,2.0);
#141=CARTESIAN_POINT('',(201.722825958343150,147.724032469036730,2.000000000000000));
#142=VERTEX_POINT('',#141);
#143=CARTESIAN_POINT('',(201.722825958343150,147.724032469036730,12.0));
#144=VERTEX_POINT('',#143);
#145=CARTESIAN_POINT('',(201.722825958343150,147.724032469036730,2.000000000000000));
#146=DIRECTION('',(0.0,0.0,1.0));
#147=VECTOR('',#146,10.0);
#148=LINE('',#145,#147);
#149=EDGE_CURVE('',#142,#144,#148,.T.);
#150=ORIENTED_EDGE('',*,*,#149,.F.);
#151=CARTESIAN_POINT('',(205.722825958343150,147.724032469036730,2.0));
#152=VERTEX_POINT('',#151);
#153=CARTESIAN_POINT('',(203.722825958343150,147.724032469036730,2.0));
#154=DIRECTION('',(0.0,0.0,1.0));
#155=DIRECTION('',(-1.0,0.0,0.0));
#156=AXIS2_PLACEMENT_3D('',#153,#154,#155);
#157=CIRCLE('',#156,2.0);
#158=EDGE_CURVE('',#142,#152,#157,.T.);
#159=ORIENTED_EDGE('',*,*,#158,.T.);
#160=CARTESIAN_POINT('',(205.722825958343150,147.724032469036730,12.0));
#161=VERTEX_POINT('',#160);
#162=CARTESIAN_POINT('',(205.722825958343150,147.724032469036730,2.0));
#163=DIRECTION('',(0.0,0.0,1.0));
#164=VECTOR('',#163,10.0);
#165=LINE('',#162,#164);
#166=EDGE_CURVE('',#152,#161,#165,.T.);
#167=ORIENTED_EDGE('',*,*,#166,.T.);
#168=CARTESIAN_POINT('',(203.722825958343150,147.724032469036730,12.0));
#169=DIRECTION('',(0.0,0.0,1.0));
#170=DIRECTION('',(-1.0,0.0,0.0));
#171=AXIS2_PLACEMENT_3D('',#168,#169,#170);
#172=CIRCLE('',#171,2.0);
#173=EDGE_CURVE('',#144,#161,#172,.T.);
#174=ORIENTED_EDGE('',*,*,#173,.F.);
#175=EDGE_LOOP('',(#150,#159,#167,#174));
#176=FACE_OUTER_BOUND('',#175,.T.);
#177=ADVANCED_FACE('',(#176),#140,.T.);
#178=CARTESIAN_POINT('',(203.722825958343150,147.724032469036730,0.250000000000000));
#179=DIRECTION('',(0.0,0.0,1.0));
#180=DIRECTION('',(-1.0,0.0,0.0));
#181=AXIS2_PLACEMENT_3D('',#178,#179,#180);
#182=CONICAL_SURFACE('',#181,2.750000000000000,44.999999999999993);
#183=CARTESIAN_POINT('',(200.722825958343150,147.724032469036730,0.500000000000000));
#184=VERTEX_POINT('',#183);
#185=CARTESIAN_POINT('',(201.222825958343150,147.724032469036730,5.551115E-017));
#186=VERTEX_POINT('',#185);
#187=CARTESIAN_POINT('',(200.722825958343150,147.724032469036730,0.500000000000000));
#188=DIRECTION('',(0.707106781186548,0.0,-0.707106781186547));
#189=VECTOR('',#188,0.707106781186547);
#190=LINE('',#187,#189);
#191=EDGE_CURVE('',#184,#186,#190,.T.);
#192=ORIENTED_EDGE('',*,*,#191,.F.);
#193=CARTESIAN_POINT('',(206.722825958343150,147.724032469036700,0.500000000000000));
#194=VERTEX_POINT('',#193);
#195=CARTESIAN_POINT('',(203.722825958343150,147.724032469036730,0.500000000000000));
#196=DIRECTION('',(0.0,0.0,-1.0));
#197=DIRECTION('',(-1.0,0.0,0.0));
#198=AXIS2_PLACEMENT_3D('',#195,#196,#197);
#199=CIRCLE('',#198,3.0);
#200=EDGE_CURVE('',#184,#194,#199,.T.);
#201=ORIENTED_EDGE('',*,*,#200,.T.);
#202=CARTESIAN_POINT('',(206.222825958343150,147.724032469036700,0.0));
#203=VERTEX_POINT('',#202);
#204=CARTESIAN_POINT('',(206.722825958343150,147.724032469036700,0.500000000000000));
#205=DIRECTION('',(-0.707106781186547,0.0,-0.707106781186547));
#206=VECTOR('',#205,0.707106781186548);
#207=LINE('',#204,#206);
#208=EDGE_CURVE('',#194,#203,#207,.T.);
#209=ORIENTED_EDGE('',*,*,#208,.T.);
#210=CARTESIAN_POINT('',(203.722825958343150,147.724032469036730,0.0));
#211=DIRECTION('',(0.0,0.0,1.0));
#212=DIRECTION('',(-1.0,0.0,0.0));
#213=AXIS2_PLACEMENT_3D('',#210,#211,#212);
#214=CIRCLE('',#213,2.500000000000000);
#215=EDGE_CURVE('',#203,#186,#214,.T.);
#216=ORIENTED_EDGE('',*,*,#215,.T.);
#217=EDGE_LOOP('',(#192,#201,#209,#216));
#218=FACE_OUTER_BOUND('',#217,.T.);
#219=ADVANCED_FACE('',(#218),#182,.T.);
#220=CARTESIAN_POINT('',(203.722825958343150,147.724032469036730,12.500000000000000));
#221=DIRECTION('',(0.0,0.0,1.0));
#222=DIRECTION('',(1.0,0.0,0.0));
#223=AXIS2_PLACEMENT_3D('',#220,#221,#222);
#224=CONICAL_SURFACE('',#223,2.500000000000000,44.999999999999993);
#225=CARTESIAN_POINT('',(206.722825958343150,147.724032469036730,13.0));
#226=VERTEX_POINT('',#225);
#227=CARTESIAN_POINT('',(206.722825958343150,147.724032469036730,13.0));
#228=DIRECTION('',(-0.707106781186547,0.0,-0.707106781186547));
#229=VECTOR('',#228,1.414213562373095);
#230=LINE('',#227,#229);
#231=EDGE_CURVE('',#226,#161,#230,.T.);
#232=ORIENTED_EDGE('',*,*,#231,.F.);
#233=CARTESIAN_POINT('',(200.722825958343150,147.724032469036730,13.0));
#234=VERTEX_POINT('',#233);
#235=CARTESIAN_POINT('',(203.722825958343150,147.724032469036730,13.0));
#236=DIRECTION('',(0.0,0.0,-1.0));
#237=DIRECTION('',(1.0,0.0,0.0));
#238=AXIS2_PLACEMENT_3D('',#235,#236,#237);
#239=CIRCLE('',#238,3.0);
#240=EDGE_CURVE('',#226,#234,#239,.T.);
#241=ORIENTED_EDGE('',*,*,#240,.T.);
#242=CARTESIAN_POINT('',(200.722825958343150,147.724032469036730,13.0));
#243=DIRECTION('',(0.707106781186547,0.0,-0.707106781186547));
#244=VECTOR('',#243,1.414213562373095);
#245=LINE('',#242,#244);
#246=EDGE_CURVE('',#234,#144,#245,.T.);
#247=ORIENTED_EDGE('',*,*,#246,.T.);
#248=ORIENTED_EDGE('',*,*,#173,.T.);
#249=EDGE_LOOP('',(#232,#241,#247,#248));
#250=FACE_OUTER_BOUND('',#249,.T.);
#251=ADVANCED_FACE('',(#250),#224,.T.);
#252=CARTESIAN_POINT('',(203.722825958343150,147.724032469036730,0.0));
#253=DIRECTION('',(0.0,0.0,1.0));
#254=DIRECTION('',(1.0,0.0,0.0));
#255=AXIS2_PLACEMENT_3D('',#252,#253,#254);
#256=CYLINDRICAL_SURFACE('',#255,3.0);
#257=CARTESIAN_POINT('',(206.722825958343150,147.724032469036730,1.0));
#258=VERTEX_POINT('',#257);
#259=CARTESIAN_POINT('',(206.722825958343150,147.724032469036730,1.0));
#260=DIRECTION('',(0.0,0.0,-1.0));
#261=VECTOR('',#260,0.500000000000000);
#262=LINE('',#259,#261);
#263=EDGE_CURVE('',#258,#194,#262,.T.);
#264=ORIENTED_EDGE('',*,*,#263,.F.);
#265=CARTESIAN_POINT('',(200.722825958343150,147.724032469036730,1.0));
#266=VERTEX_POINT('',#265);
#267=CARTESIAN_POINT('',(203.722825958343150,147.724032469036730,1.0));
#268=DIRECTION('',(0.0,0.0,1.0));
#269=DIRECTION('',(1.0,0.0,0.0));
#270=AXIS2_PLACEMENT_3D('',#267,#268,#269);
#271=CIRCLE('',#270,3.0);
#272=EDGE_CURVE('',#266,#258,#271,.T.);
#273=ORIENTED_EDGE('',*,*,#272,.F.);
#274=CARTESIAN_POINT('',(200.722825958343150,147.724032469036730,1.0));
#275=DIRECTION('',(0.0,0.0,-1.0));
#276=VECTOR('',#275,0.500000000000000);
#277=LINE('',#274,#276);
#278=EDGE_CURVE('',#266,#184,#277,.T.);
#279=ORIENTED_EDGE('',*,*,#278,.T.);
#280=CARTESIAN_POINT('',(203.722825958343150,147.724032469036730,0.500000000000000));
#281=DIRECTION('',(0.0,0.0,-1.0));
#282=DIRECTION('',(-1.0,0.0,0.0));
#283=AXIS2_PLACEMENT_3D('',#280,#281,#282);
#284=CIRCLE('',#283,3.0);
#285=EDGE_CURVE('',#194,#184,#284,.T.);
#286=ORIENTED_EDGE('',*,*,#285,.F.);
#287=EDGE_LOOP('',(#264,#273,#279,#286));
#288=FACE_OUTER_BOUND('',#287,.T.);
#289=ADVANCED_FACE('',(#288),#256,.T.);
#290=CARTESIAN_POINT('',(203.722825958343150,147.724032469036730,1.500000000000000));
#291=DIRECTION('',(0.0,0.0,-1.0));
#292=DIRECTION('',(1.0,0.0,0.0));
#293=AXIS2_PLACEMENT_3D('',#290,#291,#292);
#294=CONICAL_SURFACE('',#293,2.500000000000000,44.999999999999993);
#295=CARTESIAN_POINT('',(206.722825958343150,147.724032469036730,1.0));
#296=DIRECTION('',(-0.707106781186547,0.0,0.707106781186547));
#297=VECTOR('',#296,1.414213562373095);
#298=LINE('',#295,#297);
#299=EDGE_CURVE('',#258,#152,#298,.T.);
#300=ORIENTED_EDGE('',*,*,#299,.F.);
#301=CARTESIAN_POINT('',(203.722825958343150,147.724032469036730,1.0));
#302=DIRECTION('',(0.0,0.0,1.0));
#303=DIRECTION('',(1.0,0.0,0.0));
#304=AXIS2_PLACEMENT_3D('',#301,#302,#303);
#305=CIRCLE('',#304,3.0);
#306=EDGE_CURVE('',#258,#266,#305,.T.);
#307=ORIENTED_EDGE('',*,*,#306,.T.);
#308=CARTESIAN_POINT('',(200.722825958343150,147.724032469036730,1.0));
#309=DIRECTION('',(0.707106781186547,0.0,0.707106781186548));
#310=VECTOR('',#309,1.414213562373095);
#311=LINE('',#308,#310);
#312=EDGE_CURVE('',#266,#142,#311,.T.);
#313=ORIENTED_EDGE('',*,*,#312,.T.);
#314=CARTESIAN_POINT('',(203.722825958343150,147.724032469036730,2.0));
#315=DIRECTION('',(0.0,0.0,1.0));
#316=DIRECTION('',(-1.0,0.0,0.0));
#317=AXIS2_PLACEMENT_3D('',#314,#315,#316);
#318=CIRCLE('',#317,2.0);
#319=EDGE_CURVE('',#152,#142,#318,.T.);
#320=ORIENTED_EDGE('',*,*,#319,.F.);
#321=EDGE_LOOP('',(#300,#307,#313,#320));
#322=FACE_OUTER_BOUND('',#321,.T.);
#323=ADVANCED_FACE('',(#322),#294,.T.);
#324=CARTESIAN_POINT('',(203.722825958343150,147.724032469036730,0.0));
#325=DIRECTION('',(0.0,0.0,1.0));
#326=DIRECTION('',(1.0,0.0,0.0));
#327=AXIS2_PLACEMENT_3D('',#324,#325,#326);
#328=CYLINDRICAL_SURFACE('',#327,3.0);
#329=CARTESIAN_POINT('',(206.722825958343150,147.724032469036730,27.800000000000001));
#330=VERTEX_POINT('',#329);
#331=CARTESIAN_POINT('',(206.722825958343150,147.724032469036730,27.800000000000001));
#332=DIRECTION('',(0.0,0.0,-1.0));
#333=VECTOR('',#332,14.800000000000001);
#334=LINE('',#331,#333);
#335=EDGE_CURVE('',#330,#226,#334,.T.);
#336=ORIENTED_EDGE('',*,*,#335,.F.);
#337=CARTESIAN_POINT('',(200.722825958343150,147.724032469036730,27.800000000000001));
#338=VERTEX_POINT('',#337);
#339=CARTESIAN_POINT('',(203.722825958343150,147.724032469036730,27.800000000000001));
#340=DIRECTION('',(0.0,0.0,1.0));
#341=DIRECTION('',(-1.0,0.0,0.0));
#342=AXIS2_PLACEMENT_3D('',#339,#340,#341);
#343=CIRCLE('',#342,3.0);
#344=EDGE_CURVE('',#338,#330,#343,.T.);
#345=ORIENTED_EDGE('',*,*,#344,.F.);
#346=CARTESIAN_POINT('',(200.722825958343150,147.724032469036730,27.800000000000001));
#347=DIRECTION('',(0.0,0.0,-1.0));
#348=VECTOR('',#347,14.800000000000001);
#349=LINE('',#346,#348);
#350=EDGE_CURVE('',#338,#234,#349,.T.);
#351=ORIENTED_EDGE('',*,*,#350,.T.);
#352=ORIENTED_EDGE('',*,*,#240,.F.);
#353=EDGE_LOOP('',(#336,#345,#351,#352));
#354=FACE_OUTER_BOUND('',#353,.T.);
#355=ADVANCED_FACE('',(#354),#328,.T.);
#356=CARTESIAN_POINT('',(203.722825958343150,147.724032469036730,27.800000000000001));
#357=DIRECTION('',(0.0,0.0,-1.0));
#358=DIRECTION('',(-1.0,0.0,0.0));
#359=AXIS2_PLACEMENT_3D('',#356,#357,#358);
#360=TOROIDAL_SURFACE('',#359,2.800000000000000,0.200000000000000);
#361=CARTESIAN_POINT('',(200.922825958343140,147.724032469036730,28.0));
#362=VERTEX_POINT('',#361);
#363=CARTESIAN_POINT('',(200.922825958343140,147.724032469036730,27.800000000000001));
#364=DIRECTION('',(0.0,1.0,0.0));
#365=DIRECTION('',(-1.0,0.0,0.0));
#366=AXIS2_PLACEMENT_3D('',#363,#364,#365);
#367=CIRCLE('',#366,0.200000000000000);
#368=EDGE_CURVE('',#338,#362,#367,.T.);
#369=ORIENTED_EDGE('',*,*,#368,.F.);
#370=ORIENTED_EDGE('',*,*,#344,.T.);
#371=CARTESIAN_POINT('',(206.522825958343160,147.724032469036730,28.0));
#372=VERTEX_POINT('',#371);
#373=CARTESIAN_POINT('',(206.522825958343160,147.724032469036730,27.800000000000001));
#374=DIRECTION('',(0.0,-1.0,0.0));
#375=DIRECTION('',(1.0,0.0,0.0));
#376=AXIS2_PLACEMENT_3D('',#373,#374,#375);
#377=CIRCLE('',#376,0.200000000000000);
#378=EDGE_CURVE('',#330,#372,#377,.T.);
#379=ORIENTED_EDGE('',*,*,#378,.T.);
#380=CARTESIAN_POINT('',(203.722825958343150,147.724032469036730,28.0));
#381=DIRECTION('',(0.0,0.0,-1.0));
#382=DIRECTION('',(-1.0,0.0,0.0));
#383=AXIS2_PLACEMENT_3D('',#380,#381,#382);
#384=CIRCLE('',#383,2.800000000000000);
#385=EDGE_CURVE('',#372,#362,#384,.T.);
#386=ORIENTED_EDGE('',*,*,#385,.T.);
#387=EDGE_LOOP('',(#369,#370,#379,#386));
#388=FACE_OUTER_BOUND('',#387,.T.);
#389=ADVANCED_FACE('',(#388),#360,.T.);
#390=CARTESIAN_POINT('',(203.722825958343150,147.724032469036730,27.800000000000001));
#391=DIRECTION('',(0.0,0.0,-1.0));
#392=DIRECTION('',(-1.0,0.0,0.0));
#393=AXIS2_PLACEMENT_3D('',#390,#391,#392);
#394=TOROIDAL_SURFACE('',#393,2.800000000000000,0.200000000000000);
#395=ORIENTED_EDGE('',*,*,#368,.T.);
#396=CARTESIAN_POINT('',(203.722825958343150,147.724032469036730,28.0));
#397=DIRECTION('',(0.0,0.0,-1.0));
#398=DIRECTION('',(-1.0,0.0,0.0));
#399=AXIS2_PLACEMENT_3D('',#396,#397,#398);
#400=CIRCLE('',#399,2.800000000000000);
#401=EDGE_CURVE('',#362,#372,#400,.T.);
#402=ORIENTED_EDGE('',*,*,#401,.T.);
#403=ORIENTED_EDGE('',*,*,#378,.F.);
#404=CARTESIAN_POINT('',(203.722825958343150,147.724032469036730,27.800000000000001));
#405=DIRECTION('',(0.0,0.0,1.0));
#406=DIRECTION('',(-1.0,0.0,0.0));
#407=AXIS2_PLACEMENT_3D('',#404,#405,#406);
#408=CIRCLE('',#407,3.0);
#409=EDGE_CURVE('',#330,#338,#408,.T.);
#410=ORIENTED_EDGE('',*,*,#409,.T.);
#411=EDGE_LOOP('',(#395,#402,#403,#410));
#412=FACE_OUTER_BOUND('',#411,.T.);
#413=ADVANCED_FACE('',(#412),#394,.T.);
#414=CARTESIAN_POINT('',(203.722825958343150,147.724032469036730,0.0));
#415=DIRECTION('',(0.0,0.0,1.0));
#416=DIRECTION('',(1.0,0.0,0.0));
#417=AXIS2_PLACEMENT_3D('',#414,#415,#416);
#418=CYLINDRICAL_SURFACE('',#417,3.0);
#419=ORIENTED_EDGE('',*,*,#335,.T.);
#420=CARTESIAN_POINT('',(203.722825958343150,147.724032469036730,13.0));
#421=DIRECTION('',(0.0,0.0,-1.0));
#422=DIRECTION('',(1.0,0.0,0.0));
#423=AXIS2_PLACEMENT_3D('',#420,#421,#422);
#424=CIRCLE('',#423,3.0);
#425=EDGE_CURVE('',#234,#226,#424,.T.);
#426=ORIENTED_EDGE('',*,*,#425,.F.);
#427=ORIENTED_EDGE('',*,*,#350,.F.);
#428=ORIENTED_EDGE('',*,*,#409,.F.);
#429=EDGE_LOOP('',(#419,#426,#427,#428));
#430=FACE_OUTER_BOUND('',#429,.T.);
#431=ADVANCED_FACE('',(#430),#418,.T.);
#432=CARTESIAN_POINT('',(206.722825958343150,147.724032469036730,28.0));
#433=DIRECTION('',(0.0,0.0,1.0));
#434=DIRECTION('',(1.0,0.0,0.0));
#435=AXIS2_PLACEMENT_3D('',#432,#433,#434);
#436=PLANE('',#435);
#437=ORIENTED_EDGE('',*,*,#385,.F.);
#438=ORIENTED_EDGE('',*,*,#401,.F.);
#439=EDGE_LOOP('',(#437,#438));
#440=FACE_OUTER_BOUND('',#439,.T.);
#441=ADVANCED_FACE('',(#440),#436,.T.);
#442=CARTESIAN_POINT('',(203.722825958343150,147.724032469036730,1.500000000000000));
#443=DIRECTION('',(0.0,0.0,-1.0));
#444=DIRECTION('',(1.0,0.0,0.0));
#445=AXIS2_PLACEMENT_3D('',#442,#443,#444);
#446=CONICAL_SURFACE('',#445,2.500000000000000,44.999999999999993);
#447=ORIENTED_EDGE('',*,*,#299,.T.);
#448=ORIENTED_EDGE('',*,*,#158,.F.);
#449=ORIENTED_EDGE('',*,*,#312,.F.);
#450=ORIENTED_EDGE('',*,*,#272,.T.);
#451=EDGE_LOOP('',(#447,#448,#449,#450));
#452=FACE_OUTER_BOUND('',#451,.T.);
#453=ADVANCED_FACE('',(#452),#446,.T.);
#454=CARTESIAN_POINT('',(203.722825958343150,147.724032469036730,0.0));
#455=DIRECTION('',(0.0,0.0,1.0));
#456=DIRECTION('',(1.0,0.0,0.0));
#457=AXIS2_PLACEMENT_3D('',#454,#455,#456);
#458=CYLINDRICAL_SURFACE('',#457,3.0);
#459=ORIENTED_EDGE('',*,*,#263,.T.);
#460=ORIENTED_EDGE('',*,*,#200,.F.);
#461=ORIENTED_EDGE('',*,*,#278,.F.);
#462=ORIENTED_EDGE('',*,*,#306,.F.);
#463=EDGE_LOOP('',(#459,#460,#461,#462));
#464=FACE_OUTER_BOUND('',#463,.T.);
#465=ADVANCED_FACE('',(#464),#458,.T.);
#466=CARTESIAN_POINT('',(203.722825958343150,147.724032469036730,12.500000000000000));
#467=DIRECTION('',(0.0,0.0,1.0));
#468=DIRECTION('',(1.0,0.0,0.0));
#469=AXIS2_PLACEMENT_3D('',#466,#467,#468);
#470=CONICAL_SURFACE('',#469,2.500000000000000,44.999999999999993);
#471=ORIENTED_EDGE('',*,*,#231,.T.);
#472=CARTESIAN_POINT('',(203.722825958343150,147.724032469036730,12.0));
#473=DIRECTION('',(0.0,0.0,1.0));
#474=DIRECTION('',(-1.0,0.0,0.0));
#475=AXIS2_PLACEMENT_3D('',#472,#473,#474);
#476=CIRCLE('',#475,2.0);
#477=EDGE_CURVE('',#161,#144,#476,.T.);
#478=ORIENTED_EDGE('',*,*,#477,.T.);
#479=ORIENTED_EDGE('',*,*,#246,.F.);
#480=ORIENTED_EDGE('',*,*,#425,.T.);
#481=EDGE_LOOP('',(#471,#478,#479,#480));
#482=FACE_OUTER_BOUND('',#481,.T.);
#483=ADVANCED_FACE('',(#482),#470,.T.);
#484=CARTESIAN_POINT('',(203.722825958343150,147.724032469036730,0.250000000000000));
#485=DIRECTION('',(0.0,0.0,1.0));
#486=DIRECTION('',(-1.0,0.0,0.0));
#487=AXIS2_PLACEMENT_3D('',#484,#485,#486);
#488=CONICAL_SURFACE('',#487,2.750000000000000,44.999999999999993);
#489=ORIENTED_EDGE('',*,*,#191,.T.);
#490=CARTESIAN_POINT('',(203.722825958343150,147.724032469036730,0.0));
#491=DIRECTION('',(0.0,0.0,1.0));
#492=DIRECTION('',(-1.0,0.0,0.0));
#493=AXIS2_PLACEMENT_3D('',#490,#491,#492);
#494=CIRCLE('',#493,2.500000000000000);
#495=EDGE_CURVE('',#186,#203,#494,.T.);
#496=ORIENTED_EDGE('',*,*,#495,.T.);
#497=ORIENTED_EDGE('',*,*,#208,.F.);
#498=ORIENTED_EDGE('',*,*,#285,.T.);
#499=EDGE_LOOP('',(#489,#496,#497,#498));
#500=FACE_OUTER_BOUND('',#499,.T.);
#501=ADVANCED_FACE('',(#500),#488,.T.);
#502=CARTESIAN_POINT('',(203.722825958343150,147.724032469036730,0.0));
#503=DIRECTION('',(0.0,0.0,1.0));
#504=DIRECTION('',(1.0,0.0,0.0));
#505=AXIS2_PLACEMENT_3D('',#502,#503,#504);
#506=PLANE('',#505);
#507=ORIENTED_EDGE('',*,*,#215,.F.);
#508=ORIENTED_EDGE('',*,*,#495,.F.);
#509=EDGE_LOOP('',(#507,#508));
#510=FACE_OUTER_BOUND('',#509,.T.);
#511=ADVANCED_FACE('',(#510),#506,.F.);
#512=CARTESIAN_POINT('',(203.722825958343150,147.724032469036730,7.0));
#513=DIRECTION('',(0.0,0.0,1.0));
#514=DIRECTION('',(-1.0,0.0,0.0));
#515=AXIS2_PLACEMENT_3D('',#512,#513,#514);
#516=CYLINDRICAL_SURFACE('',#515,2.0);
#517=ORIENTED_EDGE('',*,*,#149,.T.);
#518=ORIENTED_EDGE('',*,*,#477,.F.);
#519=ORIENTED_EDGE('',*,*,#166,.F.);
#520=ORIENTED_EDGE('',*,*,#319,.T.);
#521=EDGE_LOOP('',(#517,#518,#519,#520));
#522=FACE_OUTER_BOUND('',#521,.T.);
#523=ADVANCED_FACE('',(#522),#516,.T.);
#524=CLOSED_SHELL('',(#177,#219,#251,#289,#323,#355,#389,#413,#431,#441,#453,#465,#483,#501,#511,#523));
#525=MANIFOLD_SOLID_BREP('1EE',#524);
#526=ADVANCED_BREP_SHAPE_REPRESENTATION('ABSR1',(#525),#129);
#527=SHAPE_REPRESENTATION_RELATIONSHIP('SRRPL1',' ',#526,#133);
#528=CARTESIAN_POINT('NONE',(0.0,147.724032469036730,-147.724032469036730));
#529=DIRECTION('NONE',(0.0,-1.0,6.123032E-017));
#530=DIRECTION('NONE',(1.0,0.0,0.0));
#531=AXIS2_PLACEMENT_3D('NONE',#528,#529,#530);
#532=ITEM_DEFINED_TRANSFORMATION('IDT1',' ',#121,#531);
#536=(REPRESENTATION_RELATIONSHIP(' ',' ',#133,#122)REPRESENTATION_RELATIONSHIP_WITH_TRANSFORMATION(#532)SHAPE_REPRESENTATION_RELATIONSHIP());
#537=NEXT_ASSEMBLY_USAGE_OCCURRENCE('NAUO1','PART1_1','PART1_1',#93,#132,$);
#538=PRODUCT_DEFINITION_SHAPE('PDS_NAUO1',' ',#537);
#539=CONTEXT_DEPENDENT_SHAPE_REPRESENTATION(#536,#538);
ENDSEC;
END-ISO-10303-21;
