ISO-10303-21;
HEADER;
/****************************************************************
 * Generated by software with PDE/Lib inside                    *
 * PDElib Version v51a, created Thu 12/14/2006                  *
 * International Technegroup Inc. (www.iti-oh.com)              *
 ****************************************************************/
FILE_DESCRIPTION((''),'2;1');
FILE_NAME('PP10-mdt.stp','2017-07-31T14:41:55',(''),(''),'Mechanical Desktop 2009','Mechanical Desktop 2009',', , ');
FILE_SCHEMA(('CONFIG_CONTROL_DESIGN'));
ENDSEC;
DATA;
#8=(NAMED_UNIT(*)PLANE_ANGLE_UNIT()SI_UNIT($,.RADIAN.));
#9=DIMENSIONAL_EXPONENTS(0.0,0.0,0.0,0.0,0.0,0.0,0.0);
#10=PLANE_ANGLE_MEASURE_WITH_UNIT(PLANE_ANGLE_MEASURE(0.017453292500000),#8);
#14=(CONVERSION_BASED_UNIT('DEGREE',#10)NAMED_UNIT(#9)PLANE_ANGLE_UNIT());
#18=(NAMED_UNIT(*)SI_UNIT($,.STERADIAN.)SOLID_ANGLE_UNIT());
#22=(LENGTH_UNIT()NAMED_UNIT(*)SI_UNIT(.MILLI.,.METRE.));
#23=UNCERTAINTY_MEASURE_WITH_UNIT(LENGTH_MEASURE(0.000001000000000),#22,'DISTANCE_ACCURACY_VALUE','');
#28=(GEOMETRIC_REPRESENTATION_CONTEXT(3)GLOBAL_UNCERTAINTY_ASSIGNED_CONTEXT((#23))GLOBAL_UNIT_ASSIGNED_CONTEXT((#14,#18,#22))REPRESENTATION_CONTEXT('None','None'));
#29=APPLICATION_CONTEXT('CONFIGURATION CONTROLLED 3D DESIGNS OF MECHANICAL PARTS AND ASSEMBLIES');
#30=APPLICATION_PROTOCOL_DEFINITION('INTERNATIONAL STANDARD','config_control_design',1995,#29);
#31=MECHANICAL_CONTEXT('3D Mechanical Parts',#29,'mechanical');
#32=PRODUCT('PP10-MDT','PP10-MDT',' ',(#31));
#33=PRODUCT_RELATED_PRODUCT_CATEGORY('detail',$,(#32,#130));
#34=PRODUCT_CATEGORY('part',$);
#35=PRODUCT_CATEGORY_RELATIONSHIP('None','None',#34,#33);
#36=PERSON('1','Design','Joe',$,$,$);
#37=ORGANIZATION($,'None','None');
#38=PERSON_AND_ORGANIZATION(#36,#37);
#39=PERSON_AND_ORGANIZATION_ROLE('design_owner');
#40=CC_DESIGN_PERSON_AND_ORGANIZATION_ASSIGNMENT(#38,#39,(#32,#130));
#41=PRODUCT_DEFINITION_FORMATION_WITH_SPECIFIED_SOURCE('None','None',#32,.NOT_KNOWN.);
#42=PERSON('2','Creator','Joe',$,$,$);
#43=ORGANIZATION($,'None','None');
#44=PERSON_AND_ORGANIZATION(#42,#43);
#45=PERSON_AND_ORGANIZATION_ROLE('creator');
#46=CC_DESIGN_PERSON_AND_ORGANIZATION_ASSIGNMENT(#44,#45,(#41,#131));
#47=PERSON('3','Supplier','Joe',$,$,$);
#48=ORGANIZATION($,'None','None');
#49=PERSON_AND_ORGANIZATION(#47,#48);
#50=PERSON_AND_ORGANIZATION_ROLE('design_supplier');
#51=CC_DESIGN_PERSON_AND_ORGANIZATION_ASSIGNMENT(#49,#50,(#41,#131));
#52=APPROVAL_STATUS('approved');
#53=APPROVAL(#52,'None');
#54=PERSON('4','Approver','Joe',$,$,$);
#55=ORGANIZATION($,'None','None');
#56=PERSON_AND_ORGANIZATION(#54,#55);
#57=APPROVAL_ROLE('approver');
#58=APPROVAL_PERSON_ORGANIZATION(#56,#53,#57);
#59=COORDINATED_UNIVERSAL_TIME_OFFSET(8,$,.BEHIND.);
#60=CALENDAR_DATE(1996,29,5);
#61=LOCAL_TIME(12,0,0.0,#59);
#62=DATE_AND_TIME(#60,#61);
#63=APPROVAL_DATE_TIME(#62,#53);
#64=CC_DESIGN_APPROVAL(#53,(#41,#131));
#65=SECURITY_CLASSIFICATION_LEVEL('unclassified');
#66=SECURITY_CLASSIFICATION('security','None',#65);
#67=CC_DESIGN_SECURITY_CLASSIFICATION(#66,(#41,#131,#537));
#68=APPROVAL_STATUS('approved');
#69=APPROVAL(#68,'None');
#70=PERSON('5','Approver','Joe',$,$,$);
#71=ORGANIZATION($,'None','None');
#72=PERSON_AND_ORGANIZATION(#70,#71);
#73=APPROVAL_ROLE('approver');
#74=APPROVAL_PERSON_ORGANIZATION(#72,#69,#73);
#75=COORDINATED_UNIVERSAL_TIME_OFFSET(8,$,.BEHIND.);
#76=CALENDAR_DATE(1996,29,5);
#77=LOCAL_TIME(12,0,0.0,#75);
#78=DATE_AND_TIME(#76,#77);
#79=APPROVAL_DATE_TIME(#78,#69);
#80=CC_DESIGN_APPROVAL(#69,(#66));
#81=PERSON('6','Classifier','Joe',$,$,$);
#82=ORGANIZATION($,'None','None');
#83=PERSON_AND_ORGANIZATION(#81,#82);
#84=PERSON_AND_ORGANIZATION_ROLE('classification_officer');
#85=CC_DESIGN_PERSON_AND_ORGANIZATION_ASSIGNMENT(#83,#84,(#66));
#86=COORDINATED_UNIVERSAL_TIME_OFFSET(8,$,.BEHIND.);
#87=CALENDAR_DATE(1996,29,5);
#88=LOCAL_TIME(12,0,0.0,#86);
#89=DATE_AND_TIME(#87,#88);
#90=DATE_TIME_ROLE('classification_date');
#91=CC_DESIGN_DATE_AND_TIME_ASSIGNMENT(#89,#90,(#66));
#92=DESIGN_CONTEXT('Design Context',#29,'design');
#93=PRODUCT_DEFINITION('None','None',#41,#92);
#94=PERSON('7','Creator','Joe',$,$,$);
#95=ORGANIZATION($,'None','None');
#96=PERSON_AND_ORGANIZATION(#94,#95);
#97=PERSON_AND_ORGANIZATION_ROLE('creator');
#98=CC_DESIGN_PERSON_AND_ORGANIZATION_ASSIGNMENT(#96,#97,(#93,#132));
#99=COORDINATED_UNIVERSAL_TIME_OFFSET(8,$,.BEHIND.);
#100=CALENDAR_DATE(1996,29,5);
#101=LOCAL_TIME(12,0,0.0,#99);
#102=DATE_AND_TIME(#100,#101);
#103=DATE_TIME_ROLE('creation_date');
#104=CC_DESIGN_DATE_AND_TIME_ASSIGNMENT(#102,#103,(#93,#132));
#105=APPROVAL_STATUS('approved');
#106=APPROVAL(#105,'None');
#107=PERSON('8','Approver','Joe',$,$,$);
#108=ORGANIZATION($,'None','None');
#109=PERSON_AND_ORGANIZATION(#107,#108);
#110=APPROVAL_ROLE('approver');
#111=APPROVAL_PERSON_ORGANIZATION(#109,#106,#110);
#112=COORDINATED_UNIVERSAL_TIME_OFFSET(8,$,.BEHIND.);
#113=CALENDAR_DATE(1996,29,5);
#114=LOCAL_TIME(12,0,0.0,#112);
#115=DATE_AND_TIME(#113,#114);
#116=APPROVAL_DATE_TIME(#115,#106);
#117=CC_DESIGN_APPROVAL(#106,(#93,#132));
#118=CARTESIAN_POINT('NONE',(0.0,0.0,0.0));
#119=DIRECTION('NONE',(0.0,0.0,1.0));
#120=DIRECTION('NONE',(1.0,0.0,0.0));
#121=AXIS2_PLACEMENT_3D('NONE',#118,#119,#120);
#122=SHAPE_REPRESENTATION('SR1',(#121,#531),#28);
#123=PRODUCT_DEFINITION_SHAPE('PDS1','Test Part',#93);
#124=SHAPE_DEFINITION_REPRESENTATION(#123,#122);
#129=(GEOMETRIC_REPRESENTATION_CONTEXT(3)GLOBAL_UNCERTAINTY_ASSIGNED_CONTEXT((#23))GLOBAL_UNIT_ASSIGNED_CONTEXT((#14,#18,#22))REPRESENTATION_CONTEXT('Component','Component'));
#130=PRODUCT('PART1','PART1',' ',(#31));
#131=PRODUCT_DEFINITION_FORMATION_WITH_SPECIFIED_SOURCE('None','None',#130,.NOT_KNOWN.);
#132=PRODUCT_DEFINITION('None','None',#131,#92);
#133=SHAPE_REPRESENTATION('SR2',(#121),#129);
#134=PRODUCT_DEFINITION_SHAPE('PDS2','Test Part',#132);
#135=SHAPE_DEFINITION_REPRESENTATION(#134,#133);
#136=CARTESIAN_POINT('',(203.722825958343150,147.724032469036730,12.500000000000000));
#137=DIRECTION('',(0.0,0.0,1.0));
#138=DIRECTION('',(-1.0,0.0,0.0));
#139=AXIS2_PLACEMENT_3D('',#136,#137,#138);
#140=CYLINDRICAL_SURFACE('',#139,3.500000000000000);
#141=CARTESIAN_POINT('',(200.222825958343150,147.724032469036730,3.000000000000000));
#142=VERTEX_POINT('',#141);
#143=CARTESIAN_POINT('',(200.222825958343150,147.724032469036730,22.0));
#144=VERTEX_POINT('',#143);
#145=CARTESIAN_POINT('',(200.222825958343150,147.724032469036730,3.000000000000000));
#146=DIRECTION('',(0.0,0.0,1.0));
#147=VECTOR('',#146,19.0);
#148=LINE('',#145,#147);
#149=EDGE_CURVE('',#142,#144,#148,.T.);
#150=ORIENTED_EDGE('',*,*,#149,.F.);
#151=CARTESIAN_POINT('',(207.222825958343150,147.724032469036730,3.0));
#152=VERTEX_POINT('',#151);
#153=CARTESIAN_POINT('',(203.722825958343150,147.724032469036730,3.0));
#154=DIRECTION('',(0.0,0.0,1.0));
#155=DIRECTION('',(-1.0,0.0,0.0));
#156=AXIS2_PLACEMENT_3D('',#153,#154,#155);
#157=CIRCLE('',#156,3.500000000000000);
#158=EDGE_CURVE('',#142,#152,#157,.T.);
#159=ORIENTED_EDGE('',*,*,#158,.T.);
#160=CARTESIAN_POINT('',(207.222825958343150,147.724032469036730,22.0));
#161=VERTEX_POINT('',#160);
#162=CARTESIAN_POINT('',(207.222825958343150,147.724032469036730,3.0));
#163=DIRECTION('',(0.0,0.0,1.0));
#164=VECTOR('',#163,19.0);
#165=LINE('',#162,#164);
#166=EDGE_CURVE('',#152,#161,#165,.T.);
#167=ORIENTED_EDGE('',*,*,#166,.T.);
#168=CARTESIAN_POINT('',(203.722825958343150,147.724032469036730,22.0));
#169=DIRECTION('',(0.0,0.0,1.0));
#170=DIRECTION('',(-1.0,0.0,0.0));
#171=AXIS2_PLACEMENT_3D('',#168,#169,#170);
#172=CIRCLE('',#171,3.500000000000000);
#173=EDGE_CURVE('',#144,#161,#172,.T.);
#174=ORIENTED_EDGE('',*,*,#173,.F.);
#175=EDGE_LOOP('',(#150,#159,#167,#174));
#176=FACE_OUTER_BOUND('',#175,.T.);
#177=ADVANCED_FACE('',(#176),#140,.T.);
#178=CARTESIAN_POINT('',(203.722825958343150,147.724032469036730,0.250000000000000));
#179=DIRECTION('',(0.0,0.0,1.0));
#180=DIRECTION('',(-1.0,0.0,0.0));
#181=AXIS2_PLACEMENT_3D('',#178,#179,#180);
#182=CONICAL_SURFACE('',#181,4.750000000000000,44.999999999999993);
#183=CARTESIAN_POINT('',(198.722825958343150,147.724032469036730,0.500000000000000));
#184=VERTEX_POINT('',#183);
#185=CARTESIAN_POINT('',(199.222825958343150,147.724032469036730,5.551115E-017));
#186=VERTEX_POINT('',#185);
#187=CARTESIAN_POINT('',(198.722825958343150,147.724032469036730,0.500000000000000));
#188=DIRECTION('',(0.707106781186548,0.0,-0.707106781186547));
#189=VECTOR('',#188,0.707106781186547);
#190=LINE('',#187,#189);
#191=EDGE_CURVE('',#184,#186,#190,.T.);
#192=ORIENTED_EDGE('',*,*,#191,.F.);
#193=CARTESIAN_POINT('',(208.722825958343150,147.724032469036700,0.500000000000000));
#194=VERTEX_POINT('',#193);
#195=CARTESIAN_POINT('',(203.722825958343150,147.724032469036730,0.500000000000000));
#196=DIRECTION('',(0.0,0.0,-1.0));
#197=DIRECTION('',(-1.0,0.0,0.0));
#198=AXIS2_PLACEMENT_3D('',#195,#196,#197);
#199=CIRCLE('',#198,5.0);
#200=EDGE_CURVE('',#184,#194,#199,.T.);
#201=ORIENTED_EDGE('',*,*,#200,.T.);
#202=CARTESIAN_POINT('',(208.222825958343150,147.724032469036700,0.0));
#203=VERTEX_POINT('',#202);
#204=CARTESIAN_POINT('',(208.722825958343150,147.724032469036700,0.500000000000000));
#205=DIRECTION('',(-0.707106781186547,0.0,-0.707106781186547));
#206=VECTOR('',#205,0.707106781186548);
#207=LINE('',#204,#206);
#208=EDGE_CURVE('',#194,#203,#207,.T.);
#209=ORIENTED_EDGE('',*,*,#208,.T.);
#210=CARTESIAN_POINT('',(203.722825958343150,147.724032469036730,0.0));
#211=DIRECTION('',(0.0,0.0,1.0));
#212=DIRECTION('',(-1.0,0.0,0.0));
#213=AXIS2_PLACEMENT_3D('',#210,#211,#212);
#214=CIRCLE('',#213,4.500000000000000);
#215=EDGE_CURVE('',#203,#186,#214,.T.);
#216=ORIENTED_EDGE('',*,*,#215,.T.);
#217=EDGE_LOOP('',(#192,#201,#209,#216));
#218=FACE_OUTER_BOUND('',#217,.T.);
#219=ADVANCED_FACE('',(#218),#182,.T.);
#220=CARTESIAN_POINT('',(203.722825958343150,147.724032469036730,41.500000000000000));
#221=DIRECTION('',(0.0,0.0,-1.0));
#222=DIRECTION('',(-1.0,0.0,0.0));
#223=AXIS2_PLACEMENT_3D('',#220,#221,#222);
#224=TOROIDAL_SURFACE('',#223,4.500000000000000,0.500000000000000);
#225=CARTESIAN_POINT('',(198.722825958343150,147.724032469036730,41.500000000000000));
#226=VERTEX_POINT('',#225);
#227=CARTESIAN_POINT('',(199.222825958343150,147.724032469036730,42.0));
#228=VERTEX_POINT('',#227);
#229=CARTESIAN_POINT('',(199.222825958343150,147.724032469036730,41.500000000000000));
#230=DIRECTION('',(0.0,1.0,0.0));
#231=DIRECTION('',(-1.0,0.0,0.0));
#232=AXIS2_PLACEMENT_3D('',#229,#230,#231);
#233=CIRCLE('',#232,0.500000000000000);
#234=EDGE_CURVE('',#226,#228,#233,.T.);
#235=ORIENTED_EDGE('',*,*,#234,.F.);
#236=CARTESIAN_POINT('',(208.722825958343150,147.724032469036730,41.500000000000000));
#237=VERTEX_POINT('',#236);
#238=CARTESIAN_POINT('',(203.722825958343150,147.724032469036730,41.500000000000000));
#239=DIRECTION('',(0.0,0.0,1.0));
#240=DIRECTION('',(-1.0,0.0,0.0));
#241=AXIS2_PLACEMENT_3D('',#238,#239,#240);
#242=CIRCLE('',#241,5.0);
#243=EDGE_CURVE('',#226,#237,#242,.T.);
#244=ORIENTED_EDGE('',*,*,#243,.T.);
#245=CARTESIAN_POINT('',(208.222825958343150,147.724032469036730,42.0));
#246=VERTEX_POINT('',#245);
#247=CARTESIAN_POINT('',(208.222825958343150,147.724032469036730,41.500000000000000));
#248=DIRECTION('',(0.0,-1.0,0.0));
#249=DIRECTION('',(1.0,0.0,0.0));
#250=AXIS2_PLACEMENT_3D('',#247,#248,#249);
#251=CIRCLE('',#250,0.500000000000000);
#252=EDGE_CURVE('',#237,#246,#251,.T.);
#253=ORIENTED_EDGE('',*,*,#252,.T.);
#254=CARTESIAN_POINT('',(203.722825958343150,147.724032469036730,42.0));
#255=DIRECTION('',(0.0,0.0,-1.0));
#256=DIRECTION('',(-1.0,0.0,0.0));
#257=AXIS2_PLACEMENT_3D('',#254,#255,#256);
#258=CIRCLE('',#257,4.500000000000000);
#259=EDGE_CURVE('',#246,#228,#258,.T.);
#260=ORIENTED_EDGE('',*,*,#259,.T.);
#261=EDGE_LOOP('',(#235,#244,#253,#260));
#262=FACE_OUTER_BOUND('',#261,.T.);
#263=ADVANCED_FACE('',(#262),#224,.T.);
#264=CARTESIAN_POINT('',(203.722825958343150,147.724032469036730,0.0));
#265=DIRECTION('',(0.0,0.0,1.0));
#266=DIRECTION('',(1.0,0.0,0.0));
#267=AXIS2_PLACEMENT_3D('',#264,#265,#266);
#268=CYLINDRICAL_SURFACE('',#267,5.0);
#269=CARTESIAN_POINT('',(208.722825958343150,147.724032469036730,23.500000000000000));
#270=VERTEX_POINT('',#269);
#271=CARTESIAN_POINT('',(208.722825958343150,147.724032469036730,41.500000000000000));
#272=DIRECTION('',(0.0,0.0,-1.0));
#273=VECTOR('',#272,18.0);
#274=LINE('',#271,#273);
#275=EDGE_CURVE('',#237,#270,#274,.T.);
#276=ORIENTED_EDGE('',*,*,#275,.F.);
#277=ORIENTED_EDGE('',*,*,#243,.F.);
#278=CARTESIAN_POINT('',(198.722825958343150,147.724032469036760,23.500000000000000));
#279=VERTEX_POINT('',#278);
#280=CARTESIAN_POINT('',(198.722825958343150,147.724032469036730,41.500000000000000));
#281=DIRECTION('',(0.0,0.0,-1.0));
#282=VECTOR('',#281,18.0);
#283=LINE('',#280,#282);
#284=EDGE_CURVE('',#226,#279,#283,.T.);
#285=ORIENTED_EDGE('',*,*,#284,.T.);
#286=CARTESIAN_POINT('',(203.722825958343150,147.724032469036730,23.500000000000000));
#287=DIRECTION('',(0.0,0.0,-1.0));
#288=DIRECTION('',(1.0,0.0,0.0));
#289=AXIS2_PLACEMENT_3D('',#286,#287,#288);
#290=CIRCLE('',#289,5.0);
#291=EDGE_CURVE('',#270,#279,#290,.T.);
#292=ORIENTED_EDGE('',*,*,#291,.F.);
#293=EDGE_LOOP('',(#276,#277,#285,#292));
#294=FACE_OUTER_BOUND('',#293,.T.);
#295=ADVANCED_FACE('',(#294),#268,.T.);
#296=CARTESIAN_POINT('',(203.722825958343150,147.724032469036730,22.750000000000000));
#297=DIRECTION('',(0.0,0.0,1.0));
#298=DIRECTION('',(1.0,0.0,0.0));
#299=AXIS2_PLACEMENT_3D('',#296,#297,#298);
#300=CONICAL_SURFACE('',#299,4.250000000000000,45.000000000000007);
#301=CARTESIAN_POINT('',(208.722825958343150,147.724032469036730,23.500000000000000));
#302=DIRECTION('',(-0.707106781186548,0.0,-0.707106781186548));
#303=VECTOR('',#302,2.121320343559642);
#304=LINE('',#301,#303);
#305=EDGE_CURVE('',#270,#161,#304,.T.);
#306=ORIENTED_EDGE('',*,*,#305,.F.);
#307=ORIENTED_EDGE('',*,*,#291,.T.);
#308=CARTESIAN_POINT('',(198.722825958343150,147.724032469036760,23.500000000000000));
#309=DIRECTION('',(0.707106781186548,-1.339812E-014,-0.707106781186548));
#310=VECTOR('',#309,2.121320343559642);
#311=LINE('',#308,#310);
#312=EDGE_CURVE('',#279,#144,#311,.T.);
#313=ORIENTED_EDGE('',*,*,#312,.T.);
#314=ORIENTED_EDGE('',*,*,#173,.T.);
#315=EDGE_LOOP('',(#306,#307,#313,#314));
#316=FACE_OUTER_BOUND('',#315,.T.);
#317=ADVANCED_FACE('',(#316),#300,.T.);
#318=CARTESIAN_POINT('',(203.722825958343150,147.724032469036730,0.0));
#319=DIRECTION('',(0.0,0.0,1.0));
#320=DIRECTION('',(1.0,0.0,0.0));
#321=AXIS2_PLACEMENT_3D('',#318,#319,#320);
#322=CYLINDRICAL_SURFACE('',#321,5.0);
#323=CARTESIAN_POINT('',(208.722825958343150,147.724032469036730,1.500000000000000));
#324=VERTEX_POINT('',#323);
#325=CARTESIAN_POINT('',(208.722825958343150,147.724032469036730,1.500000000000000));
#326=DIRECTION('',(0.0,0.0,-1.0));
#327=VECTOR('',#326,1.0);
#328=LINE('',#325,#327);
#329=EDGE_CURVE('',#324,#194,#328,.T.);
#330=ORIENTED_EDGE('',*,*,#329,.F.);
#331=CARTESIAN_POINT('',(198.722825958343150,147.724032469036700,1.500000000000000));
#332=VERTEX_POINT('',#331);
#333=CARTESIAN_POINT('',(203.722825958343150,147.724032469036730,1.500000000000000));
#334=DIRECTION('',(0.0,0.0,1.0));
#335=DIRECTION('',(1.0,0.0,0.0));
#336=AXIS2_PLACEMENT_3D('',#333,#334,#335);
#337=CIRCLE('',#336,5.0);
#338=EDGE_CURVE('',#332,#324,#337,.T.);
#339=ORIENTED_EDGE('',*,*,#338,.F.);
#340=CARTESIAN_POINT('',(198.722825958343150,147.724032469036700,1.500000000000000));
#341=DIRECTION('',(0.0,0.0,-1.0));
#342=VECTOR('',#341,1.0);
#343=LINE('',#340,#342);
#344=EDGE_CURVE('',#332,#184,#343,.T.);
#345=ORIENTED_EDGE('',*,*,#344,.T.);
#346=CARTESIAN_POINT('',(203.722825958343150,147.724032469036730,0.500000000000000));
#347=DIRECTION('',(0.0,0.0,-1.0));
#348=DIRECTION('',(-1.0,0.0,0.0));
#349=AXIS2_PLACEMENT_3D('',#346,#347,#348);
#350=CIRCLE('',#349,5.0);
#351=EDGE_CURVE('',#194,#184,#350,.T.);
#352=ORIENTED_EDGE('',*,*,#351,.F.);
#353=EDGE_LOOP('',(#330,#339,#345,#352));
#354=FACE_OUTER_BOUND('',#353,.T.);
#355=ADVANCED_FACE('',(#354),#322,.T.);
#356=CARTESIAN_POINT('',(203.722825958343150,147.724032469036730,2.250000000000000));
#357=DIRECTION('',(0.0,0.0,-1.0));
#358=DIRECTION('',(1.0,0.0,0.0));
#359=AXIS2_PLACEMENT_3D('',#356,#357,#358);
#360=CONICAL_SURFACE('',#359,4.250000000000000,45.000000000000007);
#361=CARTESIAN_POINT('',(208.722825958343150,147.724032469036730,1.500000000000000));
#362=DIRECTION('',(-0.707106781186548,0.0,0.707106781186548));
#363=VECTOR('',#362,2.121320343559642);
#364=LINE('',#361,#363);
#365=EDGE_CURVE('',#324,#152,#364,.T.);
#366=ORIENTED_EDGE('',*,*,#365,.F.);
#367=CARTESIAN_POINT('',(203.722825958343150,147.724032469036730,1.500000000000000));
#368=DIRECTION('',(0.0,0.0,1.0));
#369=DIRECTION('',(1.0,0.0,0.0));
#370=AXIS2_PLACEMENT_3D('',#367,#368,#369);
#371=CIRCLE('',#370,5.0);
#372=EDGE_CURVE('',#324,#332,#371,.T.);
#373=ORIENTED_EDGE('',*,*,#372,.T.);
#374=CARTESIAN_POINT('',(198.722825958343150,147.724032469036700,1.500000000000000));
#375=DIRECTION('',(0.707106781186547,1.339812E-014,0.707106781186548));
#376=VECTOR('',#375,2.121320343559643);
#377=LINE('',#374,#376);
#378=EDGE_CURVE('',#332,#142,#377,.T.);
#379=ORIENTED_EDGE('',*,*,#378,.T.);
#380=CARTESIAN_POINT('',(203.722825958343150,147.724032469036730,3.0));
#381=DIRECTION('',(0.0,0.0,1.0));
#382=DIRECTION('',(-1.0,0.0,0.0));
#383=AXIS2_PLACEMENT_3D('',#380,#381,#382);
#384=CIRCLE('',#383,3.500000000000000);
#385=EDGE_CURVE('',#152,#142,#384,.T.);
#386=ORIENTED_EDGE('',*,*,#385,.F.);
#387=EDGE_LOOP('',(#366,#373,#379,#386));
#388=FACE_OUTER_BOUND('',#387,.T.);
#389=ADVANCED_FACE('',(#388),#360,.T.);
#390=CARTESIAN_POINT('',(203.722825958343150,147.724032469036730,2.250000000000000));
#391=DIRECTION('',(0.0,0.0,-1.0));
#392=DIRECTION('',(1.0,0.0,0.0));
#393=AXIS2_PLACEMENT_3D('',#390,#391,#392);
#394=CONICAL_SURFACE('',#393,4.250000000000000,45.000000000000007);
#395=ORIENTED_EDGE('',*,*,#365,.T.);
#396=ORIENTED_EDGE('',*,*,#158,.F.);
#397=ORIENTED_EDGE('',*,*,#378,.F.);
#398=ORIENTED_EDGE('',*,*,#338,.T.);
#399=EDGE_LOOP('',(#395,#396,#397,#398));
#400=FACE_OUTER_BOUND('',#399,.T.);
#401=ADVANCED_FACE('',(#400),#394,.T.);
#402=CARTESIAN_POINT('',(203.722825958343150,147.724032469036730,0.0));
#403=DIRECTION('',(0.0,0.0,1.0));
#404=DIRECTION('',(1.0,0.0,0.0));
#405=AXIS2_PLACEMENT_3D('',#402,#403,#404);
#406=CYLINDRICAL_SURFACE('',#405,5.0);
#407=ORIENTED_EDGE('',*,*,#329,.T.);
#408=ORIENTED_EDGE('',*,*,#200,.F.);
#409=ORIENTED_EDGE('',*,*,#344,.F.);
#410=ORIENTED_EDGE('',*,*,#372,.F.);
#411=EDGE_LOOP('',(#407,#408,#409,#410));
#412=FACE_OUTER_BOUND('',#411,.T.);
#413=ADVANCED_FACE('',(#412),#406,.T.);
#414=CARTESIAN_POINT('',(203.722825958343150,147.724032469036730,22.750000000000000));
#415=DIRECTION('',(0.0,0.0,1.0));
#416=DIRECTION('',(1.0,0.0,0.0));
#417=AXIS2_PLACEMENT_3D('',#414,#415,#416);
#418=CONICAL_SURFACE('',#417,4.250000000000000,45.000000000000007);
#419=ORIENTED_EDGE('',*,*,#305,.T.);
#420=CARTESIAN_POINT('',(203.722825958343150,147.724032469036730,22.0));
#421=DIRECTION('',(0.0,0.0,1.0));
#422=DIRECTION('',(-1.0,0.0,0.0));
#423=AXIS2_PLACEMENT_3D('',#420,#421,#422);
#424=CIRCLE('',#423,3.500000000000000);
#425=EDGE_CURVE('',#161,#144,#424,.T.);
#426=ORIENTED_EDGE('',*,*,#425,.T.);
#427=ORIENTED_EDGE('',*,*,#312,.F.);
#428=CARTESIAN_POINT('',(203.722825958343150,147.724032469036730,23.500000000000000));
#429=DIRECTION('',(0.0,0.0,-1.0));
#430=DIRECTION('',(1.0,0.0,0.0));
#431=AXIS2_PLACEMENT_3D('',#428,#429,#430);
#432=CIRCLE('',#431,5.0);
#433=EDGE_CURVE('',#279,#270,#432,.T.);
#434=ORIENTED_EDGE('',*,*,#433,.T.);
#435=EDGE_LOOP('',(#419,#426,#427,#434));
#436=FACE_OUTER_BOUND('',#435,.T.);
#437=ADVANCED_FACE('',(#436),#418,.T.);
#438=CARTESIAN_POINT('',(203.722825958343150,147.724032469036730,0.0));
#439=DIRECTION('',(0.0,0.0,1.0));
#440=DIRECTION('',(1.0,0.0,0.0));
#441=AXIS2_PLACEMENT_3D('',#438,#439,#440);
#442=CYLINDRICAL_SURFACE('',#441,5.0);
#443=ORIENTED_EDGE('',*,*,#275,.T.);
#444=ORIENTED_EDGE('',*,*,#433,.F.);
#445=ORIENTED_EDGE('',*,*,#284,.F.);
#446=CARTESIAN_POINT('',(203.722825958343150,147.724032469036730,41.500000000000000));
#447=DIRECTION('',(0.0,0.0,1.0));
#448=DIRECTION('',(-1.0,0.0,0.0));
#449=AXIS2_PLACEMENT_3D('',#446,#447,#448);
#450=CIRCLE('',#449,5.0);
#451=EDGE_CURVE('',#237,#226,#450,.T.);
#452=ORIENTED_EDGE('',*,*,#451,.F.);
#453=EDGE_LOOP('',(#443,#444,#445,#452));
#454=FACE_OUTER_BOUND('',#453,.T.);
#455=ADVANCED_FACE('',(#454),#442,.T.);
#456=CARTESIAN_POINT('',(203.722825958343150,147.724032469036730,41.500000000000000));
#457=DIRECTION('',(0.0,0.0,-1.0));
#458=DIRECTION('',(-1.0,0.0,0.0));
#459=AXIS2_PLACEMENT_3D('',#456,#457,#458);
#460=TOROIDAL_SURFACE('',#459,4.500000000000000,0.500000000000000);
#461=ORIENTED_EDGE('',*,*,#234,.T.);
#462=CARTESIAN_POINT('',(203.722825958343150,147.724032469036730,42.0));
#463=DIRECTION('',(0.0,0.0,-1.0));
#464=DIRECTION('',(-1.0,0.0,0.0));
#465=AXIS2_PLACEMENT_3D('',#462,#463,#464);
#466=CIRCLE('',#465,4.500000000000000);
#467=EDGE_CURVE('',#228,#246,#466,.T.);
#468=ORIENTED_EDGE('',*,*,#467,.T.);
#469=ORIENTED_EDGE('',*,*,#252,.F.);
#470=ORIENTED_EDGE('',*,*,#451,.T.);
#471=EDGE_LOOP('',(#461,#468,#469,#470));
#472=FACE_OUTER_BOUND('',#471,.T.);
#473=ADVANCED_FACE('',(#472),#460,.T.);
#474=CARTESIAN_POINT('',(208.722825958343150,147.724032469036730,42.0));
#475=DIRECTION('',(0.0,0.0,1.0));
#476=DIRECTION('',(1.0,0.0,0.0));
#477=AXIS2_PLACEMENT_3D('',#474,#475,#476);
#478=PLANE('',#477);
#479=ORIENTED_EDGE('',*,*,#259,.F.);
#480=ORIENTED_EDGE('',*,*,#467,.F.);
#481=EDGE_LOOP('',(#479,#480));
#482=FACE_OUTER_BOUND('',#481,.T.);
#483=ADVANCED_FACE('',(#482),#478,.T.);
#484=CARTESIAN_POINT('',(203.722825958343150,147.724032469036730,0.250000000000000));
#485=DIRECTION('',(0.0,0.0,1.0));
#486=DIRECTION('',(-1.0,0.0,0.0));
#487=AXIS2_PLACEMENT_3D('',#484,#485,#486);
#488=CONICAL_SURFACE('',#487,4.750000000000000,44.999999999999993);
#489=ORIENTED_EDGE('',*,*,#191,.T.);
#490=CARTESIAN_POINT('',(203.722825958343150,147.724032469036730,0.0));
#491=DIRECTION('',(0.0,0.0,1.0));
#492=DIRECTION('',(-1.0,0.0,0.0));
#493=AXIS2_PLACEMENT_3D('',#490,#491,#492);
#494=CIRCLE('',#493,4.500000000000000);
#495=EDGE_CURVE('',#186,#203,#494,.T.);
#496=ORIENTED_EDGE('',*,*,#495,.T.);
#497=ORIENTED_EDGE('',*,*,#208,.F.);
#498=ORIENTED_EDGE('',*,*,#351,.T.);
#499=EDGE_LOOP('',(#489,#496,#497,#498));
#500=FACE_OUTER_BOUND('',#499,.T.);
#501=ADVANCED_FACE('',(#500),#488,.T.);
#502=CARTESIAN_POINT('',(203.722825958343150,147.724032469036730,0.0));
#503=DIRECTION('',(0.0,0.0,1.0));
#504=DIRECTION('',(1.0,0.0,0.0));
#505=AXIS2_PLACEMENT_3D('',#502,#503,#504);
#506=PLANE('',#505);
#507=ORIENTED_EDGE('',*,*,#215,.F.);
#508=ORIENTED_EDGE('',*,*,#495,.F.);
#509=EDGE_LOOP('',(#507,#508));
#510=FACE_OUTER_BOUND('',#509,.T.);
#511=ADVANCED_FACE('',(#510),#506,.F.);
#512=CARTESIAN_POINT('',(203.722825958343150,147.724032469036730,12.500000000000000));
#513=DIRECTION('',(0.0,0.0,1.0));
#514=DIRECTION('',(-1.0,0.0,0.0));
#515=AXIS2_PLACEMENT_3D('',#512,#513,#514);
#516=CYLINDRICAL_SURFACE('',#515,3.500000000000000);
#517=ORIENTED_EDGE('',*,*,#149,.T.);
#518=ORIENTED_EDGE('',*,*,#425,.F.);
#519=ORIENTED_EDGE('',*,*,#166,.F.);
#520=ORIENTED_EDGE('',*,*,#385,.T.);
#521=EDGE_LOOP('',(#517,#518,#519,#520));
#522=FACE_OUTER_BOUND('',#521,.T.);
#523=ADVANCED_FACE('',(#522),#516,.T.);
#524=CLOSED_SHELL('',(#177,#219,#263,#295,#317,#355,#389,#401,#413,#437,#455,#473,#483,#501,#511,#523));
#525=MANIFOLD_SOLID_BREP('1EE',#524);
#526=ADVANCED_BREP_SHAPE_REPRESENTATION('ABSR1',(#525),#129);
#527=SHAPE_REPRESENTATION_RELATIONSHIP('SRRPL1',' ',#526,#133);
#528=CARTESIAN_POINT('NONE',(0.0,147.724032469036730,-147.724032469036730));
#529=DIRECTION('NONE',(0.0,-1.0,6.123032E-017));
#530=DIRECTION('NONE',(1.0,0.0,0.0));
#531=AXIS2_PLACEMENT_3D('NONE',#528,#529,#530);
#532=ITEM_DEFINED_TRANSFORMATION('IDT1',' ',#121,#531);
#536=(REPRESENTATION_RELATIONSHIP(' ',' ',#133,#122)REPRESENTATION_RELATIONSHIP_WITH_TRANSFORMATION(#532)SHAPE_REPRESENTATION_RELATIONSHIP());
#537=NEXT_ASSEMBLY_USAGE_OCCURRENCE('NAUO1','PART1_1','PART1_1',#93,#132,$);
#538=PRODUCT_DEFINITION_SHAPE('PDS_NAUO1',' ',#537);
#539=CONTEXT_DEPENDENT_SHAPE_REPRESENTATION(#536,#538);
ENDSEC;
END-ISO-10303-21;
