ISO-10303-21;
HEADER;
/****************************************************************
 * Generated by software with PDE/Lib inside                    *
 * PDElib Version v51a, created Thu 12/14/2006                  *
 * International Technegroup Inc. (www.iti-oh.com)              *
 ****************************************************************/
FILE_DESCRIPTION((''),'2;1');
FILE_NAME('PP12-mdt.stp','2017-07-31T14:42:05',(''),(''),'Mechanical Desktop 2009','Mechanical Desktop 2009',', , ');
FILE_SCHEMA(('CONFIG_CONTROL_DESIGN'));
ENDSEC;
DATA;
#8=(NAMED_UNIT(*)PLANE_ANGLE_UNIT()SI_UNIT($,.RADIAN.));
#9=DIMENSIONAL_EXPONENTS(0.0,0.0,0.0,0.0,0.0,0.0,0.0);
#10=PLANE_ANGLE_MEASURE_WITH_UNIT(PLANE_ANGLE_MEASURE(0.017453292500000),#8);
#14=(CONVERSION_BASED_UNIT('DEGREE',#10)NAMED_UNIT(#9)PLANE_ANGLE_UNIT());
#18=(NAMED_UNIT(*)SI_UNIT($,.STERADIAN.)SOLID_ANGLE_UNIT());
#22=(LENGTH_UNIT()NAMED_UNIT(*)SI_UNIT(.MILLI.,.METRE.));
#23=UNCERTAINTY_MEASURE_WITH_UNIT(LENGTH_MEASURE(0.000001000000000),#22,'DISTANCE_ACCURACY_VALUE','');
#28=(GEOMETRIC_REPRESENTATION_CONTEXT(3)GLOBAL_UNCERTAINTY_ASSIGNED_CONTEXT((#23))GLOBAL_UNIT_ASSIGNED_CONTEXT((#14,#18,#22))REPRESENTATION_CONTEXT('None','None'));
#29=APPLICATION_CONTEXT('CONFIGURATION CONTROLLED 3D DESIGNS OF MECHANICAL PARTS AND ASSEMBLIES');
#30=APPLICATION_PROTOCOL_DEFINITION('INTERNATIONAL STANDARD','config_control_design',1995,#29);
#31=MECHANICAL_CONTEXT('3D Mechanical Parts',#29,'mechanical');
#32=PRODUCT('PP12-MDT','PP12-MDT',' ',(#31));
#33=PRODUCT_RELATED_PRODUCT_CATEGORY('detail',$,(#32,#130));
#34=PRODUCT_CATEGORY('part',$);
#35=PRODUCT_CATEGORY_RELATIONSHIP('None','None',#34,#33);
#36=PERSON('1','Design','Joe',$,$,$);
#37=ORGANIZATION($,'None','None');
#38=PERSON_AND_ORGANIZATION(#36,#37);
#39=PERSON_AND_ORGANIZATION_ROLE('design_owner');
#40=CC_DESIGN_PERSON_AND_ORGANIZATION_ASSIGNMENT(#38,#39,(#32,#130));
#41=PRODUCT_DEFINITION_FORMATION_WITH_SPECIFIED_SOURCE('None','None',#32,.NOT_KNOWN.);
#42=PERSON('2','Creator','Joe',$,$,$);
#43=ORGANIZATION($,'None','None');
#44=PERSON_AND_ORGANIZATION(#42,#43);
#45=PERSON_AND_ORGANIZATION_ROLE('creator');
#46=CC_DESIGN_PERSON_AND_ORGANIZATION_ASSIGNMENT(#44,#45,(#41,#131));
#47=PERSON('3','Supplier','Joe',$,$,$);
#48=ORGANIZATION($,'None','None');
#49=PERSON_AND_ORGANIZATION(#47,#48);
#50=PERSON_AND_ORGANIZATION_ROLE('design_supplier');
#51=CC_DESIGN_PERSON_AND_ORGANIZATION_ASSIGNMENT(#49,#50,(#41,#131));
#52=APPROVAL_STATUS('approved');
#53=APPROVAL(#52,'None');
#54=PERSON('4','Approver','Joe',$,$,$);
#55=ORGANIZATION($,'None','None');
#56=PERSON_AND_ORGANIZATION(#54,#55);
#57=APPROVAL_ROLE('approver');
#58=APPROVAL_PERSON_ORGANIZATION(#56,#53,#57);
#59=COORDINATED_UNIVERSAL_TIME_OFFSET(8,$,.BEHIND.);
#60=CALENDAR_DATE(1996,29,5);
#61=LOCAL_TIME(12,0,0.0,#59);
#62=DATE_AND_TIME(#60,#61);
#63=APPROVAL_DATE_TIME(#62,#53);
#64=CC_DESIGN_APPROVAL(#53,(#41,#131));
#65=SECURITY_CLASSIFICATION_LEVEL('unclassified');
#66=SECURITY_CLASSIFICATION('security','None',#65);
#67=CC_DESIGN_SECURITY_CLASSIFICATION(#66,(#41,#131,#537));
#68=APPROVAL_STATUS('approved');
#69=APPROVAL(#68,'None');
#70=PERSON('5','Approver','Joe',$,$,$);
#71=ORGANIZATION($,'None','None');
#72=PERSON_AND_ORGANIZATION(#70,#71);
#73=APPROVAL_ROLE('approver');
#74=APPROVAL_PERSON_ORGANIZATION(#72,#69,#73);
#75=COORDINATED_UNIVERSAL_TIME_OFFSET(8,$,.BEHIND.);
#76=CALENDAR_DATE(1996,29,5);
#77=LOCAL_TIME(12,0,0.0,#75);
#78=DATE_AND_TIME(#76,#77);
#79=APPROVAL_DATE_TIME(#78,#69);
#80=CC_DESIGN_APPROVAL(#69,(#66));
#81=PERSON('6','Classifier','Joe',$,$,$);
#82=ORGANIZATION($,'None','None');
#83=PERSON_AND_ORGANIZATION(#81,#82);
#84=PERSON_AND_ORGANIZATION_ROLE('classification_officer');
#85=CC_DESIGN_PERSON_AND_ORGANIZATION_ASSIGNMENT(#83,#84,(#66));
#86=COORDINATED_UNIVERSAL_TIME_OFFSET(8,$,.BEHIND.);
#87=CALENDAR_DATE(1996,29,5);
#88=LOCAL_TIME(12,0,0.0,#86);
#89=DATE_AND_TIME(#87,#88);
#90=DATE_TIME_ROLE('classification_date');
#91=CC_DESIGN_DATE_AND_TIME_ASSIGNMENT(#89,#90,(#66));
#92=DESIGN_CONTEXT('Design Context',#29,'design');
#93=PRODUCT_DEFINITION('None','None',#41,#92);
#94=PERSON('7','Creator','Joe',$,$,$);
#95=ORGANIZATION($,'None','None');
#96=PERSON_AND_ORGANIZATION(#94,#95);
#97=PERSON_AND_ORGANIZATION_ROLE('creator');
#98=CC_DESIGN_PERSON_AND_ORGANIZATION_ASSIGNMENT(#96,#97,(#93,#132));
#99=COORDINATED_UNIVERSAL_TIME_OFFSET(8,$,.BEHIND.);
#100=CALENDAR_DATE(1996,29,5);
#101=LOCAL_TIME(12,0,0.0,#99);
#102=DATE_AND_TIME(#100,#101);
#103=DATE_TIME_ROLE('creation_date');
#104=CC_DESIGN_DATE_AND_TIME_ASSIGNMENT(#102,#103,(#93,#132));
#105=APPROVAL_STATUS('approved');
#106=APPROVAL(#105,'None');
#107=PERSON('8','Approver','Joe',$,$,$);
#108=ORGANIZATION($,'None','None');
#109=PERSON_AND_ORGANIZATION(#107,#108);
#110=APPROVAL_ROLE('approver');
#111=APPROVAL_PERSON_ORGANIZATION(#109,#106,#110);
#112=COORDINATED_UNIVERSAL_TIME_OFFSET(8,$,.BEHIND.);
#113=CALENDAR_DATE(1996,29,5);
#114=LOCAL_TIME(12,0,0.0,#112);
#115=DATE_AND_TIME(#113,#114);
#116=APPROVAL_DATE_TIME(#115,#106);
#117=CC_DESIGN_APPROVAL(#106,(#93,#132));
#118=CARTESIAN_POINT('NONE',(0.0,0.0,0.0));
#119=DIRECTION('NONE',(0.0,0.0,1.0));
#120=DIRECTION('NONE',(1.0,0.0,0.0));
#121=AXIS2_PLACEMENT_3D('NONE',#118,#119,#120);
#122=SHAPE_REPRESENTATION('SR1',(#121,#531),#28);
#123=PRODUCT_DEFINITION_SHAPE('PDS1','Test Part',#93);
#124=SHAPE_DEFINITION_REPRESENTATION(#123,#122);
#129=(GEOMETRIC_REPRESENTATION_CONTEXT(3)GLOBAL_UNCERTAINTY_ASSIGNED_CONTEXT((#23))GLOBAL_UNIT_ASSIGNED_CONTEXT((#14,#18,#22))REPRESENTATION_CONTEXT('Component','Component'));
#130=PRODUCT('PART1','PART1',' ',(#31));
#131=PRODUCT_DEFINITION_FORMATION_WITH_SPECIFIED_SOURCE('None','None',#130,.NOT_KNOWN.);
#132=PRODUCT_DEFINITION('None','None',#131,#92);
#133=SHAPE_REPRESENTATION('SR2',(#121),#129);
#134=PRODUCT_DEFINITION_SHAPE('PDS2','Test Part',#132);
#135=SHAPE_DEFINITION_REPRESENTATION(#134,#133);
#136=CARTESIAN_POINT('',(203.722825958343150,147.724032469036730,13.0));
#137=DIRECTION('',(0.0,0.0,1.0));
#138=DIRECTION('',(-1.0,0.0,0.0));
#139=AXIS2_PLACEMENT_3D('',#136,#137,#138);
#140=CYLINDRICAL_SURFACE('',#139,4.0);
#141=CARTESIAN_POINT('',(199.722825958343150,147.724032469036730,4.0));
#142=VERTEX_POINT('',#141);
#143=CARTESIAN_POINT('',(199.722825958343150,147.724032469036730,22.0));
#144=VERTEX_POINT('',#143);
#145=CARTESIAN_POINT('',(199.722825958343150,147.724032469036730,4.0));
#146=DIRECTION('',(0.0,0.0,1.0));
#147=VECTOR('',#146,18.0);
#148=LINE('',#145,#147);
#149=EDGE_CURVE('',#142,#144,#148,.T.);
#150=ORIENTED_EDGE('',*,*,#149,.F.);
#151=CARTESIAN_POINT('',(207.722825958343150,147.724032469036730,4.0));
#152=VERTEX_POINT('',#151);
#153=CARTESIAN_POINT('',(203.722825958343150,147.724032469036730,4.0));
#154=DIRECTION('',(0.0,0.0,1.0));
#155=DIRECTION('',(-1.0,0.0,0.0));
#156=AXIS2_PLACEMENT_3D('',#153,#154,#155);
#157=CIRCLE('',#156,4.0);
#158=EDGE_CURVE('',#142,#152,#157,.T.);
#159=ORIENTED_EDGE('',*,*,#158,.T.);
#160=CARTESIAN_POINT('',(207.722825958343150,147.724032469036730,22.0));
#161=VERTEX_POINT('',#160);
#162=CARTESIAN_POINT('',(207.722825958343150,147.724032469036730,4.0));
#163=DIRECTION('',(0.0,0.0,1.0));
#164=VECTOR('',#163,18.0);
#165=LINE('',#162,#164);
#166=EDGE_CURVE('',#152,#161,#165,.T.);
#167=ORIENTED_EDGE('',*,*,#166,.T.);
#168=CARTESIAN_POINT('',(203.722825958343150,147.724032469036730,22.0));
#169=DIRECTION('',(0.0,0.0,1.0));
#170=DIRECTION('',(-1.0,0.0,0.0));
#171=AXIS2_PLACEMENT_3D('',#168,#169,#170);
#172=CIRCLE('',#171,4.0);
#173=EDGE_CURVE('',#144,#161,#172,.T.);
#174=ORIENTED_EDGE('',*,*,#173,.F.);
#175=EDGE_LOOP('',(#150,#159,#167,#174));
#176=FACE_OUTER_BOUND('',#175,.T.);
#177=ADVANCED_FACE('',(#176),#140,.T.);
#178=CARTESIAN_POINT('',(203.722825958343150,147.724032469036730,23.0));
#179=DIRECTION('',(0.0,0.0,1.0));
#180=DIRECTION('',(1.0,0.0,0.0));
#181=AXIS2_PLACEMENT_3D('',#178,#179,#180);
#182=CONICAL_SURFACE('',#181,5.0,44.999999999999993);
#183=CARTESIAN_POINT('',(209.722825958343150,147.724032469036730,24.0));
#184=VERTEX_POINT('',#183);
#185=CARTESIAN_POINT('',(209.722825958343150,147.724032469036730,24.0));
#186=DIRECTION('',(-0.707106781186547,0.0,-0.707106781186547));
#187=VECTOR('',#186,2.828427124746190);
#188=LINE('',#185,#187);
#189=EDGE_CURVE('',#184,#161,#188,.T.);
#190=ORIENTED_EDGE('',*,*,#189,.F.);
#191=CARTESIAN_POINT('',(197.722825958343150,147.724032469036790,24.0));
#192=VERTEX_POINT('',#191);
#193=CARTESIAN_POINT('',(203.722825958343150,147.724032469036730,24.0));
#194=DIRECTION('',(0.0,0.0,-1.0));
#195=DIRECTION('',(1.0,0.0,0.0));
#196=AXIS2_PLACEMENT_3D('',#193,#194,#195);
#197=CIRCLE('',#196,6.0);
#198=EDGE_CURVE('',#184,#192,#197,.T.);
#199=ORIENTED_EDGE('',*,*,#198,.T.);
#200=CARTESIAN_POINT('',(197.722825958343150,147.724032469036790,24.0));
#201=DIRECTION('',(0.707106781186547,-2.009718E-014,-0.707106781186547));
#202=VECTOR('',#201,2.828427124746190);
#203=LINE('',#200,#202);
#204=EDGE_CURVE('',#192,#144,#203,.T.);
#205=ORIENTED_EDGE('',*,*,#204,.T.);
#206=ORIENTED_EDGE('',*,*,#173,.T.);
#207=EDGE_LOOP('',(#190,#199,#205,#206));
#208=FACE_OUTER_BOUND('',#207,.T.);
#209=ADVANCED_FACE('',(#208),#182,.T.);
#210=CARTESIAN_POINT('',(203.722825958343150,147.724032469036730,3.0));
#211=DIRECTION('',(0.0,0.0,-1.0));
#212=DIRECTION('',(1.0,0.0,0.0));
#213=AXIS2_PLACEMENT_3D('',#210,#211,#212);
#214=CONICAL_SURFACE('',#213,5.0,44.999999999999993);
#215=CARTESIAN_POINT('',(209.722825958343150,147.724032469036730,2.0));
#216=VERTEX_POINT('',#215);
#217=CARTESIAN_POINT('',(209.722825958343150,147.724032469036730,2.0));
#218=DIRECTION('',(-0.707106781186547,0.0,0.707106781186547));
#219=VECTOR('',#218,2.828427124746190);
#220=LINE('',#217,#219);
#221=EDGE_CURVE('',#216,#152,#220,.T.);
#222=ORIENTED_EDGE('',*,*,#221,.F.);
#223=CARTESIAN_POINT('',(197.722825958343150,147.724032469036670,2.0));
#224=VERTEX_POINT('',#223);
#225=CARTESIAN_POINT('',(203.722825958343150,147.724032469036730,2.0));
#226=DIRECTION('',(0.0,0.0,1.0));
#227=DIRECTION('',(1.0,0.0,0.0));
#228=AXIS2_PLACEMENT_3D('',#225,#226,#227);
#229=CIRCLE('',#228,6.0);
#230=EDGE_CURVE('',#216,#224,#229,.T.);
#231=ORIENTED_EDGE('',*,*,#230,.T.);
#232=CARTESIAN_POINT('',(197.722825958343150,147.724032469036670,2.0));
#233=DIRECTION('',(0.707106781186547,2.009718E-014,0.707106781186547));
#234=VECTOR('',#233,2.828427124746190);
#235=LINE('',#232,#234);
#236=EDGE_CURVE('',#224,#142,#235,.T.);
#237=ORIENTED_EDGE('',*,*,#236,.T.);
#238=CARTESIAN_POINT('',(203.722825958343150,147.724032469036730,4.0));
#239=DIRECTION('',(0.0,0.0,1.0));
#240=DIRECTION('',(-1.0,0.0,0.0));
#241=AXIS2_PLACEMENT_3D('',#238,#239,#240);
#242=CIRCLE('',#241,4.0);
#243=EDGE_CURVE('',#152,#142,#242,.T.);
#244=ORIENTED_EDGE('',*,*,#243,.F.);
#245=EDGE_LOOP('',(#222,#231,#237,#244));
#246=FACE_OUTER_BOUND('',#245,.T.);
#247=ADVANCED_FACE('',(#246),#214,.T.);
#248=CARTESIAN_POINT('',(203.722825958343150,147.724032469036730,0.0));
#249=DIRECTION('',(0.0,0.0,1.0));
#250=DIRECTION('',(1.0,0.0,0.0));
#251=AXIS2_PLACEMENT_3D('',#248,#249,#250);
#252=CYLINDRICAL_SURFACE('',#251,6.0);
#253=CARTESIAN_POINT('',(209.722825958343150,147.724032469036700,0.500000000000000));
#254=VERTEX_POINT('',#253);
#255=CARTESIAN_POINT('',(209.722825958343150,147.724032469036730,2.0));
#256=DIRECTION('',(0.0,0.0,-1.0));
#257=VECTOR('',#256,1.500000000000000);
#258=LINE('',#255,#257);
#259=EDGE_CURVE('',#216,#254,#258,.T.);
#260=ORIENTED_EDGE('',*,*,#259,.F.);
#261=CARTESIAN_POINT('',(203.722825958343150,147.724032469036730,2.0));
#262=DIRECTION('',(0.0,0.0,1.0));
#263=DIRECTION('',(1.0,0.0,0.0));
#264=AXIS2_PLACEMENT_3D('',#261,#262,#263);
#265=CIRCLE('',#264,6.0);
#266=EDGE_CURVE('',#224,#216,#265,.T.);
#267=ORIENTED_EDGE('',*,*,#266,.F.);
#268=CARTESIAN_POINT('',(197.722825958343150,147.724032469036730,0.500000000000000));
#269=VERTEX_POINT('',#268);
#270=CARTESIAN_POINT('',(197.722825958343150,147.724032469036670,2.0));
#271=DIRECTION('',(0.0,0.0,-1.0));
#272=VECTOR('',#271,1.500000000000000);
#273=LINE('',#270,#272);
#274=EDGE_CURVE('',#224,#269,#273,.T.);
#275=ORIENTED_EDGE('',*,*,#274,.T.);
#276=CARTESIAN_POINT('',(203.722825958343150,147.724032469036730,0.500000000000000));
#277=DIRECTION('',(0.0,0.0,-1.0));
#278=DIRECTION('',(-1.0,0.0,0.0));
#279=AXIS2_PLACEMENT_3D('',#276,#277,#278);
#280=CIRCLE('',#279,6.0);
#281=EDGE_CURVE('',#254,#269,#280,.T.);
#282=ORIENTED_EDGE('',*,*,#281,.F.);
#283=EDGE_LOOP('',(#260,#267,#275,#282));
#284=FACE_OUTER_BOUND('',#283,.T.);
#285=ADVANCED_FACE('',(#284),#252,.T.);
#286=CARTESIAN_POINT('',(203.722825958343150,147.724032469036730,0.250000000000000));
#287=DIRECTION('',(0.0,0.0,1.0));
#288=DIRECTION('',(-1.0,0.0,0.0));
#289=AXIS2_PLACEMENT_3D('',#286,#287,#288);
#290=CONICAL_SURFACE('',#289,5.750000000000000,44.999999999999993);
#291=CARTESIAN_POINT('',(198.222825958343150,147.724032469036730,0.0));
#292=VERTEX_POINT('',#291);
#293=CARTESIAN_POINT('',(197.722825958343150,147.724032469036730,0.500000000000000));
#294=DIRECTION('',(0.707106781186547,0.0,-0.707106781186547));
#295=VECTOR('',#294,0.707106781186548);
#296=LINE('',#293,#295);
#297=EDGE_CURVE('',#269,#292,#296,.T.);
#298=ORIENTED_EDGE('',*,*,#297,.F.);
#299=CARTESIAN_POINT('',(203.722825958343150,147.724032469036730,0.500000000000000));
#300=DIRECTION('',(0.0,0.0,-1.0));
#301=DIRECTION('',(-1.0,0.0,0.0));
#302=AXIS2_PLACEMENT_3D('',#299,#300,#301);
#303=CIRCLE('',#302,6.0);
#304=EDGE_CURVE('',#269,#254,#303,.T.);
#305=ORIENTED_EDGE('',*,*,#304,.T.);
#306=CARTESIAN_POINT('',(209.222825958343150,147.724032469036700,0.0));
#307=VERTEX_POINT('',#306);
#308=CARTESIAN_POINT('',(209.722825958343150,147.724032469036700,0.500000000000000));
#309=DIRECTION('',(-0.707106781186547,0.0,-0.707106781186547));
#310=VECTOR('',#309,0.707106781186548);
#311=LINE('',#308,#310);
#312=EDGE_CURVE('',#254,#307,#311,.T.);
#313=ORIENTED_EDGE('',*,*,#312,.T.);
#314=CARTESIAN_POINT('',(203.722825958343150,147.724032469036730,0.0));
#315=DIRECTION('',(0.0,0.0,1.0));
#316=DIRECTION('',(-1.0,0.0,0.0));
#317=AXIS2_PLACEMENT_3D('',#314,#315,#316);
#318=CIRCLE('',#317,5.500000000000000);
#319=EDGE_CURVE('',#307,#292,#318,.T.);
#320=ORIENTED_EDGE('',*,*,#319,.T.);
#321=EDGE_LOOP('',(#298,#305,#313,#320));
#322=FACE_OUTER_BOUND('',#321,.T.);
#323=ADVANCED_FACE('',(#322),#290,.T.);
#324=CARTESIAN_POINT('',(203.722825958343150,147.724032469036730,0.0));
#325=DIRECTION('',(0.0,0.0,1.0));
#326=DIRECTION('',(1.0,0.0,0.0));
#327=AXIS2_PLACEMENT_3D('',#324,#325,#326);
#328=CYLINDRICAL_SURFACE('',#327,6.0);
#329=CARTESIAN_POINT('',(209.722825958343150,147.724032469036730,43.500000000000000));
#330=VERTEX_POINT('',#329);
#331=CARTESIAN_POINT('',(209.722825958343150,147.724032469036730,43.500000000000000));
#332=DIRECTION('',(0.0,0.0,-1.0));
#333=VECTOR('',#332,19.500000000000000);
#334=LINE('',#331,#333);
#335=EDGE_CURVE('',#330,#184,#334,.T.);
#336=ORIENTED_EDGE('',*,*,#335,.F.);
#337=CARTESIAN_POINT('',(197.722825958343150,147.724032469036730,43.500000000000000));
#338=VERTEX_POINT('',#337);
#339=CARTESIAN_POINT('',(203.722825958343150,147.724032469036730,43.500000000000000));
#340=DIRECTION('',(0.0,0.0,1.0));
#341=DIRECTION('',(-1.0,0.0,0.0));
#342=AXIS2_PLACEMENT_3D('',#339,#340,#341);
#343=CIRCLE('',#342,6.0);
#344=EDGE_CURVE('',#338,#330,#343,.T.);
#345=ORIENTED_EDGE('',*,*,#344,.F.);
#346=CARTESIAN_POINT('',(197.722825958343150,147.724032469036730,43.500000000000000));
#347=DIRECTION('',(0.0,0.0,-1.0));
#348=VECTOR('',#347,19.500000000000000);
#349=LINE('',#346,#348);
#350=EDGE_CURVE('',#338,#192,#349,.T.);
#351=ORIENTED_EDGE('',*,*,#350,.T.);
#352=ORIENTED_EDGE('',*,*,#198,.F.);
#353=EDGE_LOOP('',(#336,#345,#351,#352));
#354=FACE_OUTER_BOUND('',#353,.T.);
#355=ADVANCED_FACE('',(#354),#328,.T.);
#356=CARTESIAN_POINT('',(203.722825958343150,147.724032469036730,43.500000000000000));
#357=DIRECTION('',(0.0,0.0,-1.0));
#358=DIRECTION('',(-1.0,0.0,0.0));
#359=AXIS2_PLACEMENT_3D('',#356,#357,#358);
#360=TOROIDAL_SURFACE('',#359,5.500000000000000,0.500000000000000);
#361=CARTESIAN_POINT('',(198.222825958343150,147.724032469036730,44.0));
#362=VERTEX_POINT('',#361);
#363=CARTESIAN_POINT('',(198.222825958343150,147.724032469036730,43.500000000000000));
#364=DIRECTION('',(0.0,1.0,0.0));
#365=DIRECTION('',(-1.0,0.0,0.0));
#366=AXIS2_PLACEMENT_3D('',#363,#364,#365);
#367=CIRCLE('',#366,0.500000000000000);
#368=EDGE_CURVE('',#338,#362,#367,.T.);
#369=ORIENTED_EDGE('',*,*,#368,.F.);
#370=ORIENTED_EDGE('',*,*,#344,.T.);
#371=CARTESIAN_POINT('',(209.222825958343150,147.724032469036730,44.0));
#372=VERTEX_POINT('',#371);
#373=CARTESIAN_POINT('',(209.222825958343150,147.724032469036730,43.500000000000000));
#374=DIRECTION('',(0.0,-1.0,0.0));
#375=DIRECTION('',(1.0,0.0,0.0));
#376=AXIS2_PLACEMENT_3D('',#373,#374,#375);
#377=CIRCLE('',#376,0.500000000000000);
#378=EDGE_CURVE('',#330,#372,#377,.T.);
#379=ORIENTED_EDGE('',*,*,#378,.T.);
#380=CARTESIAN_POINT('',(203.722825958343150,147.724032469036730,44.0));
#381=DIRECTION('',(0.0,0.0,-1.0));
#382=DIRECTION('',(-1.0,0.0,0.0));
#383=AXIS2_PLACEMENT_3D('',#380,#381,#382);
#384=CIRCLE('',#383,5.500000000000000);
#385=EDGE_CURVE('',#372,#362,#384,.T.);
#386=ORIENTED_EDGE('',*,*,#385,.T.);
#387=EDGE_LOOP('',(#369,#370,#379,#386));
#388=FACE_OUTER_BOUND('',#387,.T.);
#389=ADVANCED_FACE('',(#388),#360,.T.);
#390=CARTESIAN_POINT('',(203.722825958343150,147.724032469036730,43.500000000000000));
#391=DIRECTION('',(0.0,0.0,-1.0));
#392=DIRECTION('',(-1.0,0.0,0.0));
#393=AXIS2_PLACEMENT_3D('',#390,#391,#392);
#394=TOROIDAL_SURFACE('',#393,5.500000000000000,0.500000000000000);
#395=ORIENTED_EDGE('',*,*,#368,.T.);
#396=CARTESIAN_POINT('',(203.722825958343150,147.724032469036730,44.0));
#397=DIRECTION('',(0.0,0.0,-1.0));
#398=DIRECTION('',(-1.0,0.0,0.0));
#399=AXIS2_PLACEMENT_3D('',#396,#397,#398);
#400=CIRCLE('',#399,5.500000000000000);
#401=EDGE_CURVE('',#362,#372,#400,.T.);
#402=ORIENTED_EDGE('',*,*,#401,.T.);
#403=ORIENTED_EDGE('',*,*,#378,.F.);
#404=CARTESIAN_POINT('',(203.722825958343150,147.724032469036730,43.500000000000000));
#405=DIRECTION('',(0.0,0.0,1.0));
#406=DIRECTION('',(-1.0,0.0,0.0));
#407=AXIS2_PLACEMENT_3D('',#404,#405,#406);
#408=CIRCLE('',#407,6.0);
#409=EDGE_CURVE('',#330,#338,#408,.T.);
#410=ORIENTED_EDGE('',*,*,#409,.T.);
#411=EDGE_LOOP('',(#395,#402,#403,#410));
#412=FACE_OUTER_BOUND('',#411,.T.);
#413=ADVANCED_FACE('',(#412),#394,.T.);
#414=CARTESIAN_POINT('',(203.722825958343150,147.724032469036730,0.0));
#415=DIRECTION('',(0.0,0.0,1.0));
#416=DIRECTION('',(1.0,0.0,0.0));
#417=AXIS2_PLACEMENT_3D('',#414,#415,#416);
#418=CYLINDRICAL_SURFACE('',#417,6.0);
#419=ORIENTED_EDGE('',*,*,#335,.T.);
#420=CARTESIAN_POINT('',(203.722825958343150,147.724032469036730,24.0));
#421=DIRECTION('',(0.0,0.0,-1.0));
#422=DIRECTION('',(1.0,0.0,0.0));
#423=AXIS2_PLACEMENT_3D('',#420,#421,#422);
#424=CIRCLE('',#423,6.0);
#425=EDGE_CURVE('',#192,#184,#424,.T.);
#426=ORIENTED_EDGE('',*,*,#425,.F.);
#427=ORIENTED_EDGE('',*,*,#350,.F.);
#428=ORIENTED_EDGE('',*,*,#409,.F.);
#429=EDGE_LOOP('',(#419,#426,#427,#428));
#430=FACE_OUTER_BOUND('',#429,.T.);
#431=ADVANCED_FACE('',(#430),#418,.T.);
#432=CARTESIAN_POINT('',(209.722825958343150,147.724032469036730,44.0));
#433=DIRECTION('',(0.0,0.0,1.0));
#434=DIRECTION('',(1.0,0.0,0.0));
#435=AXIS2_PLACEMENT_3D('',#432,#433,#434);
#436=PLANE('',#435);
#437=ORIENTED_EDGE('',*,*,#385,.F.);
#438=ORIENTED_EDGE('',*,*,#401,.F.);
#439=EDGE_LOOP('',(#437,#438));
#440=FACE_OUTER_BOUND('',#439,.T.);
#441=ADVANCED_FACE('',(#440),#436,.T.);
#442=CARTESIAN_POINT('',(203.722825958343150,147.724032469036730,0.250000000000000));
#443=DIRECTION('',(0.0,0.0,1.0));
#444=DIRECTION('',(-1.0,0.0,0.0));
#445=AXIS2_PLACEMENT_3D('',#442,#443,#444);
#446=CONICAL_SURFACE('',#445,5.750000000000000,44.999999999999993);
#447=ORIENTED_EDGE('',*,*,#297,.T.);
#448=CARTESIAN_POINT('',(203.722825958343150,147.724032469036730,0.0));
#449=DIRECTION('',(0.0,0.0,1.0));
#450=DIRECTION('',(-1.0,0.0,0.0));
#451=AXIS2_PLACEMENT_3D('',#448,#449,#450);
#452=CIRCLE('',#451,5.500000000000000);
#453=EDGE_CURVE('',#292,#307,#452,.T.);
#454=ORIENTED_EDGE('',*,*,#453,.T.);
#455=ORIENTED_EDGE('',*,*,#312,.F.);
#456=ORIENTED_EDGE('',*,*,#281,.T.);
#457=EDGE_LOOP('',(#447,#454,#455,#456));
#458=FACE_OUTER_BOUND('',#457,.T.);
#459=ADVANCED_FACE('',(#458),#446,.T.);
#460=CARTESIAN_POINT('',(203.722825958343150,147.724032469036730,0.0));
#461=DIRECTION('',(0.0,0.0,1.0));
#462=DIRECTION('',(1.0,0.0,0.0));
#463=AXIS2_PLACEMENT_3D('',#460,#461,#462);
#464=CYLINDRICAL_SURFACE('',#463,6.0);
#465=ORIENTED_EDGE('',*,*,#259,.T.);
#466=ORIENTED_EDGE('',*,*,#304,.F.);
#467=ORIENTED_EDGE('',*,*,#274,.F.);
#468=ORIENTED_EDGE('',*,*,#230,.F.);
#469=EDGE_LOOP('',(#465,#466,#467,#468));
#470=FACE_OUTER_BOUND('',#469,.T.);
#471=ADVANCED_FACE('',(#470),#464,.T.);
#472=CARTESIAN_POINT('',(203.722825958343180,147.724032469036730,0.0));
#473=DIRECTION('',(0.0,0.0,1.0));
#474=DIRECTION('',(1.0,0.0,0.0));
#475=AXIS2_PLACEMENT_3D('',#472,#473,#474);
#476=PLANE('',#475);
#477=ORIENTED_EDGE('',*,*,#319,.F.);
#478=ORIENTED_EDGE('',*,*,#453,.F.);
#479=EDGE_LOOP('',(#477,#478));
#480=FACE_OUTER_BOUND('',#479,.T.);
#481=ADVANCED_FACE('',(#480),#476,.F.);
#482=CARTESIAN_POINT('',(203.722825958343150,147.724032469036730,3.0));
#483=DIRECTION('',(0.0,0.0,-1.0));
#484=DIRECTION('',(1.0,0.0,0.0));
#485=AXIS2_PLACEMENT_3D('',#482,#483,#484);
#486=CONICAL_SURFACE('',#485,5.0,44.999999999999993);
#487=ORIENTED_EDGE('',*,*,#221,.T.);
#488=ORIENTED_EDGE('',*,*,#158,.F.);
#489=ORIENTED_EDGE('',*,*,#236,.F.);
#490=ORIENTED_EDGE('',*,*,#266,.T.);
#491=EDGE_LOOP('',(#487,#488,#489,#490));
#492=FACE_OUTER_BOUND('',#491,.T.);
#493=ADVANCED_FACE('',(#492),#486,.T.);
#494=CARTESIAN_POINT('',(203.722825958343150,147.724032469036730,23.0));
#495=DIRECTION('',(0.0,0.0,1.0));
#496=DIRECTION('',(1.0,0.0,0.0));
#497=AXIS2_PLACEMENT_3D('',#494,#495,#496);
#498=CONICAL_SURFACE('',#497,5.0,44.999999999999993);
#499=ORIENTED_EDGE('',*,*,#189,.T.);
#500=CARTESIAN_POINT('',(203.722825958343150,147.724032469036730,22.0));
#501=DIRECTION('',(0.0,0.0,1.0));
#502=DIRECTION('',(-1.0,0.0,0.0));
#503=AXIS2_PLACEMENT_3D('',#500,#501,#502);
#504=CIRCLE('',#503,4.0);
#505=EDGE_CURVE('',#161,#144,#504,.T.);
#506=ORIENTED_EDGE('',*,*,#505,.T.);
#507=ORIENTED_EDGE('',*,*,#204,.F.);
#508=ORIENTED_EDGE('',*,*,#425,.T.);
#509=EDGE_LOOP('',(#499,#506,#507,#508));
#510=FACE_OUTER_BOUND('',#509,.T.);
#511=ADVANCED_FACE('',(#510),#498,.T.);
#512=CARTESIAN_POINT('',(203.722825958343150,147.724032469036730,13.0));
#513=DIRECTION('',(0.0,0.0,1.0));
#514=DIRECTION('',(-1.0,0.0,0.0));
#515=AXIS2_PLACEMENT_3D('',#512,#513,#514);
#516=CYLINDRICAL_SURFACE('',#515,4.0);
#517=ORIENTED_EDGE('',*,*,#149,.T.);
#518=ORIENTED_EDGE('',*,*,#505,.F.);
#519=ORIENTED_EDGE('',*,*,#166,.F.);
#520=ORIENTED_EDGE('',*,*,#243,.T.);
#521=EDGE_LOOP('',(#517,#518,#519,#520));
#522=FACE_OUTER_BOUND('',#521,.T.);
#523=ADVANCED_FACE('',(#522),#516,.T.);
#524=CLOSED_SHELL('',(#177,#209,#247,#285,#323,#355,#389,#413,#431,#441,#459,#471,#481,#493,#511,#523));
#525=MANIFOLD_SOLID_BREP('1EE',#524);
#526=ADVANCED_BREP_SHAPE_REPRESENTATION('ABSR1',(#525),#129);
#527=SHAPE_REPRESENTATION_RELATIONSHIP('SRRPL1',' ',#526,#133);
#528=CARTESIAN_POINT('NONE',(0.0,147.724032469036730,-147.724032469036730));
#529=DIRECTION('NONE',(0.0,-1.0,6.123032E-017));
#530=DIRECTION('NONE',(1.0,0.0,0.0));
#531=AXIS2_PLACEMENT_3D('NONE',#528,#529,#530);
#532=ITEM_DEFINED_TRANSFORMATION('IDT1',' ',#121,#531);
#536=(REPRESENTATION_RELATIONSHIP(' ',' ',#133,#122)REPRESENTATION_RELATIONSHIP_WITH_TRANSFORMATION(#532)SHAPE_REPRESENTATION_RELATIONSHIP());
#537=NEXT_ASSEMBLY_USAGE_OCCURRENCE('NAUO1','PART1_1','PART1_1',#93,#132,$);
#538=PRODUCT_DEFINITION_SHAPE('PDS_NAUO1',' ',#537);
#539=CONTEXT_DEPENDENT_SHAPE_REPRESENTATION(#536,#538);
ENDSEC;
END-ISO-10303-21;
