ISO-10303-21;
HEADER;
/****************************************************************
 * Generated by software with PDE/Lib inside                    *
 * PDElib Version v51a, created Thu 12/14/2006                  *
 * International Technegroup Inc. (www.iti-oh.com)              *
 ****************************************************************/
FILE_DESCRIPTION((''),'2;1');
FILE_NAME('PP16-mdt.stp','2017-07-31T14:42:15',(''),(''),'Mechanical Desktop 2009','Mechanical Desktop 2009',', , ');
FILE_SCHEMA(('CONFIG_CONTROL_DESIGN'));
ENDSEC;
DATA;
#8=(NAMED_UNIT(*)PLANE_ANGLE_UNIT()SI_UNIT($,.RADIAN.));
#9=DIMENSIONAL_EXPONENTS(0.0,0.0,0.0,0.0,0.0,0.0,0.0);
#10=PLANE_ANGLE_MEASURE_WITH_UNIT(PLANE_ANGLE_MEASURE(0.017453292500000),#8);
#14=(CONVERSION_BASED_UNIT('DEGREE',#10)NAMED_UNIT(#9)PLANE_ANGLE_UNIT());
#18=(NAMED_UNIT(*)SI_UNIT($,.STERADIAN.)SOLID_ANGLE_UNIT());
#22=(LENGTH_UNIT()NAMED_UNIT(*)SI_UNIT(.MILLI.,.METRE.));
#23=UNCERTAINTY_MEASURE_WITH_UNIT(LENGTH_MEASURE(0.000001000000000),#22,'DISTANCE_ACCURACY_VALUE','');
#28=(GEOMETRIC_REPRESENTATION_CONTEXT(3)GLOBAL_UNCERTAINTY_ASSIGNED_CONTEXT((#23))GLOBAL_UNIT_ASSIGNED_CONTEXT((#14,#18,#22))REPRESENTATION_CONTEXT('None','None'));
#29=APPLICATION_CONTEXT('CONFIGURATION CONTROLLED 3D DESIGNS OF MECHANICAL PARTS AND ASSEMBLIES');
#30=APPLICATION_PROTOCOL_DEFINITION('INTERNATIONAL STANDARD','config_control_design',1995,#29);
#31=MECHANICAL_CONTEXT('3D Mechanical Parts',#29,'mechanical');
#32=PRODUCT('PP16-MDT','PP16-MDT',' ',(#31));
#33=PRODUCT_RELATED_PRODUCT_CATEGORY('detail',$,(#32,#130));
#34=PRODUCT_CATEGORY('part',$);
#35=PRODUCT_CATEGORY_RELATIONSHIP('None','None',#34,#33);
#36=PERSON('1','Design','Joe',$,$,$);
#37=ORGANIZATION($,'None','None');
#38=PERSON_AND_ORGANIZATION(#36,#37);
#39=PERSON_AND_ORGANIZATION_ROLE('design_owner');
#40=CC_DESIGN_PERSON_AND_ORGANIZATION_ASSIGNMENT(#38,#39,(#32,#130));
#41=PRODUCT_DEFINITION_FORMATION_WITH_SPECIFIED_SOURCE('None','None',#32,.NOT_KNOWN.);
#42=PERSON('2','Creator','Joe',$,$,$);
#43=ORGANIZATION($,'None','None');
#44=PERSON_AND_ORGANIZATION(#42,#43);
#45=PERSON_AND_ORGANIZATION_ROLE('creator');
#46=CC_DESIGN_PERSON_AND_ORGANIZATION_ASSIGNMENT(#44,#45,(#41,#131));
#47=PERSON('3','Supplier','Joe',$,$,$);
#48=ORGANIZATION($,'None','None');
#49=PERSON_AND_ORGANIZATION(#47,#48);
#50=PERSON_AND_ORGANIZATION_ROLE('design_supplier');
#51=CC_DESIGN_PERSON_AND_ORGANIZATION_ASSIGNMENT(#49,#50,(#41,#131));
#52=APPROVAL_STATUS('approved');
#53=APPROVAL(#52,'None');
#54=PERSON('4','Approver','Joe',$,$,$);
#55=ORGANIZATION($,'None','None');
#56=PERSON_AND_ORGANIZATION(#54,#55);
#57=APPROVAL_ROLE('approver');
#58=APPROVAL_PERSON_ORGANIZATION(#56,#53,#57);
#59=COORDINATED_UNIVERSAL_TIME_OFFSET(8,$,.BEHIND.);
#60=CALENDAR_DATE(1996,29,5);
#61=LOCAL_TIME(12,0,0.0,#59);
#62=DATE_AND_TIME(#60,#61);
#63=APPROVAL_DATE_TIME(#62,#53);
#64=CC_DESIGN_APPROVAL(#53,(#41,#131));
#65=SECURITY_CLASSIFICATION_LEVEL('unclassified');
#66=SECURITY_CLASSIFICATION('security','None',#65);
#67=CC_DESIGN_SECURITY_CLASSIFICATION(#66,(#41,#131,#567));
#68=APPROVAL_STATUS('approved');
#69=APPROVAL(#68,'None');
#70=PERSON('5','Approver','Joe',$,$,$);
#71=ORGANIZATION($,'None','None');
#72=PERSON_AND_ORGANIZATION(#70,#71);
#73=APPROVAL_ROLE('approver');
#74=APPROVAL_PERSON_ORGANIZATION(#72,#69,#73);
#75=COORDINATED_UNIVERSAL_TIME_OFFSET(8,$,.BEHIND.);
#76=CALENDAR_DATE(1996,29,5);
#77=LOCAL_TIME(12,0,0.0,#75);
#78=DATE_AND_TIME(#76,#77);
#79=APPROVAL_DATE_TIME(#78,#69);
#80=CC_DESIGN_APPROVAL(#69,(#66));
#81=PERSON('6','Classifier','Joe',$,$,$);
#82=ORGANIZATION($,'None','None');
#83=PERSON_AND_ORGANIZATION(#81,#82);
#84=PERSON_AND_ORGANIZATION_ROLE('classification_officer');
#85=CC_DESIGN_PERSON_AND_ORGANIZATION_ASSIGNMENT(#83,#84,(#66));
#86=COORDINATED_UNIVERSAL_TIME_OFFSET(8,$,.BEHIND.);
#87=CALENDAR_DATE(1996,29,5);
#88=LOCAL_TIME(12,0,0.0,#86);
#89=DATE_AND_TIME(#87,#88);
#90=DATE_TIME_ROLE('classification_date');
#91=CC_DESIGN_DATE_AND_TIME_ASSIGNMENT(#89,#90,(#66));
#92=DESIGN_CONTEXT('Design Context',#29,'design');
#93=PRODUCT_DEFINITION('None','None',#41,#92);
#94=PERSON('7','Creator','Joe',$,$,$);
#95=ORGANIZATION($,'None','None');
#96=PERSON_AND_ORGANIZATION(#94,#95);
#97=PERSON_AND_ORGANIZATION_ROLE('creator');
#98=CC_DESIGN_PERSON_AND_ORGANIZATION_ASSIGNMENT(#96,#97,(#93,#132));
#99=COORDINATED_UNIVERSAL_TIME_OFFSET(8,$,.BEHIND.);
#100=CALENDAR_DATE(1996,29,5);
#101=LOCAL_TIME(12,0,0.0,#99);
#102=DATE_AND_TIME(#100,#101);
#103=DATE_TIME_ROLE('creation_date');
#104=CC_DESIGN_DATE_AND_TIME_ASSIGNMENT(#102,#103,(#93,#132));
#105=APPROVAL_STATUS('approved');
#106=APPROVAL(#105,'None');
#107=PERSON('8','Approver','Joe',$,$,$);
#108=ORGANIZATION($,'None','None');
#109=PERSON_AND_ORGANIZATION(#107,#108);
#110=APPROVAL_ROLE('approver');
#111=APPROVAL_PERSON_ORGANIZATION(#109,#106,#110);
#112=COORDINATED_UNIVERSAL_TIME_OFFSET(8,$,.BEHIND.);
#113=CALENDAR_DATE(1996,29,5);
#114=LOCAL_TIME(12,0,0.0,#112);
#115=DATE_AND_TIME(#113,#114);
#116=APPROVAL_DATE_TIME(#115,#106);
#117=CC_DESIGN_APPROVAL(#106,(#93,#132));
#118=CARTESIAN_POINT('NONE',(0.0,0.0,0.0));
#119=DIRECTION('NONE',(0.0,0.0,1.0));
#120=DIRECTION('NONE',(1.0,0.0,0.0));
#121=AXIS2_PLACEMENT_3D('NONE',#118,#119,#120);
#122=SHAPE_REPRESENTATION('SR1',(#121,#561),#28);
#123=PRODUCT_DEFINITION_SHAPE('PDS1','Test Part',#93);
#124=SHAPE_DEFINITION_REPRESENTATION(#123,#122);
#129=(GEOMETRIC_REPRESENTATION_CONTEXT(3)GLOBAL_UNCERTAINTY_ASSIGNED_CONTEXT((#23))GLOBAL_UNIT_ASSIGNED_CONTEXT((#14,#18,#22))REPRESENTATION_CONTEXT('Component','Component'));
#130=PRODUCT('PART1','PART1',' ',(#31));
#131=PRODUCT_DEFINITION_FORMATION_WITH_SPECIFIED_SOURCE('None','None',#130,.NOT_KNOWN.);
#132=PRODUCT_DEFINITION('None','None',#131,#92);
#133=SHAPE_REPRESENTATION('SR2',(#121),#129);
#134=PRODUCT_DEFINITION_SHAPE('PDS2','Test Part',#132);
#135=SHAPE_DEFINITION_REPRESENTATION(#134,#133);
#136=CARTESIAN_POINT('',(0.0,2.500000000000000,0.0));
#137=DIRECTION('',(0.0,-1.0,0.0));
#138=DIRECTION('',(-1.0,0.0,0.0));
#139=AXIS2_PLACEMENT_3D('',#136,#137,#138);
#140=CONICAL_SURFACE('',#139,6.500000000000000,44.999999999999986);
#141=CARTESIAN_POINT('',(-8.0,1.0,0.0));
#142=VERTEX_POINT('',#141);
#143=CARTESIAN_POINT('',(-5.0,4.0,0.0));
#144=VERTEX_POINT('',#143);
#145=CARTESIAN_POINT('',(-8.0,1.0,0.0));
#146=DIRECTION('',(0.707106781186548,0.707106781186548,0.0));
#147=VECTOR('',#146,4.242640687119285);
#148=LINE('',#145,#147);
#149=EDGE_CURVE('',#142,#144,#148,.T.);
#150=ORIENTED_EDGE('',*,*,#149,.F.);
#151=CARTESIAN_POINT('',(8.0,1.0,0.0));
#152=VERTEX_POINT('',#151);
#153=CARTESIAN_POINT('',(0.0,1.0,0.0));
#154=DIRECTION('',(0.0,-1.0,0.0));
#155=DIRECTION('',(1.0,0.0,0.0));
#156=AXIS2_PLACEMENT_3D('',#153,#154,#155);
#157=CIRCLE('',#156,8.0);
#158=EDGE_CURVE('',#152,#142,#157,.T.);
#159=ORIENTED_EDGE('',*,*,#158,.F.);
#160=CARTESIAN_POINT('',(5.0,4.0,-6.123032E-016));
#161=VERTEX_POINT('',#160);
#162=CARTESIAN_POINT('',(8.0,1.0,0.0));
#163=DIRECTION('',(-0.707106781186548,0.707106781186548,-1.443212E-016));
#164=VECTOR('',#163,4.242640687119285);
#165=LINE('',#162,#164);
#166=EDGE_CURVE('',#152,#161,#165,.T.);
#167=ORIENTED_EDGE('',*,*,#166,.T.);
#168=CARTESIAN_POINT('',(0.0,4.0,0.0));
#169=DIRECTION('',(0.0,1.0,0.0));
#170=DIRECTION('',(-1.0,0.0,0.0));
#171=AXIS2_PLACEMENT_3D('',#168,#169,#170);
#172=CIRCLE('',#171,5.0);
#173=EDGE_CURVE('',#144,#161,#172,.T.);
#174=ORIENTED_EDGE('',*,*,#173,.F.);
#175=EDGE_LOOP('',(#150,#159,#167,#174));
#176=FACE_OUTER_BOUND('',#175,.T.);
#177=ADVANCED_FACE('',(#176),#140,.T.);
#178=CARTESIAN_POINT('',(0.0,10.500000000000000,0.0));
#179=DIRECTION('',(0.0,1.0,0.0));
#180=DIRECTION('',(-1.0,0.0,0.0));
#181=AXIS2_PLACEMENT_3D('',#178,#179,#180);
#182=CYLINDRICAL_SURFACE('',#181,5.0);
#183=CARTESIAN_POINT('',(-5.0,17.0,0.0));
#184=VERTEX_POINT('',#183);
#185=CARTESIAN_POINT('',(-5.0,4.0,0.0));
#186=DIRECTION('',(0.0,1.0,0.0));
#187=VECTOR('',#186,13.0);
#188=LINE('',#185,#187);
#189=EDGE_CURVE('',#144,#184,#188,.T.);
#190=ORIENTED_EDGE('',*,*,#189,.F.);
#191=ORIENTED_EDGE('',*,*,#173,.T.);
#192=CARTESIAN_POINT('',(4.999999999999998,17.0,0.0));
#193=VERTEX_POINT('',#192);
#194=CARTESIAN_POINT('',(5.0,4.0,-6.123032E-016));
#195=DIRECTION('',(0.0,1.0,0.0));
#196=VECTOR('',#195,13.0);
#197=LINE('',#194,#196);
#198=EDGE_CURVE('',#161,#193,#197,.T.);
#199=ORIENTED_EDGE('',*,*,#198,.T.);
#200=CARTESIAN_POINT('',(0.0,17.0,0.0));
#201=DIRECTION('',(0.0,1.0,0.0));
#202=DIRECTION('',(-1.0,0.0,0.0));
#203=AXIS2_PLACEMENT_3D('',#200,#201,#202);
#204=CIRCLE('',#203,5.0);
#205=EDGE_CURVE('',#184,#193,#204,.T.);
#206=ORIENTED_EDGE('',*,*,#205,.F.);
#207=EDGE_LOOP('',(#190,#191,#199,#206));
#208=FACE_OUTER_BOUND('',#207,.T.);
#209=ADVANCED_FACE('',(#208),#182,.T.);
#210=CARTESIAN_POINT('',(0.0,18.500000000000000,0.0));
#211=DIRECTION('',(0.0,1.0,0.0));
#212=DIRECTION('',(1.0,0.0,0.0));
#213=AXIS2_PLACEMENT_3D('',#210,#211,#212);
#214=CONICAL_SURFACE('',#213,6.500000000000000,45.000000000000007);
#215=CARTESIAN_POINT('',(8.0,20.0,0.0));
#216=VERTEX_POINT('',#215);
#217=CARTESIAN_POINT('',(8.0,20.0,0.0));
#218=DIRECTION('',(-0.707106781186548,-0.707106781186547,0.0));
#219=VECTOR('',#218,4.242640687119287);
#220=LINE('',#217,#219);
#221=EDGE_CURVE('',#216,#193,#220,.T.);
#222=ORIENTED_EDGE('',*,*,#221,.F.);
#223=CARTESIAN_POINT('',(-8.0,20.0,-5.586373E-014));
#224=VERTEX_POINT('',#223);
#225=CARTESIAN_POINT('',(0.0,20.0,0.0));
#226=DIRECTION('',(0.0,-1.0,0.0));
#227=DIRECTION('',(1.0,0.0,0.0));
#228=AXIS2_PLACEMENT_3D('',#225,#226,#227);
#229=CIRCLE('',#228,8.0);
#230=EDGE_CURVE('',#216,#224,#229,.T.);
#231=ORIENTED_EDGE('',*,*,#230,.T.);
#232=CARTESIAN_POINT('',(-8.0,20.0,-5.586373E-014));
#233=DIRECTION('',(0.707106781186548,-0.707106781186548,1.316721E-014));
#234=VECTOR('',#233,4.242640687119285);
#235=LINE('',#232,#234);
#236=EDGE_CURVE('',#224,#184,#235,.T.);
#237=ORIENTED_EDGE('',*,*,#236,.T.);
#238=ORIENTED_EDGE('',*,*,#205,.T.);
#239=EDGE_LOOP('',(#222,#231,#237,#238));
#240=FACE_OUTER_BOUND('',#239,.T.);
#241=ADVANCED_FACE('',(#240),#214,.T.);
#242=CARTESIAN_POINT('',(0.0,-23.0,0.0));
#243=DIRECTION('',(0.0,1.0,0.0));
#244=DIRECTION('',(1.0,0.0,0.0));
#245=AXIS2_PLACEMENT_3D('',#242,#243,#244);
#246=CYLINDRICAL_SURFACE('',#245,8.0);
#247=CARTESIAN_POINT('',(8.0,22.500000000000000,-5.586373E-014));
#248=VERTEX_POINT('',#247);
#249=CARTESIAN_POINT('',(8.0,22.500000000000000,-5.586373E-014));
#250=DIRECTION('',(0.0,-1.0,0.0));
#251=VECTOR('',#250,2.500000000000000);
#252=LINE('',#249,#251);
#253=EDGE_CURVE('',#248,#216,#252,.T.);
#254=ORIENTED_EDGE('',*,*,#253,.F.);
#255=CARTESIAN_POINT('',(-8.0,22.500000000000000,0.0));
#256=VERTEX_POINT('',#255);
#257=CARTESIAN_POINT('',(0.0,22.500000000000000,0.0));
#258=DIRECTION('',(0.0,1.0,0.0));
#259=DIRECTION('',(-1.0,0.0,0.0));
#260=AXIS2_PLACEMENT_3D('',#257,#258,#259);
#261=CIRCLE('',#260,8.0);
#262=EDGE_CURVE('',#256,#248,#261,.T.);
#263=ORIENTED_EDGE('',*,*,#262,.F.);
#264=CARTESIAN_POINT('',(-8.0,22.500000000000000,0.0));
#265=DIRECTION('',(0.0,-1.0,0.0));
#266=VECTOR('',#265,2.500000000000000);
#267=LINE('',#264,#266);
#268=EDGE_CURVE('',#256,#224,#267,.T.);
#269=ORIENTED_EDGE('',*,*,#268,.T.);
#270=ORIENTED_EDGE('',*,*,#230,.F.);
#271=EDGE_LOOP('',(#254,#263,#269,#270));
#272=FACE_OUTER_BOUND('',#271,.T.);
#273=ADVANCED_FACE('',(#272),#246,.T.);
#274=CARTESIAN_POINT('',(0.0,22.750000000000000,0.0));
#275=DIRECTION('',(0.0,-1.0,0.0));
#276=DIRECTION('',(-1.0,0.0,0.0));
#277=AXIS2_PLACEMENT_3D('',#274,#275,#276);
#278=CONICAL_SURFACE('',#277,7.750000000000000,44.999999999999993);
#279=CARTESIAN_POINT('',(-7.500000000000000,23.0,0.0));
#280=VERTEX_POINT('',#279);
#281=CARTESIAN_POINT('',(-8.0,22.500000000000000,0.0));
#282=DIRECTION('',(0.707106781186547,0.707106781186547,0.0));
#283=VECTOR('',#282,0.707106781186548);
#284=LINE('',#281,#283);
#285=EDGE_CURVE('',#256,#280,#284,.T.);
#286=ORIENTED_EDGE('',*,*,#285,.F.);
#287=ORIENTED_EDGE('',*,*,#262,.T.);
#288=CARTESIAN_POINT('',(7.500000000000000,23.0,-5.237225E-014));
#289=VERTEX_POINT('',#288);
#290=CARTESIAN_POINT('',(8.0,22.500000000000000,-5.586373E-014));
#291=DIRECTION('',(-0.707106781186547,0.707106781186547,4.937703E-015));
#292=VECTOR('',#291,0.707106781186548);
#293=LINE('',#290,#292);
#294=EDGE_CURVE('',#248,#289,#293,.T.);
#295=ORIENTED_EDGE('',*,*,#294,.T.);
#296=CARTESIAN_POINT('',(0.0,23.0,0.0));
#297=DIRECTION('',(0.0,-1.0,0.0));
#298=DIRECTION('',(-1.0,0.0,0.0));
#299=AXIS2_PLACEMENT_3D('',#296,#297,#298);
#300=CIRCLE('',#299,7.500000000000000);
#301=EDGE_CURVE('',#289,#280,#300,.T.);
#302=ORIENTED_EDGE('',*,*,#301,.T.);
#303=EDGE_LOOP('',(#286,#287,#295,#302));
#304=FACE_OUTER_BOUND('',#303,.T.);
#305=ADVANCED_FACE('',(#304),#278,.T.);
#306=CARTESIAN_POINT('',(0.0,-23.0,0.0));
#307=DIRECTION('',(0.0,1.0,0.0));
#308=DIRECTION('',(1.0,0.0,0.0));
#309=AXIS2_PLACEMENT_3D('',#306,#307,#308);
#310=CYLINDRICAL_SURFACE('',#309,8.0);
#311=CARTESIAN_POINT('',(8.0,-22.500000000000000,0.0));
#312=VERTEX_POINT('',#311);
#313=CARTESIAN_POINT('',(8.0,1.0,0.0));
#314=DIRECTION('',(0.0,-1.0,0.0));
#315=VECTOR('',#314,23.500000000000000);
#316=LINE('',#313,#315);
#317=EDGE_CURVE('',#152,#312,#316,.T.);
#318=ORIENTED_EDGE('',*,*,#317,.F.);
#319=ORIENTED_EDGE('',*,*,#158,.T.);
#320=CARTESIAN_POINT('',(-8.0,-22.500000000000000,9.796851E-016));
#321=VERTEX_POINT('',#320);
#322=CARTESIAN_POINT('',(-8.0,1.0,0.0));
#323=DIRECTION('',(0.0,-1.0,0.0));
#324=VECTOR('',#323,23.500000000000000);
#325=LINE('',#322,#324);
#326=EDGE_CURVE('',#142,#321,#325,.T.);
#327=ORIENTED_EDGE('',*,*,#326,.T.);
#328=CARTESIAN_POINT('',(-9.796851E-016,-22.500000000000000,8.0));
#329=VERTEX_POINT('',#328);
#330=CARTESIAN_POINT('',(0.0,-22.500000000000000,0.0));
#331=DIRECTION('',(0.0,-1.0,0.0));
#332=DIRECTION('',(-1.0,0.0,0.0));
#333=AXIS2_PLACEMENT_3D('',#330,#331,#332);
#334=CIRCLE('',#333,8.0);
#335=EDGE_CURVE('',#329,#321,#334,.T.);
#336=ORIENTED_EDGE('',*,*,#335,.F.);
#337=CARTESIAN_POINT('',(0.0,-22.500000000000000,0.0));
#338=DIRECTION('',(0.0,-1.0,0.0));
#339=DIRECTION('',(-1.0,0.0,0.0));
#340=AXIS2_PLACEMENT_3D('',#337,#338,#339);
#341=CIRCLE('',#340,8.0);
#342=EDGE_CURVE('',#312,#329,#341,.T.);
#343=ORIENTED_EDGE('',*,*,#342,.F.);
#344=EDGE_LOOP('',(#318,#319,#327,#336,#343));
#345=FACE_OUTER_BOUND('',#344,.T.);
#346=ADVANCED_FACE('',(#345),#310,.T.);
#347=CARTESIAN_POINT('',(0.0,-22.500000000000000,0.0));
#348=DIRECTION('',(0.0,-1.0,0.0));
#349=DIRECTION('',(0.0,0.0,-1.0));
#350=AXIS2_PLACEMENT_3D('',#347,#348,#349);
#351=TOROIDAL_SURFACE('',#350,7.500000000000000,0.500000000000000);
#352=CARTESIAN_POINT('',(0.0,-23.0,-7.500000000000000));
#353=VERTEX_POINT('',#352);
#354=CARTESIAN_POINT('',(0.0,-22.500000000000000,-8.0));
#355=VERTEX_POINT('',#354);
#356=CARTESIAN_POINT('',(0.0,-22.500000000000000,-7.500000000000000));
#357=DIRECTION('',(1.0,0.0,0.0));
#358=DIRECTION('',(0.0,0.0,-1.0));
#359=AXIS2_PLACEMENT_3D('',#356,#357,#358);
#360=CIRCLE('',#359,0.500000000000000);
#361=EDGE_CURVE('',#353,#355,#360,.T.);
#362=ORIENTED_EDGE('',*,*,#361,.F.);
#363=CARTESIAN_POINT('',(-9.184548E-016,-23.0,7.500000000000000));
#364=VERTEX_POINT('',#363);
#365=CARTESIAN_POINT('',(0.0,-23.0,0.0));
#366=DIRECTION('',(0.0,1.0,0.0));
#367=DIRECTION('',(-1.0,0.0,0.0));
#368=AXIS2_PLACEMENT_3D('',#365,#366,#367);
#369=CIRCLE('',#368,7.500000000000000);
#370=EDGE_CURVE('',#353,#364,#369,.T.);
#371=ORIENTED_EDGE('',*,*,#370,.T.);
#372=CARTESIAN_POINT('',(-9.184548E-016,-22.500000000000000,7.500000000000000));
#373=DIRECTION('',(-1.0,0.0,0.0));
#374=DIRECTION('',(0.0,0.0,1.0));
#375=AXIS2_PLACEMENT_3D('',#372,#373,#374);
#376=CIRCLE('',#375,0.500000000000000);
#377=EDGE_CURVE('',#364,#329,#376,.T.);
#378=ORIENTED_EDGE('',*,*,#377,.T.);
#379=ORIENTED_EDGE('',*,*,#335,.T.);
#380=CARTESIAN_POINT('',(0.0,-22.500000000000000,0.0));
#381=DIRECTION('',(0.0,-1.0,0.0));
#382=DIRECTION('',(-1.0,0.0,0.0));
#383=AXIS2_PLACEMENT_3D('',#380,#381,#382);
#384=CIRCLE('',#383,8.0);
#385=EDGE_CURVE('',#321,#355,#384,.T.);
#386=ORIENTED_EDGE('',*,*,#385,.T.);
#387=EDGE_LOOP('',(#362,#371,#378,#379,#386));
#388=FACE_OUTER_BOUND('',#387,.T.);
#389=ADVANCED_FACE('',(#388),#351,.T.);
#390=CARTESIAN_POINT('',(0.0,-22.500000000000000,0.0));
#391=DIRECTION('',(0.0,-1.0,0.0));
#392=DIRECTION('',(0.0,0.0,-1.0));
#393=AXIS2_PLACEMENT_3D('',#390,#391,#392);
#394=TOROIDAL_SURFACE('',#393,7.500000000000000,0.500000000000000);
#395=ORIENTED_EDGE('',*,*,#361,.T.);
#396=CARTESIAN_POINT('',(0.0,-22.500000000000000,0.0));
#397=DIRECTION('',(0.0,-1.0,0.0));
#398=DIRECTION('',(-1.0,0.0,0.0));
#399=AXIS2_PLACEMENT_3D('',#396,#397,#398);
#400=CIRCLE('',#399,8.0);
#401=EDGE_CURVE('',#355,#312,#400,.T.);
#402=ORIENTED_EDGE('',*,*,#401,.T.);
#403=ORIENTED_EDGE('',*,*,#342,.T.);
#404=ORIENTED_EDGE('',*,*,#377,.F.);
#405=CARTESIAN_POINT('',(7.500000000000000,-23.0,0.0));
#406=VERTEX_POINT('',#405);
#407=CARTESIAN_POINT('',(0.0,-23.0,0.0));
#408=DIRECTION('',(0.0,1.0,0.0));
#409=DIRECTION('',(-1.0,0.0,0.0));
#410=AXIS2_PLACEMENT_3D('',#407,#408,#409);
#411=CIRCLE('',#410,7.500000000000000);
#412=EDGE_CURVE('',#364,#406,#411,.T.);
#413=ORIENTED_EDGE('',*,*,#412,.T.);
#414=CARTESIAN_POINT('',(0.0,-23.0,0.0));
#415=DIRECTION('',(0.0,1.0,0.0));
#416=DIRECTION('',(-1.0,0.0,0.0));
#417=AXIS2_PLACEMENT_3D('',#414,#415,#416);
#418=CIRCLE('',#417,7.500000000000000);
#419=EDGE_CURVE('',#406,#353,#418,.T.);
#420=ORIENTED_EDGE('',*,*,#419,.T.);
#421=EDGE_LOOP('',(#395,#402,#403,#404,#413,#420));
#422=FACE_OUTER_BOUND('',#421,.T.);
#423=ADVANCED_FACE('',(#422),#394,.T.);
#424=CARTESIAN_POINT('',(0.0,-23.0,0.0));
#425=DIRECTION('',(0.0,1.0,0.0));
#426=DIRECTION('',(1.0,0.0,0.0));
#427=AXIS2_PLACEMENT_3D('',#424,#425,#426);
#428=CYLINDRICAL_SURFACE('',#427,8.0);
#429=ORIENTED_EDGE('',*,*,#317,.T.);
#430=ORIENTED_EDGE('',*,*,#401,.F.);
#431=ORIENTED_EDGE('',*,*,#385,.F.);
#432=ORIENTED_EDGE('',*,*,#326,.F.);
#433=CARTESIAN_POINT('',(0.0,1.0,0.0));
#434=DIRECTION('',(0.0,-1.0,0.0));
#435=DIRECTION('',(1.0,0.0,0.0));
#436=AXIS2_PLACEMENT_3D('',#433,#434,#435);
#437=CIRCLE('',#436,8.0);
#438=EDGE_CURVE('',#142,#152,#437,.T.);
#439=ORIENTED_EDGE('',*,*,#438,.T.);
#440=EDGE_LOOP('',(#429,#430,#431,#432,#439));
#441=FACE_OUTER_BOUND('',#440,.T.);
#442=ADVANCED_FACE('',(#441),#428,.T.);
#443=CARTESIAN_POINT('',(1.080617E-014,-23.0,-1.865175E-014));
#444=DIRECTION('',(0.0,-1.0,0.0));
#445=DIRECTION('',(0.0,0.0,-1.0));
#446=AXIS2_PLACEMENT_3D('',#443,#444,#445);
#447=PLANE('',#446);
#448=ORIENTED_EDGE('',*,*,#419,.F.);
#449=ORIENTED_EDGE('',*,*,#412,.F.);
#450=ORIENTED_EDGE('',*,*,#370,.F.);
#451=EDGE_LOOP('',(#448,#449,#450));
#452=FACE_OUTER_BOUND('',#451,.T.);
#453=ADVANCED_FACE('',(#452),#447,.T.);
#454=CARTESIAN_POINT('',(0.0,22.750000000000000,0.0));
#455=DIRECTION('',(0.0,-1.0,0.0));
#456=DIRECTION('',(-1.0,0.0,0.0));
#457=AXIS2_PLACEMENT_3D('',#454,#455,#456);
#458=CONICAL_SURFACE('',#457,7.750000000000000,44.999999999999993);
#459=ORIENTED_EDGE('',*,*,#285,.T.);
#460=CARTESIAN_POINT('',(0.0,23.0,0.0));
#461=DIRECTION('',(0.0,-1.0,0.0));
#462=DIRECTION('',(-1.0,0.0,0.0));
#463=AXIS2_PLACEMENT_3D('',#460,#461,#462);
#464=CIRCLE('',#463,7.500000000000000);
#465=EDGE_CURVE('',#280,#289,#464,.T.);
#466=ORIENTED_EDGE('',*,*,#465,.T.);
#467=ORIENTED_EDGE('',*,*,#294,.F.);
#468=CARTESIAN_POINT('',(0.0,22.500000000000000,0.0));
#469=DIRECTION('',(0.0,1.0,0.0));
#470=DIRECTION('',(-1.0,0.0,0.0));
#471=AXIS2_PLACEMENT_3D('',#468,#469,#470);
#472=CIRCLE('',#471,8.0);
#473=EDGE_CURVE('',#248,#256,#472,.T.);
#474=ORIENTED_EDGE('',*,*,#473,.T.);
#475=EDGE_LOOP('',(#459,#466,#467,#474));
#476=FACE_OUTER_BOUND('',#475,.T.);
#477=ADVANCED_FACE('',(#476),#458,.T.);
#478=CARTESIAN_POINT('',(0.0,-23.0,0.0));
#479=DIRECTION('',(0.0,1.0,0.0));
#480=DIRECTION('',(1.0,0.0,0.0));
#481=AXIS2_PLACEMENT_3D('',#478,#479,#480);
#482=CYLINDRICAL_SURFACE('',#481,8.0);
#483=ORIENTED_EDGE('',*,*,#253,.T.);
#484=CARTESIAN_POINT('',(0.0,20.0,0.0));
#485=DIRECTION('',(0.0,-1.0,0.0));
#486=DIRECTION('',(1.0,0.0,0.0));
#487=AXIS2_PLACEMENT_3D('',#484,#485,#486);
#488=CIRCLE('',#487,8.0);
#489=EDGE_CURVE('',#224,#216,#488,.T.);
#490=ORIENTED_EDGE('',*,*,#489,.F.);
#491=ORIENTED_EDGE('',*,*,#268,.F.);
#492=ORIENTED_EDGE('',*,*,#473,.F.);
#493=EDGE_LOOP('',(#483,#490,#491,#492));
#494=FACE_OUTER_BOUND('',#493,.T.);
#495=ADVANCED_FACE('',(#494),#482,.T.);
#496=CARTESIAN_POINT('',(8.0,23.0,0.0));
#497=DIRECTION('',(0.0,-1.0,0.0));
#498=DIRECTION('',(0.0,0.0,-1.0));
#499=AXIS2_PLACEMENT_3D('',#496,#497,#498);
#500=PLANE('',#499);
#501=ORIENTED_EDGE('',*,*,#301,.F.);
#502=ORIENTED_EDGE('',*,*,#465,.F.);
#503=EDGE_LOOP('',(#501,#502));
#504=FACE_OUTER_BOUND('',#503,.T.);
#505=ADVANCED_FACE('',(#504),#500,.F.);
#506=CARTESIAN_POINT('',(0.0,18.500000000000000,0.0));
#507=DIRECTION('',(0.0,1.0,0.0));
#508=DIRECTION('',(1.0,0.0,0.0));
#509=AXIS2_PLACEMENT_3D('',#506,#507,#508);
#510=CONICAL_SURFACE('',#509,6.500000000000000,45.000000000000007);
#511=ORIENTED_EDGE('',*,*,#221,.T.);
#512=CARTESIAN_POINT('',(0.0,17.0,0.0));
#513=DIRECTION('',(0.0,1.0,0.0));
#514=DIRECTION('',(-1.0,0.0,0.0));
#515=AXIS2_PLACEMENT_3D('',#512,#513,#514);
#516=CIRCLE('',#515,5.0);
#517=EDGE_CURVE('',#193,#184,#516,.T.);
#518=ORIENTED_EDGE('',*,*,#517,.T.);
#519=ORIENTED_EDGE('',*,*,#236,.F.);
#520=ORIENTED_EDGE('',*,*,#489,.T.);
#521=EDGE_LOOP('',(#511,#518,#519,#520));
#522=FACE_OUTER_BOUND('',#521,.T.);
#523=ADVANCED_FACE('',(#522),#510,.T.);
#524=CARTESIAN_POINT('',(0.0,10.500000000000000,0.0));
#525=DIRECTION('',(0.0,1.0,0.0));
#526=DIRECTION('',(-1.0,0.0,0.0));
#527=AXIS2_PLACEMENT_3D('',#524,#525,#526);
#528=CYLINDRICAL_SURFACE('',#527,5.0);
#529=ORIENTED_EDGE('',*,*,#189,.T.);
#530=ORIENTED_EDGE('',*,*,#517,.F.);
#531=ORIENTED_EDGE('',*,*,#198,.F.);
#532=CARTESIAN_POINT('',(0.0,4.0,0.0));
#533=DIRECTION('',(0.0,1.0,0.0));
#534=DIRECTION('',(-1.0,0.0,0.0));
#535=AXIS2_PLACEMENT_3D('',#532,#533,#534);
#536=CIRCLE('',#535,5.0);
#537=EDGE_CURVE('',#161,#144,#536,.T.);
#538=ORIENTED_EDGE('',*,*,#537,.T.);
#539=EDGE_LOOP('',(#529,#530,#531,#538));
#540=FACE_OUTER_BOUND('',#539,.T.);
#541=ADVANCED_FACE('',(#540),#528,.T.);
#542=CARTESIAN_POINT('',(0.0,2.500000000000000,0.0));
#543=DIRECTION('',(0.0,-1.0,0.0));
#544=DIRECTION('',(-1.0,0.0,0.0));
#545=AXIS2_PLACEMENT_3D('',#542,#543,#544);
#546=CONICAL_SURFACE('',#545,6.500000000000000,44.999999999999986);
#547=ORIENTED_EDGE('',*,*,#149,.T.);
#548=ORIENTED_EDGE('',*,*,#537,.F.);
#549=ORIENTED_EDGE('',*,*,#166,.F.);
#550=ORIENTED_EDGE('',*,*,#438,.F.);
#551=EDGE_LOOP('',(#547,#548,#549,#550));
#552=FACE_OUTER_BOUND('',#551,.T.);
#553=ADVANCED_FACE('',(#552),#546,.T.);
#554=CLOSED_SHELL('',(#177,#209,#241,#273,#305,#346,#389,#423,#442,#453,#477,#495,#505,#523,#541,#553));
#555=MANIFOLD_SOLID_BREP('4231',#554);
#556=ADVANCED_BREP_SHAPE_REPRESENTATION('ABSR1',(#555),#129);
#557=SHAPE_REPRESENTATION_RELATIONSHIP('SRRPL1',' ',#556,#133);
#558=CARTESIAN_POINT('NONE',(201.922498823636030,12.200000000000001,-10.494657370575396));
#559=DIRECTION('NONE',(0.0,0.0,1.0));
#560=DIRECTION('NONE',(1.0,0.0,0.0));
#561=AXIS2_PLACEMENT_3D('NONE',#558,#559,#560);
#562=ITEM_DEFINED_TRANSFORMATION('IDT1',' ',#121,#561);
#566=(REPRESENTATION_RELATIONSHIP(' ',' ',#133,#122)REPRESENTATION_RELATIONSHIP_WITH_TRANSFORMATION(#562)SHAPE_REPRESENTATION_RELATIONSHIP());
#567=NEXT_ASSEMBLY_USAGE_OCCURRENCE('NAUO1','PART1_1','PART1_1',#93,#132,$);
#568=PRODUCT_DEFINITION_SHAPE('PDS_NAUO1',' ',#567);
#569=CONTEXT_DEPENDENT_SHAPE_REPRESENTATION(#566,#568);
ENDSEC;
END-ISO-10303-21;
