ISO-10303-21;
HEADER;
/****************************************************************
 * Generated by software with PDE/Lib inside                    *
 * PDE/Lib Version 3.2.6, created Mon Nov 19, 2001 at 18:43:38  *
 * International Technegroup Inc. (www.iti-oh.com)              *
 ****************************************************************/
FILE_DESCRIPTION((''),'2;1');
FILE_NAME('J:\\VARIE-3D\\Componenti\\raccordi\\07XX00\\071200.stp','2003-05-26T16:49:58',('maffial1'),(''),'Autodesk Inventor (R) 6.0','Autodesk Inventor (R) 6.0','');
FILE_SCHEMA(('AUTOMOTIVE_DESIGN { 1 0 10303 214 1 1 1 1 }'));
ENDSEC;
DATA;
#5=APPLICATION_CONTEXT('automotive design');
#6=APPLICATION_PROTOCOL_DEFINITION('Draft International Standard','automotive_design',1998,#5);
#7=PRODUCT_CONTEXT('None',#5,'mechanical');
#8=PRODUCT('071200','071200','None',(#7));
#9=PRODUCT_RELATED_PRODUCT_CATEGORY('part','description',(#8));
#10=PRODUCT_DEFINITION_FORMATION('None','None',#8);
#11=PRODUCT_DEFINITION_CONTEXT('part definition',#5,'design');
#12=PRODUCT_DEFINITION('None','None',#10,#11);
#18=(NAMED_UNIT(*)PLANE_ANGLE_UNIT()SI_UNIT($,.RADIAN.));
#19=DIMENSIONAL_EXPONENTS(0.0,0.0,0.0,0.0,0.0,0.0,0.0);
#20=PLANE_ANGLE_MEASURE_WITH_UNIT(PLANE_ANGLE_MEASURE(0.017453292500000),#18);
#24=(CONVERSION_BASED_UNIT('DEGREE',#20)NAMED_UNIT(#19)PLANE_ANGLE_UNIT());
#28=(NAMED_UNIT(*)SI_UNIT($,.STERADIAN.)SOLID_ANGLE_UNIT());
#32=(LENGTH_UNIT()NAMED_UNIT(*)SI_UNIT(.MILLI.,.METRE.));
#34=UNCERTAINTY_MEASURE_WITH_UNIT(LENGTH_MEASURE(0.000001000000000),#32,'DISTANCE_ACCURACY_VALUE','');
#36=(GEOMETRIC_REPRESENTATION_CONTEXT(3)GLOBAL_UNCERTAINTY_ASSIGNED_CONTEXT((#34))GLOBAL_UNIT_ASSIGNED_CONTEXT((#24,#28,#32))REPRESENTATION_CONTEXT('None','None'));
#37=AXIS2_PLACEMENT_3D('',#38,#39,#40);
#38=CARTESIAN_POINT('',(0.0,0.0,0.0));
#39=DIRECTION('',(0.0,0.0,1.0));
#40=DIRECTION('',(1.0,0.0,0.0));
#41=SHAPE_REPRESENTATION('',(#37),#36);
#42=PRODUCT_DEFINITION_SHAPE('','',#12);
#43=SHAPE_DEFINITION_REPRESENTATION(#42,#41);
#44=CARTESIAN_POINT('',(0.0,25.0,0.0));
#45=DIRECTION('',(0.0,1.0,0.0));
#46=DIRECTION('',(-1.0,0.0,0.0));
#47=AXIS2_PLACEMENT_3D('',#44,#45,#46);
#48=CYLINDRICAL_SURFACE('',#47,5.000000000000002);
#49=CARTESIAN_POINT('',(-4.999999999999999,-3.659035E-016,0.0));
#50=VERTEX_POINT('',#49);
#51=CARTESIAN_POINT('',(-5.000000000000004,50.0,0.0));
#52=VERTEX_POINT('',#51);
#53=CARTESIAN_POINT('',(-4.999999999999999,-3.659035E-016,0.0));
#54=DIRECTION('',(0.0,1.0,0.0));
#55=VECTOR('',#54,50.0);
#56=LINE('',#53,#55);
#57=EDGE_CURVE('',#50,#52,#56,.T.);
#58=ORIENTED_EDGE('',*,*,#57,.F.);
#59=CARTESIAN_POINT('',(4.999999999999999,0.0,6.123032E-016));
#60=VERTEX_POINT('',#59);
#61=CARTESIAN_POINT('',(0.0,-3.642919E-016,0.0));
#62=DIRECTION('',(0.0,1.0,0.0));
#63=DIRECTION('',(-1.0,0.0,0.0));
#64=AXIS2_PLACEMENT_3D('',#61,#62,#63);
#65=CIRCLE('',#64,4.999999999999999);
#66=EDGE_CURVE('',#60,#50,#65,.T.);
#67=ORIENTED_EDGE('',*,*,#66,.F.);
#68=CARTESIAN_POINT('',(5.000000000000004,50.0,6.123032E-016));
#69=VERTEX_POINT('',#68);
#70=CARTESIAN_POINT('',(5.000000000000004,50.0,6.123032E-016));
#71=DIRECTION('',(0.0,-1.0,0.0));
#72=VECTOR('',#71,50.0);
#73=LINE('',#70,#72);
#74=EDGE_CURVE('',#69,#60,#73,.T.);
#75=ORIENTED_EDGE('',*,*,#74,.F.);
#76=CARTESIAN_POINT('',(0.0,50.0,0.0));
#77=DIRECTION('',(0.0,1.0,0.0));
#78=DIRECTION('',(-1.0,0.0,0.0));
#79=AXIS2_PLACEMENT_3D('',#76,#77,#78);
#80=CIRCLE('',#79,5.000000000000004);
#81=EDGE_CURVE('',#69,#52,#80,.T.);
#82=ORIENTED_EDGE('',*,*,#81,.T.);
#83=EDGE_LOOP('',(#58,#67,#75,#82));
#84=FACE_OUTER_BOUND('',#83,.T.);
#85=ADVANCED_FACE('',(#84),#48,.F.);
#86=CARTESIAN_POINT('',(0.0,0.149999999999999,0.0));
#87=DIRECTION('',(0.0,1.0,0.0));
#88=DIRECTION('',(1.0,0.0,0.0));
#89=AXIS2_PLACEMENT_3D('',#86,#87,#88);
#90=CONICAL_SURFACE('',#89,5.850000000000004,45.000000000000597);
#91=CARTESIAN_POINT('',(5.700000000000001,-4.163336E-016,6.980256E-016));
#92=VERTEX_POINT('',#91);
#93=CARTESIAN_POINT('',(6.000000000000006,0.299999999999997,7.347638E-016));
#94=VERTEX_POINT('',#93);
#95=CARTESIAN_POINT('',(5.700000000000001,-4.163336E-016,6.980256E-016));
#96=DIRECTION('',(0.707106781186556,0.707106781186539,8.659275E-017));
#97=VECTOR('',#96,0.424264068711930);
#98=LINE('',#95,#97);
#99=EDGE_CURVE('',#92,#94,#98,.T.);
#100=ORIENTED_EDGE('',*,*,#99,.F.);
#101=CARTESIAN_POINT('',(-5.700000000000001,-4.163336E-016,6.980256E-016));
#102=VERTEX_POINT('',#101);
#103=CARTESIAN_POINT('',(0.0,-4.163336E-016,0.0));
#104=DIRECTION('',(0.0,1.0,0.0));
#105=DIRECTION('',(1.0,0.0,0.0));
#106=AXIS2_PLACEMENT_3D('',#103,#104,#105);
#107=CIRCLE('',#106,5.700000000000001);
#108=EDGE_CURVE('',#92,#102,#107,.T.);
#109=ORIENTED_EDGE('',*,*,#108,.T.);
#110=CARTESIAN_POINT('',(-6.000000000000006,0.299999999999999,-7.347638E-016));
#111=VERTEX_POINT('',#110);
#112=CARTESIAN_POINT('',(-6.000000000000006,0.299999999999999,-7.347638E-016));
#113=DIRECTION('',(0.707106781186554,-0.707106781186541,3.377117E-015));
#114=VECTOR('',#113,0.424264068711932);
#115=LINE('',#112,#114);
#116=EDGE_CURVE('',#111,#102,#115,.T.);
#117=ORIENTED_EDGE('',*,*,#116,.F.);
#118=CARTESIAN_POINT('',(0.0,0.299999999999998,0.0));
#119=DIRECTION('',(0.0,-1.0,0.0));
#120=DIRECTION('',(1.0,0.0,0.0));
#121=AXIS2_PLACEMENT_3D('',#118,#119,#120);
#122=CIRCLE('',#121,6.000000000000006);
#123=EDGE_CURVE('',#111,#94,#122,.T.);
#124=ORIENTED_EDGE('',*,*,#123,.T.);
#125=EDGE_LOOP('',(#100,#109,#117,#124));
#126=FACE_OUTER_BOUND('',#125,.T.);
#127=ADVANCED_FACE('',(#126),#90,.T.);
#128=CARTESIAN_POINT('',(0.0,25.0,0.0));
#129=DIRECTION('',(0.0,1.0,0.0));
#130=DIRECTION('',(-1.0,0.0,0.0));
#131=AXIS2_PLACEMENT_3D('',#128,#129,#130);
#132=CYLINDRICAL_SURFACE('',#131,6.000000000000006);
#133=CARTESIAN_POINT('',(-6.000000000000006,49.699999999999996,7.347638E-016));
#134=VERTEX_POINT('',#133);
#135=CARTESIAN_POINT('',(-6.000000000000006,0.299999999999999,-7.347638E-016));
#136=DIRECTION('',(0.0,1.0,0.0));
#137=VECTOR('',#136,49.399999999999999);
#138=LINE('',#135,#137);
#139=EDGE_CURVE('',#111,#134,#138,.T.);
#140=ORIENTED_EDGE('',*,*,#139,.F.);
#141=CARTESIAN_POINT('',(0.0,0.299999999999998,0.0));
#142=DIRECTION('',(0.0,-1.0,0.0));
#143=DIRECTION('',(1.0,0.0,0.0));
#144=AXIS2_PLACEMENT_3D('',#141,#142,#143);
#145=CIRCLE('',#144,6.000000000000006);
#146=EDGE_CURVE('',#94,#111,#145,.T.);
#147=ORIENTED_EDGE('',*,*,#146,.F.);
#148=CARTESIAN_POINT('',(6.000000000000006,49.699999999999989,7.347638E-016));
#149=VERTEX_POINT('',#148);
#150=CARTESIAN_POINT('',(6.000000000000006,49.699999999999989,7.347638E-016));
#151=DIRECTION('',(0.0,-1.0,0.0));
#152=VECTOR('',#151,49.399999999999991);
#153=LINE('',#150,#152);
#154=EDGE_CURVE('',#149,#94,#153,.T.);
#155=ORIENTED_EDGE('',*,*,#154,.F.);
#156=CARTESIAN_POINT('',(0.0,49.699999999999996,0.0));
#157=DIRECTION('',(0.0,1.0,0.0));
#158=DIRECTION('',(1.0,0.0,0.0));
#159=AXIS2_PLACEMENT_3D('',#156,#157,#158);
#160=CIRCLE('',#159,6.000000000000006);
#161=EDGE_CURVE('',#134,#149,#160,.T.);
#162=ORIENTED_EDGE('',*,*,#161,.F.);
#163=EDGE_LOOP('',(#140,#147,#155,#162));
#164=FACE_OUTER_BOUND('',#163,.T.);
#165=ADVANCED_FACE('',(#164),#132,.T.);
#166=CARTESIAN_POINT('',(0.0,49.849999999999994,0.0));
#167=DIRECTION('',(0.0,-1.0,0.0));
#168=DIRECTION('',(1.0,0.0,0.0));
#169=AXIS2_PLACEMENT_3D('',#166,#167,#168);
#170=CONICAL_SURFACE('',#169,5.850000000000009,44.999999999999353);
#171=CARTESIAN_POINT('',(5.700000000000012,50.0,6.980256E-016));
#172=VERTEX_POINT('',#171);
#173=CARTESIAN_POINT('',(6.000000000000006,49.699999999999989,7.347638E-016));
#174=DIRECTION('',(-0.707106781186528,0.707106781186567,-8.659275E-017));
#175=VECTOR('',#174,0.424264068711933);
#176=LINE('',#173,#175);
#177=EDGE_CURVE('',#149,#172,#176,.T.);
#178=ORIENTED_EDGE('',*,*,#177,.F.);
#179=CARTESIAN_POINT('',(0.0,49.699999999999996,0.0));
#180=DIRECTION('',(0.0,1.0,0.0));
#181=DIRECTION('',(1.0,0.0,0.0));
#182=AXIS2_PLACEMENT_3D('',#179,#180,#181);
#183=CIRCLE('',#182,6.000000000000006);
#184=EDGE_CURVE('',#149,#134,#183,.T.);
#185=ORIENTED_EDGE('',*,*,#184,.T.);
#186=CARTESIAN_POINT('',(-5.700000000000012,50.0,-6.980256E-016));
#187=VERTEX_POINT('',#186);
#188=CARTESIAN_POINT('',(-5.700000000000012,50.0,-6.980256E-016));
#189=DIRECTION('',(-0.707106781186536,-0.707106781186559,3.377117E-015));
#190=VECTOR('',#189,0.424264068711928);
#191=LINE('',#188,#190);
#192=EDGE_CURVE('',#187,#134,#191,.T.);
#193=ORIENTED_EDGE('',*,*,#192,.F.);
#194=CARTESIAN_POINT('',(0.0,50.0,0.0));
#195=DIRECTION('',(0.0,-1.0,0.0));
#196=DIRECTION('',(1.0,0.0,0.0));
#197=AXIS2_PLACEMENT_3D('',#194,#195,#196);
#198=CIRCLE('',#197,5.700000000000012);
#199=EDGE_CURVE('',#187,#172,#198,.T.);
#200=ORIENTED_EDGE('',*,*,#199,.T.);
#201=EDGE_LOOP('',(#178,#185,#193,#200));
#202=FACE_OUTER_BOUND('',#201,.T.);
#203=ADVANCED_FACE('',(#202),#170,.T.);
#204=CARTESIAN_POINT('',(0.0,49.849999999999994,0.0));
#205=DIRECTION('',(0.0,-1.0,0.0));
#206=DIRECTION('',(1.0,0.0,0.0));
#207=AXIS2_PLACEMENT_3D('',#204,#205,#206);
#208=CONICAL_SURFACE('',#207,5.850000000000009,44.999999999999353);
#209=ORIENTED_EDGE('',*,*,#177,.T.);
#210=CARTESIAN_POINT('',(0.0,50.0,0.0));
#211=DIRECTION('',(0.0,-1.0,0.0));
#212=DIRECTION('',(1.0,0.0,0.0));
#213=AXIS2_PLACEMENT_3D('',#210,#211,#212);
#214=CIRCLE('',#213,5.700000000000012);
#215=EDGE_CURVE('',#172,#187,#214,.T.);
#216=ORIENTED_EDGE('',*,*,#215,.T.);
#217=ORIENTED_EDGE('',*,*,#192,.T.);
#218=ORIENTED_EDGE('',*,*,#161,.T.);
#219=EDGE_LOOP('',(#209,#216,#217,#218));
#220=FACE_OUTER_BOUND('',#219,.T.);
#221=ADVANCED_FACE('',(#220),#208,.T.);
#222=CARTESIAN_POINT('',(0.0,25.0,0.0));
#223=DIRECTION('',(0.0,1.0,0.0));
#224=DIRECTION('',(-1.0,0.0,0.0));
#225=AXIS2_PLACEMENT_3D('',#222,#223,#224);
#226=CYLINDRICAL_SURFACE('',#225,6.000000000000006);
#227=ORIENTED_EDGE('',*,*,#139,.T.);
#228=ORIENTED_EDGE('',*,*,#184,.F.);
#229=ORIENTED_EDGE('',*,*,#154,.T.);
#230=ORIENTED_EDGE('',*,*,#123,.F.);
#231=EDGE_LOOP('',(#227,#228,#229,#230));
#232=FACE_OUTER_BOUND('',#231,.T.);
#233=ADVANCED_FACE('',(#232),#226,.T.);
#234=CARTESIAN_POINT('',(-5.500000000000008,50.0,0.0));
#235=DIRECTION('',(0.0,1.0,0.0));
#236=DIRECTION('',(0.0,0.0,1.0));
#237=AXIS2_PLACEMENT_3D('',#234,#235,#236);
#238=PLANE('',#237);
#239=ORIENTED_EDGE('',*,*,#199,.F.);
#240=ORIENTED_EDGE('',*,*,#215,.F.);
#241=EDGE_LOOP('',(#239,#240));
#242=FACE_OUTER_BOUND('',#241,.T.);
#243=CARTESIAN_POINT('',(0.0,50.0,0.0));
#244=DIRECTION('',(0.0,1.0,0.0));
#245=DIRECTION('',(-1.0,0.0,0.0));
#246=AXIS2_PLACEMENT_3D('',#243,#244,#245);
#247=CIRCLE('',#246,5.000000000000004);
#248=EDGE_CURVE('',#52,#69,#247,.T.);
#249=ORIENTED_EDGE('',*,*,#248,.F.);
#250=ORIENTED_EDGE('',*,*,#81,.F.);
#251=EDGE_LOOP('',(#249,#250));
#252=FACE_BOUND('',#251,.T.);
#253=ADVANCED_FACE('',(#242,#252),#238,.T.);
#254=CARTESIAN_POINT('',(0.0,0.149999999999999,0.0));
#255=DIRECTION('',(0.0,1.0,0.0));
#256=DIRECTION('',(1.0,0.0,0.0));
#257=AXIS2_PLACEMENT_3D('',#254,#255,#256);
#258=CONICAL_SURFACE('',#257,5.850000000000004,45.000000000000597);
#259=ORIENTED_EDGE('',*,*,#99,.T.);
#260=ORIENTED_EDGE('',*,*,#146,.T.);
#261=ORIENTED_EDGE('',*,*,#116,.T.);
#262=CARTESIAN_POINT('',(0.0,-4.163336E-016,0.0));
#263=DIRECTION('',(0.0,1.0,0.0));
#264=DIRECTION('',(1.0,0.0,0.0));
#265=AXIS2_PLACEMENT_3D('',#262,#263,#264);
#266=CIRCLE('',#265,5.700000000000001);
#267=EDGE_CURVE('',#102,#92,#266,.T.);
#268=ORIENTED_EDGE('',*,*,#267,.T.);
#269=EDGE_LOOP('',(#259,#260,#261,#268));
#270=FACE_OUTER_BOUND('',#269,.T.);
#271=ADVANCED_FACE('',(#270),#258,.T.);
#272=CARTESIAN_POINT('',(-5.500000000000000,-4.271338E-016,0.0));
#273=DIRECTION('',(0.0,-1.0,0.0));
#274=DIRECTION('',(0.0,0.0,-1.0));
#275=AXIS2_PLACEMENT_3D('',#272,#273,#274);
#276=PLANE('',#275);
#277=ORIENTED_EDGE('',*,*,#267,.F.);
#278=ORIENTED_EDGE('',*,*,#108,.F.);
#279=EDGE_LOOP('',(#277,#278));
#280=FACE_OUTER_BOUND('',#279,.T.);
#281=CARTESIAN_POINT('',(0.0,-3.642919E-016,0.0));
#282=DIRECTION('',(0.0,1.0,0.0));
#283=DIRECTION('',(-1.0,0.0,0.0));
#284=AXIS2_PLACEMENT_3D('',#281,#282,#283);
#285=CIRCLE('',#284,4.999999999999999);
#286=EDGE_CURVE('',#50,#60,#285,.T.);
#287=ORIENTED_EDGE('',*,*,#286,.T.);
#288=ORIENTED_EDGE('',*,*,#66,.T.);
#289=EDGE_LOOP('',(#287,#288));
#290=FACE_BOUND('',#289,.T.);
#291=ADVANCED_FACE('',(#280,#290),#276,.T.);
#292=CARTESIAN_POINT('',(0.0,25.0,0.0));
#293=DIRECTION('',(0.0,1.0,0.0));
#294=DIRECTION('',(-1.0,0.0,0.0));
#295=AXIS2_PLACEMENT_3D('',#292,#293,#294);
#296=CYLINDRICAL_SURFACE('',#295,5.000000000000002);
#297=ORIENTED_EDGE('',*,*,#57,.T.);
#298=ORIENTED_EDGE('',*,*,#248,.T.);
#299=ORIENTED_EDGE('',*,*,#74,.T.);
#300=ORIENTED_EDGE('',*,*,#286,.F.);
#301=EDGE_LOOP('',(#297,#298,#299,#300));
#302=FACE_OUTER_BOUND('',#301,.T.);
#303=ADVANCED_FACE('',(#302),#296,.F.);
#304=CLOSED_SHELL('',(#85,#127,#165,#203,#221,#233,#253,#271,#291,#303));
#305=MANIFOLD_SOLID_BREP('',#304);
#306=COLOUR_RGB('OTTONE NICHELATO',0.792156875133514,0.792156875133514,0.792156875133514);
#307=FILL_AREA_STYLE_COLOUR('OTTONE NICHELATO',#306);
#308=FILL_AREA_STYLE('OTTONE NICHELATO',(#307));
#309=SURFACE_STYLE_FILL_AREA(#308);
#310=SURFACE_SIDE_STYLE('OTTONE NICHELATO',(#309));
#311=SURFACE_STYLE_USAGE(.BOTH.,#310);
#312=PRESENTATION_STYLE_ASSIGNMENT((#311));
#313=STYLED_ITEM('',(#312),#305);
#314=MECHANICAL_DESIGN_GEOMETRIC_PRESENTATION_REPRESENTATION('',(#313),#36);
#315=ADVANCED_BREP_SHAPE_REPRESENTATION('ABSR',(#305),#36);
#316=SHAPE_REPRESENTATION_RELATIONSHIP('SRR','None',#315,#41);
ENDSEC;
END-ISO-10303-21;
