ISO-10303-21;
HEADER;
/****************************************************************
 * Generated by software with PDE/Lib inside                    *
 * PDE/Lib Version 3.2.6, created Mon Nov 19, 2001 at 18:43:38  *
 * International Technegroup Inc. (www.iti-oh.com)              *
 ****************************************************************/
FILE_DESCRIPTION((''),'2;1');
FILE_NAME('J:\\VARIE-3D\\Componenti\\raccordi\\09XX00\\091000.stp','2003-05-26T16:52:30',('maffial1'),(''),'Autodesk Inventor (R) 6.0','Autodesk Inventor (R) 6.0','');
FILE_SCHEMA(('AUTOMOTIVE_DESIGN { 1 0 10303 214 1 1 1 1 }'));
ENDSEC;
DATA;
#5=APPLICATION_CONTEXT('automotive design');
#6=APPLICATION_PROTOCOL_DEFINITION('Draft International Standard','automotive_design',1998,#5);
#7=PRODUCT_CONTEXT('None',#5,'mechanical');
#8=PRODUCT('091000','091000','None',(#7));
#9=PRODUCT_RELATED_PRODUCT_CATEGORY('part','description',(#8));
#10=PRODUCT_DEFINITION_FORMATION('None','None',#8);
#11=PRODUCT_DEFINITION_CONTEXT('part definition',#5,'design');
#12=PRODUCT_DEFINITION('None','None',#10,#11);
#18=(NAMED_UNIT(*)PLANE_ANGLE_UNIT()SI_UNIT($,.RADIAN.));
#19=DIMENSIONAL_EXPONENTS(0.0,0.0,0.0,0.0,0.0,0.0,0.0);
#20=PLANE_ANGLE_MEASURE_WITH_UNIT(PLANE_ANGLE_MEASURE(0.017453292500000),#18);
#24=(CONVERSION_BASED_UNIT('DEGREE',#20)NAMED_UNIT(#19)PLANE_ANGLE_UNIT());
#28=(NAMED_UNIT(*)SI_UNIT($,.STERADIAN.)SOLID_ANGLE_UNIT());
#32=(LENGTH_UNIT()NAMED_UNIT(*)SI_UNIT(.MILLI.,.METRE.));
#34=UNCERTAINTY_MEASURE_WITH_UNIT(LENGTH_MEASURE(0.000001000000000),#32,'DISTANCE_ACCURACY_VALUE','');
#36=(GEOMETRIC_REPRESENTATION_CONTEXT(3)GLOBAL_UNCERTAINTY_ASSIGNED_CONTEXT((#34))GLOBAL_UNIT_ASSIGNED_CONTEXT((#24,#28,#32))REPRESENTATION_CONTEXT('None','None'));
#37=AXIS2_PLACEMENT_3D('',#38,#39,#40);
#38=CARTESIAN_POINT('',(0.0,0.0,0.0));
#39=DIRECTION('',(0.0,0.0,1.0));
#40=DIRECTION('',(1.0,0.0,0.0));
#41=SHAPE_REPRESENTATION('',(#37),#36);
#42=PRODUCT_DEFINITION_SHAPE('','',#12);
#43=SHAPE_DEFINITION_REPRESENTATION(#42,#41);
#44=CARTESIAN_POINT('',(0.0,29.875000000000004,0.0));
#45=DIRECTION('',(0.0,1.0,0.0));
#46=DIRECTION('',(-1.0,0.0,0.0));
#47=AXIS2_PLACEMENT_3D('',#44,#45,#46);
#48=CONICAL_SURFACE('',#47,5.125000000000001,44.999999999999943);
#49=CARTESIAN_POINT('',(-4.750000000000000,29.500000000000000,0.0));
#50=VERTEX_POINT('',#49);
#51=CARTESIAN_POINT('',(-5.500000000000000,30.250000000000004,0.0));
#52=VERTEX_POINT('',#51);
#53=CARTESIAN_POINT('',(-4.750000000000000,29.500000000000000,0.0));
#54=DIRECTION('',(-0.707106781186546,0.707106781186549,0.0));
#55=VECTOR('',#54,1.060660171779824);
#56=LINE('',#53,#55);
#57=EDGE_CURVE('',#50,#52,#56,.T.);
#58=ORIENTED_EDGE('',*,*,#57,.F.);
#59=CARTESIAN_POINT('',(4.750000000000000,29.500000000000000,5.816880E-016));
#60=VERTEX_POINT('',#59);
#61=CARTESIAN_POINT('',(0.0,29.500000000000000,0.0));
#62=DIRECTION('',(0.0,1.0,0.0));
#63=DIRECTION('',(-1.0,0.0,0.0));
#64=AXIS2_PLACEMENT_3D('',#61,#62,#63);
#65=CIRCLE('',#64,4.750000000000000);
#66=EDGE_CURVE('',#50,#60,#65,.T.);
#67=ORIENTED_EDGE('',*,*,#66,.T.);
#68=CARTESIAN_POINT('',(5.500000000000000,30.250000000000007,6.735335E-016));
#69=VERTEX_POINT('',#68);
#70=CARTESIAN_POINT('',(5.500000000000000,30.250000000000007,6.735335E-016));
#71=DIRECTION('',(-0.707106781186544,-0.707106781186551,-8.659275E-017));
#72=VECTOR('',#71,1.060660171779826);
#73=LINE('',#70,#72);
#74=EDGE_CURVE('',#69,#60,#73,.T.);
#75=ORIENTED_EDGE('',*,*,#74,.F.);
#76=CARTESIAN_POINT('',(0.0,30.250000000000004,0.0));
#77=DIRECTION('',(0.0,1.0,0.0));
#78=DIRECTION('',(-1.0,0.0,0.0));
#79=AXIS2_PLACEMENT_3D('',#76,#77,#78);
#80=CIRCLE('',#79,5.500000000000000);
#81=EDGE_CURVE('',#52,#69,#80,.T.);
#82=ORIENTED_EDGE('',*,*,#81,.F.);
#83=EDGE_LOOP('',(#58,#67,#75,#82));
#84=FACE_OUTER_BOUND('',#83,.T.);
#85=ADVANCED_FACE('',(#84),#48,.T.);
#86=CARTESIAN_POINT('',(0.0,29.125000000000000,0.0));
#87=DIRECTION('',(0.0,-1.0,0.0));
#88=DIRECTION('',(-1.0,0.0,0.0));
#89=AXIS2_PLACEMENT_3D('',#86,#87,#88);
#90=CONICAL_SURFACE('',#89,5.125000000000001,44.999999999999943);
#91=CARTESIAN_POINT('',(-5.500000000000000,28.750000000000000,0.0));
#92=VERTEX_POINT('',#91);
#93=CARTESIAN_POINT('',(-5.500000000000000,28.750000000000000,0.0));
#94=DIRECTION('',(0.707106781186548,0.707106781186548,0.0));
#95=VECTOR('',#94,1.060660171779821);
#96=LINE('',#93,#95);
#97=EDGE_CURVE('',#92,#50,#96,.T.);
#98=ORIENTED_EDGE('',*,*,#97,.F.);
#99=CARTESIAN_POINT('',(5.500000000000000,28.750000000000000,6.735335E-016));
#100=VERTEX_POINT('',#99);
#101=CARTESIAN_POINT('',(0.0,28.750000000000000,0.0));
#102=DIRECTION('',(0.0,1.0,0.0));
#103=DIRECTION('',(-1.0,0.0,0.0));
#104=AXIS2_PLACEMENT_3D('',#101,#102,#103);
#105=CIRCLE('',#104,5.500000000000000);
#106=EDGE_CURVE('',#92,#100,#105,.T.);
#107=ORIENTED_EDGE('',*,*,#106,.T.);
#108=CARTESIAN_POINT('',(4.750000000000000,29.500000000000000,5.816880E-016));
#109=DIRECTION('',(0.707106781186548,-0.707106781186548,8.659275E-017));
#110=VECTOR('',#109,1.060660171779821);
#111=LINE('',#108,#110);
#112=EDGE_CURVE('',#60,#100,#111,.T.);
#113=ORIENTED_EDGE('',*,*,#112,.F.);
#114=ORIENTED_EDGE('',*,*,#66,.F.);
#115=EDGE_LOOP('',(#98,#107,#113,#114));
#116=FACE_OUTER_BOUND('',#115,.T.);
#117=ADVANCED_FACE('',(#116),#90,.T.);
#118=CARTESIAN_POINT('',(0.0,12.000000000000002,0.0));
#119=DIRECTION('',(0.0,1.0,0.0));
#120=DIRECTION('',(-1.0,0.0,0.0));
#121=AXIS2_PLACEMENT_3D('',#118,#119,#120);
#122=CYLINDRICAL_SURFACE('',#121,5.0);
#123=CARTESIAN_POINT('',(-5.0,0.300000000000000,-6.123032E-016));
#124=VERTEX_POINT('',#123);
#125=CARTESIAN_POINT('',(-5.0,24.000000000000004,0.0));
#126=VERTEX_POINT('',#125);
#127=CARTESIAN_POINT('',(-5.0,0.300000000000000,-6.123032E-016));
#128=DIRECTION('',(0.0,1.0,0.0));
#129=VECTOR('',#128,23.700000000000003);
#130=LINE('',#127,#129);
#131=EDGE_CURVE('',#124,#126,#130,.T.);
#132=ORIENTED_EDGE('',*,*,#131,.F.);
#133=CARTESIAN_POINT('',(5.0,0.300000000000000,6.123032E-016));
#134=VERTEX_POINT('',#133);
#135=CARTESIAN_POINT('',(0.0,0.300000000000000,0.0));
#136=DIRECTION('',(0.0,-1.0,0.0));
#137=DIRECTION('',(1.0,0.0,0.0));
#138=AXIS2_PLACEMENT_3D('',#135,#136,#137);
#139=CIRCLE('',#138,5.0);
#140=EDGE_CURVE('',#134,#124,#139,.T.);
#141=ORIENTED_EDGE('',*,*,#140,.F.);
#142=CARTESIAN_POINT('',(5.0,24.000000000000004,6.123032E-016));
#143=VERTEX_POINT('',#142);
#144=CARTESIAN_POINT('',(5.0,24.000000000000004,6.123032E-016));
#145=DIRECTION('',(0.0,-1.0,0.0));
#146=VECTOR('',#145,23.700000000000003);
#147=LINE('',#144,#146);
#148=EDGE_CURVE('',#143,#134,#147,.T.);
#149=ORIENTED_EDGE('',*,*,#148,.F.);
#150=CARTESIAN_POINT('',(0.0,24.000000000000004,0.0));
#151=DIRECTION('',(0.0,1.0,0.0));
#152=DIRECTION('',(-1.0,0.0,0.0));
#153=AXIS2_PLACEMENT_3D('',#150,#151,#152);
#154=CIRCLE('',#153,5.0);
#155=EDGE_CURVE('',#126,#143,#154,.T.);
#156=ORIENTED_EDGE('',*,*,#155,.F.);
#157=EDGE_LOOP('',(#132,#141,#149,#156));
#158=FACE_OUTER_BOUND('',#157,.T.);
#159=ADVANCED_FACE('',(#158),#122,.T.);
#160=CARTESIAN_POINT('',(0.0,0.150000000000000,0.0));
#161=DIRECTION('',(0.0,1.0,0.0));
#162=DIRECTION('',(1.0,0.0,0.0));
#163=AXIS2_PLACEMENT_3D('',#160,#161,#162);
#164=CONICAL_SURFACE('',#163,4.850000000000000,45.000000000000007);
#165=CARTESIAN_POINT('',(4.699999999999999,0.0,5.755650E-016));
#166=VERTEX_POINT('',#165);
#167=CARTESIAN_POINT('',(4.699999999999999,0.0,5.755650E-016));
#168=DIRECTION('',(0.707106781186548,0.707106781186547,8.659275E-017));
#169=VECTOR('',#168,0.424264068711929);
#170=LINE('',#167,#169);
#171=EDGE_CURVE('',#166,#134,#170,.T.);
#172=ORIENTED_EDGE('',*,*,#171,.F.);
#173=CARTESIAN_POINT('',(-4.699999999999999,0.0,5.755650E-016));
#174=VERTEX_POINT('',#173);
#175=CARTESIAN_POINT('',(0.0,0.0,0.0));
#176=DIRECTION('',(0.0,1.0,0.0));
#177=DIRECTION('',(1.0,0.0,0.0));
#178=AXIS2_PLACEMENT_3D('',#175,#176,#177);
#179=CIRCLE('',#178,4.699999999999999);
#180=EDGE_CURVE('',#166,#174,#179,.T.);
#181=ORIENTED_EDGE('',*,*,#180,.T.);
#182=CARTESIAN_POINT('',(-5.0,0.300000000000000,-6.123032E-016));
#183=DIRECTION('',(0.707106781186548,-0.707106781186547,2.799832E-015));
#184=VECTOR('',#183,0.424264068711929);
#185=LINE('',#182,#184);
#186=EDGE_CURVE('',#124,#174,#185,.T.);
#187=ORIENTED_EDGE('',*,*,#186,.F.);
#188=CARTESIAN_POINT('',(0.0,0.300000000000000,0.0));
#189=DIRECTION('',(0.0,-1.0,0.0));
#190=DIRECTION('',(1.0,0.0,0.0));
#191=AXIS2_PLACEMENT_3D('',#188,#189,#190);
#192=CIRCLE('',#191,5.0);
#193=EDGE_CURVE('',#124,#134,#192,.T.);
#194=ORIENTED_EDGE('',*,*,#193,.T.);
#195=EDGE_LOOP('',(#172,#181,#187,#194));
#196=FACE_OUTER_BOUND('',#195,.T.);
#197=ADVANCED_FACE('',(#196),#164,.T.);
#198=CARTESIAN_POINT('',(0.0,26.375000000000000,0.0));
#199=DIRECTION('',(0.0,1.0,0.0));
#200=DIRECTION('',(-1.0,0.0,0.0));
#201=AXIS2_PLACEMENT_3D('',#198,#199,#200);
#202=CYLINDRICAL_SURFACE('',#201,5.500000000000000);
#203=CARTESIAN_POINT('',(-5.500000000000000,24.300000000000001,-6.735335E-016));
#204=VERTEX_POINT('',#203);
#205=CARTESIAN_POINT('',(-5.500000000000000,24.300000000000001,-6.735335E-016));
#206=DIRECTION('',(0.0,1.0,0.0));
#207=VECTOR('',#206,4.449999999999999);
#208=LINE('',#205,#207);
#209=EDGE_CURVE('',#204,#92,#208,.T.);
#210=ORIENTED_EDGE('',*,*,#209,.F.);
#211=CARTESIAN_POINT('',(5.500000000000000,24.300000000000001,6.735335E-016));
#212=VERTEX_POINT('',#211);
#213=CARTESIAN_POINT('',(0.0,24.300000000000001,0.0));
#214=DIRECTION('',(0.0,-1.0,0.0));
#215=DIRECTION('',(1.0,0.0,0.0));
#216=AXIS2_PLACEMENT_3D('',#213,#214,#215);
#217=CIRCLE('',#216,5.500000000000000);
#218=EDGE_CURVE('',#212,#204,#217,.T.);
#219=ORIENTED_EDGE('',*,*,#218,.F.);
#220=CARTESIAN_POINT('',(5.500000000000000,28.750000000000000,6.735335E-016));
#221=DIRECTION('',(0.0,-1.0,0.0));
#222=VECTOR('',#221,4.449999999999999);
#223=LINE('',#220,#222);
#224=EDGE_CURVE('',#100,#212,#223,.T.);
#225=ORIENTED_EDGE('',*,*,#224,.F.);
#226=ORIENTED_EDGE('',*,*,#106,.F.);
#227=EDGE_LOOP('',(#210,#219,#225,#226));
#228=FACE_OUTER_BOUND('',#227,.T.);
#229=ADVANCED_FACE('',(#228),#202,.T.);
#230=CARTESIAN_POINT('',(0.0,24.149999999999999,0.0));
#231=DIRECTION('',(0.0,1.0,0.0));
#232=DIRECTION('',(1.0,0.0,0.0));
#233=AXIS2_PLACEMENT_3D('',#230,#231,#232);
#234=CONICAL_SURFACE('',#233,5.350000000000001,45.000000000000213);
#235=CARTESIAN_POINT('',(5.200000000000000,24.000000000000004,6.367953E-016));
#236=VERTEX_POINT('',#235);
#237=CARTESIAN_POINT('',(5.200000000000000,24.000000000000004,6.367953E-016));
#238=DIRECTION('',(0.707106781186551,0.707106781186544,8.659275E-017));
#239=VECTOR('',#238,0.424264068711926);
#240=LINE('',#237,#239);
#241=EDGE_CURVE('',#236,#212,#240,.T.);
#242=ORIENTED_EDGE('',*,*,#241,.F.);
#243=CARTESIAN_POINT('',(-5.200000000000000,24.000000000000004,6.367953E-016));
#244=VERTEX_POINT('',#243);
#245=CARTESIAN_POINT('',(0.0,24.000000000000004,0.0));
#246=DIRECTION('',(0.0,1.0,0.0));
#247=DIRECTION('',(1.0,0.0,0.0));
#248=AXIS2_PLACEMENT_3D('',#245,#246,#247);
#249=CIRCLE('',#248,5.200000000000000);
#250=EDGE_CURVE('',#236,#244,#249,.T.);
#251=ORIENTED_EDGE('',*,*,#250,.T.);
#252=CARTESIAN_POINT('',(-5.500000000000000,24.300000000000001,-6.735335E-016));
#253=DIRECTION('',(0.707106781186551,-0.707106781186544,3.088475E-015));
#254=VECTOR('',#253,0.424264068711926);
#255=LINE('',#252,#254);
#256=EDGE_CURVE('',#204,#244,#255,.T.);
#257=ORIENTED_EDGE('',*,*,#256,.F.);
#258=CARTESIAN_POINT('',(0.0,24.300000000000001,0.0));
#259=DIRECTION('',(0.0,-1.0,0.0));
#260=DIRECTION('',(1.0,0.0,0.0));
#261=AXIS2_PLACEMENT_3D('',#258,#259,#260);
#262=CIRCLE('',#261,5.500000000000000);
#263=EDGE_CURVE('',#204,#212,#262,.T.);
#264=ORIENTED_EDGE('',*,*,#263,.T.);
#265=EDGE_LOOP('',(#242,#251,#257,#264));
#266=FACE_OUTER_BOUND('',#265,.T.);
#267=ADVANCED_FACE('',(#266),#234,.T.);
#268=CARTESIAN_POINT('',(0.0,32.625000000000000,0.0));
#269=DIRECTION('',(0.0,1.0,0.0));
#270=DIRECTION('',(-1.0,0.0,0.0));
#271=AXIS2_PLACEMENT_3D('',#268,#269,#270);
#272=CYLINDRICAL_SURFACE('',#271,5.500000000000000);
#273=CARTESIAN_POINT('',(-5.500000000000000,34.700000000000003,6.735335E-016));
#274=VERTEX_POINT('',#273);
#275=CARTESIAN_POINT('',(-5.500000000000000,30.250000000000004,0.0));
#276=DIRECTION('',(0.0,1.0,0.0));
#277=VECTOR('',#276,4.449999999999999);
#278=LINE('',#275,#277);
#279=EDGE_CURVE('',#52,#274,#278,.T.);
#280=ORIENTED_EDGE('',*,*,#279,.F.);
#281=ORIENTED_EDGE('',*,*,#81,.T.);
#282=CARTESIAN_POINT('',(5.500000000000000,34.700000000000003,6.735335E-016));
#283=VERTEX_POINT('',#282);
#284=CARTESIAN_POINT('',(5.500000000000000,34.700000000000003,6.735335E-016));
#285=DIRECTION('',(0.0,-1.0,0.0));
#286=VECTOR('',#285,4.449999999999996);
#287=LINE('',#284,#286);
#288=EDGE_CURVE('',#283,#69,#287,.T.);
#289=ORIENTED_EDGE('',*,*,#288,.F.);
#290=CARTESIAN_POINT('',(0.0,34.700000000000003,0.0));
#291=DIRECTION('',(0.0,1.0,0.0));
#292=DIRECTION('',(1.0,0.0,0.0));
#293=AXIS2_PLACEMENT_3D('',#290,#291,#292);
#294=CIRCLE('',#293,5.500000000000000);
#295=EDGE_CURVE('',#274,#283,#294,.T.);
#296=ORIENTED_EDGE('',*,*,#295,.F.);
#297=EDGE_LOOP('',(#280,#281,#289,#296));
#298=FACE_OUTER_BOUND('',#297,.T.);
#299=ADVANCED_FACE('',(#298),#272,.T.);
#300=CARTESIAN_POINT('',(0.0,34.850000000000001,0.0));
#301=DIRECTION('',(0.0,-1.0,0.0));
#302=DIRECTION('',(1.0,0.0,0.0));
#303=AXIS2_PLACEMENT_3D('',#300,#301,#302);
#304=CONICAL_SURFACE('',#303,5.350000000000001,45.000000000000213);
#305=CARTESIAN_POINT('',(5.200000000000000,35.0,6.367953E-016));
#306=VERTEX_POINT('',#305);
#307=CARTESIAN_POINT('',(5.500000000000000,34.700000000000003,6.735335E-016));
#308=DIRECTION('',(-0.707106781186551,0.707106781186544,-8.659275E-017));
#309=VECTOR('',#308,0.424264068711926);
#310=LINE('',#307,#309);
#311=EDGE_CURVE('',#283,#306,#310,.T.);
#312=ORIENTED_EDGE('',*,*,#311,.F.);
#313=CARTESIAN_POINT('',(0.0,34.700000000000003,0.0));
#314=DIRECTION('',(0.0,1.0,0.0));
#315=DIRECTION('',(1.0,0.0,0.0));
#316=AXIS2_PLACEMENT_3D('',#313,#314,#315);
#317=CIRCLE('',#316,5.500000000000000);
#318=EDGE_CURVE('',#283,#274,#317,.T.);
#319=ORIENTED_EDGE('',*,*,#318,.T.);
#320=CARTESIAN_POINT('',(-5.200000000000000,35.0,-6.367953E-016));
#321=VERTEX_POINT('',#320);
#322=CARTESIAN_POINT('',(-5.200000000000000,35.0,-6.367953E-016));
#323=DIRECTION('',(-0.707106781186551,-0.707106781186544,3.088475E-015));
#324=VECTOR('',#323,0.424264068711926);
#325=LINE('',#322,#324);
#326=EDGE_CURVE('',#321,#274,#325,.T.);
#327=ORIENTED_EDGE('',*,*,#326,.F.);
#328=CARTESIAN_POINT('',(0.0,35.0,0.0));
#329=DIRECTION('',(0.0,-1.0,0.0));
#330=DIRECTION('',(1.0,0.0,0.0));
#331=AXIS2_PLACEMENT_3D('',#328,#329,#330);
#332=CIRCLE('',#331,5.200000000000000);
#333=EDGE_CURVE('',#321,#306,#332,.T.);
#334=ORIENTED_EDGE('',*,*,#333,.T.);
#335=EDGE_LOOP('',(#312,#319,#327,#334));
#336=FACE_OUTER_BOUND('',#335,.T.);
#337=ADVANCED_FACE('',(#336),#304,.T.);
#338=CARTESIAN_POINT('',(0.0,34.850000000000001,0.0));
#339=DIRECTION('',(0.0,-1.0,0.0));
#340=DIRECTION('',(1.0,0.0,0.0));
#341=AXIS2_PLACEMENT_3D('',#338,#339,#340);
#342=CONICAL_SURFACE('',#341,5.350000000000001,45.000000000000213);
#343=ORIENTED_EDGE('',*,*,#311,.T.);
#344=CARTESIAN_POINT('',(0.0,35.0,0.0));
#345=DIRECTION('',(0.0,-1.0,0.0));
#346=DIRECTION('',(1.0,0.0,0.0));
#347=AXIS2_PLACEMENT_3D('',#344,#345,#346);
#348=CIRCLE('',#347,5.200000000000000);
#349=EDGE_CURVE('',#306,#321,#348,.T.);
#350=ORIENTED_EDGE('',*,*,#349,.T.);
#351=ORIENTED_EDGE('',*,*,#326,.T.);
#352=ORIENTED_EDGE('',*,*,#295,.T.);
#353=EDGE_LOOP('',(#343,#350,#351,#352));
#354=FACE_OUTER_BOUND('',#353,.T.);
#355=ADVANCED_FACE('',(#354),#342,.T.);
#356=CARTESIAN_POINT('',(0.0,32.625000000000000,0.0));
#357=DIRECTION('',(0.0,1.0,0.0));
#358=DIRECTION('',(-1.0,0.0,0.0));
#359=AXIS2_PLACEMENT_3D('',#356,#357,#358);
#360=CYLINDRICAL_SURFACE('',#359,5.500000000000000);
#361=ORIENTED_EDGE('',*,*,#279,.T.);
#362=ORIENTED_EDGE('',*,*,#318,.F.);
#363=ORIENTED_EDGE('',*,*,#288,.T.);
#364=CARTESIAN_POINT('',(0.0,30.250000000000004,0.0));
#365=DIRECTION('',(0.0,1.0,0.0));
#366=DIRECTION('',(-1.0,0.0,0.0));
#367=AXIS2_PLACEMENT_3D('',#364,#365,#366);
#368=CIRCLE('',#367,5.500000000000000);
#369=EDGE_CURVE('',#69,#52,#368,.T.);
#370=ORIENTED_EDGE('',*,*,#369,.T.);
#371=EDGE_LOOP('',(#361,#362,#363,#370));
#372=FACE_OUTER_BOUND('',#371,.T.);
#373=ADVANCED_FACE('',(#372),#360,.T.);
#374=CARTESIAN_POINT('',(-2.750000000000000,35.0,0.0));
#375=DIRECTION('',(0.0,1.0,0.0));
#376=DIRECTION('',(0.0,0.0,1.0));
#377=AXIS2_PLACEMENT_3D('',#374,#375,#376);
#378=PLANE('',#377);
#379=ORIENTED_EDGE('',*,*,#333,.F.);
#380=ORIENTED_EDGE('',*,*,#349,.F.);
#381=EDGE_LOOP('',(#379,#380));
#382=FACE_OUTER_BOUND('',#381,.T.);
#383=ADVANCED_FACE('',(#382),#378,.T.);
#384=CARTESIAN_POINT('',(0.0,24.149999999999999,0.0));
#385=DIRECTION('',(0.0,1.0,0.0));
#386=DIRECTION('',(1.0,0.0,0.0));
#387=AXIS2_PLACEMENT_3D('',#384,#385,#386);
#388=CONICAL_SURFACE('',#387,5.350000000000001,45.000000000000213);
#389=ORIENTED_EDGE('',*,*,#241,.T.);
#390=ORIENTED_EDGE('',*,*,#218,.T.);
#391=ORIENTED_EDGE('',*,*,#256,.T.);
#392=CARTESIAN_POINT('',(0.0,24.000000000000004,0.0));
#393=DIRECTION('',(0.0,1.0,0.0));
#394=DIRECTION('',(1.0,0.0,0.0));
#395=AXIS2_PLACEMENT_3D('',#392,#393,#394);
#396=CIRCLE('',#395,5.200000000000000);
#397=EDGE_CURVE('',#244,#236,#396,.T.);
#398=ORIENTED_EDGE('',*,*,#397,.T.);
#399=EDGE_LOOP('',(#389,#390,#391,#398));
#400=FACE_OUTER_BOUND('',#399,.T.);
#401=ADVANCED_FACE('',(#400),#388,.T.);
#402=CARTESIAN_POINT('',(-5.250000000000000,24.000000000000004,0.0));
#403=DIRECTION('',(0.0,-1.0,0.0));
#404=DIRECTION('',(0.0,0.0,-1.0));
#405=AXIS2_PLACEMENT_3D('',#402,#403,#404);
#406=PLANE('',#405);
#407=ORIENTED_EDGE('',*,*,#397,.F.);
#408=ORIENTED_EDGE('',*,*,#250,.F.);
#409=EDGE_LOOP('',(#407,#408));
#410=FACE_OUTER_BOUND('',#409,.T.);
#411=ORIENTED_EDGE('',*,*,#155,.T.);
#412=CARTESIAN_POINT('',(0.0,24.000000000000004,0.0));
#413=DIRECTION('',(0.0,1.0,0.0));
#414=DIRECTION('',(-1.0,0.0,0.0));
#415=AXIS2_PLACEMENT_3D('',#412,#413,#414);
#416=CIRCLE('',#415,5.0);
#417=EDGE_CURVE('',#143,#126,#416,.T.);
#418=ORIENTED_EDGE('',*,*,#417,.T.);
#419=EDGE_LOOP('',(#411,#418));
#420=FACE_BOUND('',#419,.T.);
#421=ADVANCED_FACE('',(#410,#420),#406,.T.);
#422=CARTESIAN_POINT('',(0.0,26.375000000000000,0.0));
#423=DIRECTION('',(0.0,1.0,0.0));
#424=DIRECTION('',(-1.0,0.0,0.0));
#425=AXIS2_PLACEMENT_3D('',#422,#423,#424);
#426=CYLINDRICAL_SURFACE('',#425,5.500000000000000);
#427=ORIENTED_EDGE('',*,*,#209,.T.);
#428=CARTESIAN_POINT('',(0.0,28.750000000000000,0.0));
#429=DIRECTION('',(0.0,1.0,0.0));
#430=DIRECTION('',(-1.0,0.0,0.0));
#431=AXIS2_PLACEMENT_3D('',#428,#429,#430);
#432=CIRCLE('',#431,5.500000000000000);
#433=EDGE_CURVE('',#100,#92,#432,.T.);
#434=ORIENTED_EDGE('',*,*,#433,.F.);
#435=ORIENTED_EDGE('',*,*,#224,.T.);
#436=ORIENTED_EDGE('',*,*,#263,.F.);
#437=EDGE_LOOP('',(#427,#434,#435,#436));
#438=FACE_OUTER_BOUND('',#437,.T.);
#439=ADVANCED_FACE('',(#438),#426,.T.);
#440=CARTESIAN_POINT('',(0.0,0.150000000000000,0.0));
#441=DIRECTION('',(0.0,1.0,0.0));
#442=DIRECTION('',(1.0,0.0,0.0));
#443=AXIS2_PLACEMENT_3D('',#440,#441,#442);
#444=CONICAL_SURFACE('',#443,4.850000000000000,45.000000000000007);
#445=ORIENTED_EDGE('',*,*,#171,.T.);
#446=ORIENTED_EDGE('',*,*,#140,.T.);
#447=ORIENTED_EDGE('',*,*,#186,.T.);
#448=CARTESIAN_POINT('',(0.0,0.0,0.0));
#449=DIRECTION('',(0.0,1.0,0.0));
#450=DIRECTION('',(1.0,0.0,0.0));
#451=AXIS2_PLACEMENT_3D('',#448,#449,#450);
#452=CIRCLE('',#451,4.699999999999999);
#453=EDGE_CURVE('',#174,#166,#452,.T.);
#454=ORIENTED_EDGE('',*,*,#453,.T.);
#455=EDGE_LOOP('',(#445,#446,#447,#454));
#456=FACE_OUTER_BOUND('',#455,.T.);
#457=ADVANCED_FACE('',(#456),#444,.T.);
#458=CARTESIAN_POINT('',(0.0,12.000000000000002,0.0));
#459=DIRECTION('',(0.0,1.0,0.0));
#460=DIRECTION('',(-1.0,0.0,0.0));
#461=AXIS2_PLACEMENT_3D('',#458,#459,#460);
#462=CYLINDRICAL_SURFACE('',#461,5.0);
#463=ORIENTED_EDGE('',*,*,#131,.T.);
#464=ORIENTED_EDGE('',*,*,#417,.F.);
#465=ORIENTED_EDGE('',*,*,#148,.T.);
#466=ORIENTED_EDGE('',*,*,#193,.F.);
#467=EDGE_LOOP('',(#463,#464,#465,#466));
#468=FACE_OUTER_BOUND('',#467,.T.);
#469=ADVANCED_FACE('',(#468),#462,.T.);
#470=CARTESIAN_POINT('',(-2.500000000000000,0.0,0.0));
#471=DIRECTION('',(0.0,-1.0,0.0));
#472=DIRECTION('',(0.0,0.0,-1.0));
#473=AXIS2_PLACEMENT_3D('',#470,#471,#472);
#474=PLANE('',#473);
#475=ORIENTED_EDGE('',*,*,#453,.F.);
#476=ORIENTED_EDGE('',*,*,#180,.F.);
#477=EDGE_LOOP('',(#475,#476));
#478=FACE_OUTER_BOUND('',#477,.T.);
#479=ADVANCED_FACE('',(#478),#474,.T.);
#480=CARTESIAN_POINT('',(0.0,29.125000000000000,0.0));
#481=DIRECTION('',(0.0,-1.0,0.0));
#482=DIRECTION('',(-1.0,0.0,0.0));
#483=AXIS2_PLACEMENT_3D('',#480,#481,#482);
#484=CONICAL_SURFACE('',#483,5.125000000000001,44.999999999999943);
#485=ORIENTED_EDGE('',*,*,#97,.T.);
#486=CARTESIAN_POINT('',(0.0,29.500000000000000,0.0));
#487=DIRECTION('',(0.0,1.0,0.0));
#488=DIRECTION('',(-1.0,0.0,0.0));
#489=AXIS2_PLACEMENT_3D('',#486,#487,#488);
#490=CIRCLE('',#489,4.750000000000000);
#491=EDGE_CURVE('',#60,#50,#490,.T.);
#492=ORIENTED_EDGE('',*,*,#491,.F.);
#493=ORIENTED_EDGE('',*,*,#112,.T.);
#494=ORIENTED_EDGE('',*,*,#433,.T.);
#495=EDGE_LOOP('',(#485,#492,#493,#494));
#496=FACE_OUTER_BOUND('',#495,.T.);
#497=ADVANCED_FACE('',(#496),#484,.T.);
#498=CARTESIAN_POINT('',(0.0,29.875000000000004,0.0));
#499=DIRECTION('',(0.0,1.0,0.0));
#500=DIRECTION('',(-1.0,0.0,0.0));
#501=AXIS2_PLACEMENT_3D('',#498,#499,#500);
#502=CONICAL_SURFACE('',#501,5.125000000000001,44.999999999999943);
#503=ORIENTED_EDGE('',*,*,#57,.T.);
#504=ORIENTED_EDGE('',*,*,#369,.F.);
#505=ORIENTED_EDGE('',*,*,#74,.T.);
#506=ORIENTED_EDGE('',*,*,#491,.T.);
#507=EDGE_LOOP('',(#503,#504,#505,#506));
#508=FACE_OUTER_BOUND('',#507,.T.);
#509=ADVANCED_FACE('',(#508),#502,.T.);
#510=CLOSED_SHELL('',(#85,#117,#159,#197,#229,#267,#299,#337,#355,#373,#383,#401,#421,#439,#457,#469,#479,#497,#509));
#511=MANIFOLD_SOLID_BREP('',#510);
#512=COLOUR_RGB('OTTONE NICHELATO',0.792156875133514,0.792156875133514,0.792156875133514);
#513=FILL_AREA_STYLE_COLOUR('OTTONE NICHELATO',#512);
#514=FILL_AREA_STYLE('OTTONE NICHELATO',(#513));
#515=SURFACE_STYLE_FILL_AREA(#514);
#516=SURFACE_SIDE_STYLE('OTTONE NICHELATO',(#515));
#517=SURFACE_STYLE_USAGE(.BOTH.,#516);
#518=PRESENTATION_STYLE_ASSIGNMENT((#517));
#519=STYLED_ITEM('',(#518),#511);
#520=MECHANICAL_DESIGN_GEOMETRIC_PRESENTATION_REPRESENTATION('',(#519),#36);
#521=ADVANCED_BREP_SHAPE_REPRESENTATION('ABSR',(#511),#36);
#522=SHAPE_REPRESENTATION_RELATIONSHIP('SRR','None',#521,#41);
ENDSEC;
END-ISO-10303-21;
