ISO-10303-21;
HEADER;
/* Generated by software containing ST-Developer
 * from STEP Tools, Inc. (www.steptools.com) 
 */

FILE_DESCRIPTION(
/* description */ ('SENSORE UNIVERSALE N.A. con Led'),
/* implementation_level */ '2;1');

FILE_NAME(
/* name */ 
'C:\\PNX_VAULTFOLDER\\Area Tecnica\\Disegni\\VARIE-3D\\Componenti\\SEN
SORI\\RS_#.stp',
/* time_stamp */ '2017-11-06T10:00:00+01:00',
/* author */ ('Maniean1'),
/* organization */ ('Pneumax S.p.A.'),
/* preprocessor_version */ 'ST-DEVELOPER v16.5',
/* originating_system */ 'Autodesk Inventor 2017',
/* authorisation */ '');

FILE_SCHEMA (('AUTOMOTIVE_DESIGN { 1 0 10303 214 3 1 1 }'));
ENDSEC;

DATA;
#10=MECHANICAL_DESIGN_GEOMETRIC_PRESENTATION_REPRESENTATION('',(#71,#72,
#67,#68,#69,#70,#73),#689);
#11=SHAPE_REPRESENTATION_RELATIONSHIP('SRR','None',#698,#12);
#12=ADVANCED_BREP_SHAPE_REPRESENTATION('',(#13),#688);
#13=MANIFOLD_SOLID_BREP('Solido1',#404);
#14=CONICAL_SURFACE('',#440,2.89080892972014,19.9999999999999);
#15=CONICAL_SURFACE('',#444,2.3,45.0000000000002);
#16=LINE('',#617,#40);
#17=LINE('',#619,#41);
#18=LINE('',#621,#42);
#19=LINE('',#622,#43);
#20=LINE('',#647,#44);
#21=LINE('',#649,#45);
#22=LINE('',#651,#46);
#23=LINE('',#653,#47);
#24=LINE('',#654,#48);
#25=LINE('',#656,#49);
#26=LINE('',#657,#50);
#27=LINE('',#661,#51);
#28=LINE('',#662,#52);
#29=LINE('',#663,#53);
#30=LINE('',#666,#54);
#31=LINE('',#667,#55);
#32=LINE('',#669,#56);
#33=LINE('',#673,#57);
#34=LINE('',#674,#58);
#35=LINE('',#677,#59);
#36=LINE('',#678,#60);
#37=LINE('',#681,#61);
#38=LINE('',#682,#62);
#39=LINE('',#684,#63);
#40=VECTOR('',#507,10.);
#41=VECTOR('',#508,10.);
#42=VECTOR('',#509,10.);
#43=VECTOR('',#510,10.);
#44=VECTOR('',#541,10.);
#45=VECTOR('',#542,10.);
#46=VECTOR('',#543,10.);
#47=VECTOR('',#544,10.);
#48=VECTOR('',#545,10.);
#49=VECTOR('',#546,10.);
#50=VECTOR('',#547,10.);
#51=VECTOR('',#550,10.);
#52=VECTOR('',#551,10.);
#53=VECTOR('',#552,10.);
#54=VECTOR('',#555,10.);
#55=VECTOR('',#556,10.);
#56=VECTOR('',#559,10.);
#57=VECTOR('',#564,10.);
#58=VECTOR('',#565,10.);
#59=VECTOR('',#568,10.);
#60=VECTOR('',#569,10.);
#61=VECTOR('',#572,10.);
#62=VECTOR('',#573,10.);
#63=VECTOR('',#576,10.);
#64=SPHERICAL_SURFACE('',#419,0.5);
#65=SPHERICAL_SURFACE('',#423,0.5);
#66=SPHERICAL_SURFACE('',#439,20.);
#67=STYLED_ITEM('',(#708),#379);
#68=STYLED_ITEM('',(#708),#380);
#69=STYLED_ITEM('',(#708),#381);
#70=STYLED_ITEM('',(#708),#382);
#71=STYLED_ITEM('',(#709),#387);
#72=STYLED_ITEM('',(#709),#388);
#73=STYLED_ITEM('',(#707),#13);
#74=PLANE('',#418);
#75=PLANE('',#430);
#76=PLANE('',#434);
#77=PLANE('',#442);
#78=PLANE('',#448);
#79=PLANE('',#449);
#80=PLANE('',#450);
#81=PLANE('',#451);
#82=PLANE('',#452);
#83=PLANE('',#453);
#84=PLANE('',#454);
#85=PLANE('',#455);
#86=PLANE('',#456);
#87=PLANE('',#457);
#88=PLANE('',#458);
#89=FACE_BOUND('',#138,.T.);
#90=FACE_BOUND('',#140,.T.);
#91=FACE_BOUND('',#142,.T.);
#92=FACE_BOUND('',#145,.T.);
#93=FACE_BOUND('',#148,.T.);
#94=FACE_BOUND('',#150,.T.);
#95=FACE_BOUND('',#152,.T.);
#96=FACE_BOUND('',#154,.T.);
#97=FACE_BOUND('',#156,.T.);
#98=FACE_BOUND('',#157,.T.);
#99=FACE_BOUND('',#158,.T.);
#100=FACE_BOUND('',#160,.T.);
#101=FACE_BOUND('',#163,.T.);
#102=FACE_BOUND('',#165,.T.);
#103=FACE_BOUND('',#167,.T.);
#104=FACE_BOUND('',#169,.T.);
#105=FACE_BOUND('',#171,.T.);
#106=FACE_BOUND('',#177,.T.);
#107=FACE_BOUND('',#178,.T.);
#108=FACE_BOUND('',#183,.T.);
#109=FACE_OUTER_BOUND('',#137,.T.);
#110=FACE_OUTER_BOUND('',#139,.T.);
#111=FACE_OUTER_BOUND('',#141,.T.);
#112=FACE_OUTER_BOUND('',#143,.T.);
#113=FACE_OUTER_BOUND('',#144,.T.);
#114=FACE_OUTER_BOUND('',#146,.T.);
#115=FACE_OUTER_BOUND('',#147,.T.);
#116=FACE_OUTER_BOUND('',#149,.T.);
#117=FACE_OUTER_BOUND('',#151,.T.);
#118=FACE_OUTER_BOUND('',#153,.T.);
#119=FACE_OUTER_BOUND('',#155,.T.);
#120=FACE_OUTER_BOUND('',#159,.T.);
#121=FACE_OUTER_BOUND('',#161,.T.);
#122=FACE_OUTER_BOUND('',#162,.T.);
#123=FACE_OUTER_BOUND('',#164,.T.);
#124=FACE_OUTER_BOUND('',#166,.T.);
#125=FACE_OUTER_BOUND('',#168,.T.);
#126=FACE_OUTER_BOUND('',#170,.T.);
#127=FACE_OUTER_BOUND('',#172,.T.);
#128=FACE_OUTER_BOUND('',#173,.T.);
#129=FACE_OUTER_BOUND('',#174,.T.);
#130=FACE_OUTER_BOUND('',#175,.T.);
#131=FACE_OUTER_BOUND('',#176,.T.);
#132=FACE_OUTER_BOUND('',#179,.T.);
#133=FACE_OUTER_BOUND('',#180,.T.);
#134=FACE_OUTER_BOUND('',#181,.T.);
#135=FACE_OUTER_BOUND('',#182,.T.);
#136=FACE_OUTER_BOUND('',#184,.T.);
#137=EDGE_LOOP('',(#282));
#138=EDGE_LOOP('',(#283));
#139=EDGE_LOOP('',(#284));
#140=EDGE_LOOP('',(#285));
#141=EDGE_LOOP('',(#286));
#142=EDGE_LOOP('',(#287));
#143=EDGE_LOOP('',(#288));
#144=EDGE_LOOP('',(#289));
#145=EDGE_LOOP('',(#290));
#146=EDGE_LOOP('',(#291));
#147=EDGE_LOOP('',(#292));
#148=EDGE_LOOP('',(#293));
#149=EDGE_LOOP('',(#294));
#150=EDGE_LOOP('',(#295));
#151=EDGE_LOOP('',(#296));
#152=EDGE_LOOP('',(#297));
#153=EDGE_LOOP('',(#298));
#154=EDGE_LOOP('',(#299));
#155=EDGE_LOOP('',(#300,#301,#302,#303));
#156=EDGE_LOOP('',(#304));
#157=EDGE_LOOP('',(#305));
#158=EDGE_LOOP('',(#306));
#159=EDGE_LOOP('',(#307));
#160=EDGE_LOOP('',(#308));
#161=EDGE_LOOP('',(#309));
#162=EDGE_LOOP('',(#310));
#163=EDGE_LOOP('',(#311));
#164=EDGE_LOOP('',(#312));
#165=EDGE_LOOP('',(#313));
#166=EDGE_LOOP('',(#314));
#167=EDGE_LOOP('',(#315));
#168=EDGE_LOOP('',(#316));
#169=EDGE_LOOP('',(#317));
#170=EDGE_LOOP('',(#318));
#171=EDGE_LOOP('',(#319));
#172=EDGE_LOOP('',(#320,#321,#322,#323,#324,#325,#326,#327));
#173=EDGE_LOOP('',(#328,#329,#330,#331));
#174=EDGE_LOOP('',(#332,#333,#334,#335));
#175=EDGE_LOOP('',(#336,#337,#338,#339));
#176=EDGE_LOOP('',(#340));
#177=EDGE_LOOP('',(#341));
#178=EDGE_LOOP('',(#342));
#179=EDGE_LOOP('',(#343,#344,#345,#346));
#180=EDGE_LOOP('',(#347,#348,#349,#350));
#181=EDGE_LOOP('',(#351,#352,#353,#354));
#182=EDGE_LOOP('',(#355,#356,#357,#358));
#183=EDGE_LOOP('',(#359));
#184=EDGE_LOOP('',(#360,#361,#362,#363,#364,#365,#366,#367));
#185=CIRCLE('',#413,0.875);
#186=CIRCLE('',#414,0.875);
#187=CIRCLE('',#416,1.5);
#188=CIRCLE('',#417,1.5);
#189=CIRCLE('',#420,0.5);
#190=CIRCLE('',#422,0.5);
#191=CIRCLE('',#424,0.5);
#192=CIRCLE('',#426,0.5);
#193=CIRCLE('',#428,2.75);
#194=CIRCLE('',#429,2.75);
#195=CIRCLE('',#431,3.);
#196=CIRCLE('',#433,3.);
#197=CIRCLE('',#435,3.);
#198=CIRCLE('',#437,2.);
#199=CIRCLE('',#438,2.);
#200=CIRCLE('',#441,2.78161785944028);
#201=CIRCLE('',#443,2.5);
#202=CIRCLE('',#445,2.1);
#203=CIRCLE('',#447,2.1);
#204=VERTEX_POINT('',#581);
#205=VERTEX_POINT('',#583);
#206=VERTEX_POINT('',#586);
#207=VERTEX_POINT('',#588);
#208=VERTEX_POINT('',#592);
#209=VERTEX_POINT('',#595);
#210=VERTEX_POINT('',#598);
#211=VERTEX_POINT('',#601);
#212=VERTEX_POINT('',#604);
#213=VERTEX_POINT('',#606);
#214=VERTEX_POINT('',#609);
#215=VERTEX_POINT('',#612);
#216=VERTEX_POINT('',#615);
#217=VERTEX_POINT('',#616);
#218=VERTEX_POINT('',#618);
#219=VERTEX_POINT('',#620);
#220=VERTEX_POINT('',#623);
#221=VERTEX_POINT('',#626);
#222=VERTEX_POINT('',#628);
#223=VERTEX_POINT('',#632);
#224=VERTEX_POINT('',#635);
#225=VERTEX_POINT('',#638);
#226=VERTEX_POINT('',#641);
#227=VERTEX_POINT('',#645);
#228=VERTEX_POINT('',#646);
#229=VERTEX_POINT('',#648);
#230=VERTEX_POINT('',#650);
#231=VERTEX_POINT('',#652);
#232=VERTEX_POINT('',#655);
#233=VERTEX_POINT('',#659);
#234=VERTEX_POINT('',#660);
#235=VERTEX_POINT('',#665);
#236=VERTEX_POINT('',#672);
#237=VERTEX_POINT('',#676);
#238=VERTEX_POINT('',#680);
#239=EDGE_CURVE('',#204,#204,#185,.T.);
#240=EDGE_CURVE('',#205,#205,#186,.T.);
#241=EDGE_CURVE('',#206,#206,#187,.T.);
#242=EDGE_CURVE('',#207,#207,#188,.T.);
#243=EDGE_CURVE('',#208,#208,#189,.T.);
#244=EDGE_CURVE('',#209,#209,#190,.T.);
#245=EDGE_CURVE('',#210,#210,#191,.T.);
#246=EDGE_CURVE('',#211,#211,#192,.T.);
#247=EDGE_CURVE('',#212,#212,#193,.T.);
#248=EDGE_CURVE('',#213,#213,#194,.T.);
#249=EDGE_CURVE('',#214,#214,#195,.T.);
#250=EDGE_CURVE('',#215,#215,#196,.T.);
#251=EDGE_CURVE('',#216,#217,#16,.T.);
#252=EDGE_CURVE('',#218,#217,#17,.T.);
#253=EDGE_CURVE('',#218,#219,#18,.T.);
#254=EDGE_CURVE('',#219,#216,#19,.T.);
#255=EDGE_CURVE('',#220,#220,#197,.T.);
#256=EDGE_CURVE('',#221,#221,#198,.T.);
#257=EDGE_CURVE('',#222,#222,#199,.T.);
#258=EDGE_CURVE('',#223,#223,#200,.T.);
#259=EDGE_CURVE('',#224,#224,#201,.T.);
#260=EDGE_CURVE('',#225,#225,#202,.T.);
#261=EDGE_CURVE('',#226,#226,#203,.T.);
#262=EDGE_CURVE('',#227,#228,#20,.T.);
#263=EDGE_CURVE('',#229,#227,#21,.T.);
#264=EDGE_CURVE('',#230,#229,#22,.T.);
#265=EDGE_CURVE('',#231,#230,#23,.T.);
#266=EDGE_CURVE('',#219,#231,#24,.T.);
#267=EDGE_CURVE('',#232,#218,#25,.T.);
#268=EDGE_CURVE('',#228,#232,#26,.T.);
#269=EDGE_CURVE('',#233,#234,#27,.T.);
#270=EDGE_CURVE('',#230,#234,#28,.T.);
#271=EDGE_CURVE('',#233,#229,#29,.T.);
#272=EDGE_CURVE('',#234,#235,#30,.T.);
#273=EDGE_CURVE('',#231,#235,#31,.T.);
#274=EDGE_CURVE('',#235,#216,#32,.T.);
#275=EDGE_CURVE('',#217,#236,#33,.T.);
#276=EDGE_CURVE('',#232,#236,#34,.T.);
#277=EDGE_CURVE('',#236,#237,#35,.T.);
#278=EDGE_CURVE('',#228,#237,#36,.T.);
#279=EDGE_CURVE('',#237,#238,#37,.T.);
#280=EDGE_CURVE('',#227,#238,#38,.T.);
#281=EDGE_CURVE('',#238,#233,#39,.T.);
#282=ORIENTED_EDGE('',*,*,#239,.F.);
#283=ORIENTED_EDGE('',*,*,#240,.F.);
#284=ORIENTED_EDGE('',*,*,#241,.T.);
#285=ORIENTED_EDGE('',*,*,#242,.F.);
#286=ORIENTED_EDGE('',*,*,#241,.F.);
#287=ORIENTED_EDGE('',*,*,#240,.T.);
#288=ORIENTED_EDGE('',*,*,#243,.T.);
#289=ORIENTED_EDGE('',*,*,#244,.F.);
#290=ORIENTED_EDGE('',*,*,#243,.F.);
#291=ORIENTED_EDGE('',*,*,#245,.T.);
#292=ORIENTED_EDGE('',*,*,#246,.F.);
#293=ORIENTED_EDGE('',*,*,#245,.F.);
#294=ORIENTED_EDGE('',*,*,#247,.F.);
#295=ORIENTED_EDGE('',*,*,#248,.F.);
#296=ORIENTED_EDGE('',*,*,#249,.F.);
#297=ORIENTED_EDGE('',*,*,#247,.T.);
#298=ORIENTED_EDGE('',*,*,#250,.F.);
#299=ORIENTED_EDGE('',*,*,#249,.T.);
#300=ORIENTED_EDGE('',*,*,#251,.T.);
#301=ORIENTED_EDGE('',*,*,#252,.F.);
#302=ORIENTED_EDGE('',*,*,#253,.T.);
#303=ORIENTED_EDGE('',*,*,#254,.T.);
#304=ORIENTED_EDGE('',*,*,#242,.T.);
#305=ORIENTED_EDGE('',*,*,#255,.T.);
#306=ORIENTED_EDGE('',*,*,#250,.T.);
#307=ORIENTED_EDGE('',*,*,#256,.F.);
#308=ORIENTED_EDGE('',*,*,#257,.F.);
#309=ORIENTED_EDGE('',*,*,#256,.T.);
#310=ORIENTED_EDGE('',*,*,#258,.F.);
#311=ORIENTED_EDGE('',*,*,#255,.F.);
#312=ORIENTED_EDGE('',*,*,#258,.T.);
#313=ORIENTED_EDGE('',*,*,#259,.F.);
#314=ORIENTED_EDGE('',*,*,#260,.F.);
#315=ORIENTED_EDGE('',*,*,#259,.T.);
#316=ORIENTED_EDGE('',*,*,#261,.F.);
#317=ORIENTED_EDGE('',*,*,#260,.T.);
#318=ORIENTED_EDGE('',*,*,#261,.T.);
#319=ORIENTED_EDGE('',*,*,#257,.T.);
#320=ORIENTED_EDGE('',*,*,#262,.F.);
#321=ORIENTED_EDGE('',*,*,#263,.F.);
#322=ORIENTED_EDGE('',*,*,#264,.F.);
#323=ORIENTED_EDGE('',*,*,#265,.F.);
#324=ORIENTED_EDGE('',*,*,#266,.F.);
#325=ORIENTED_EDGE('',*,*,#253,.F.);
#326=ORIENTED_EDGE('',*,*,#267,.F.);
#327=ORIENTED_EDGE('',*,*,#268,.F.);
#328=ORIENTED_EDGE('',*,*,#269,.T.);
#329=ORIENTED_EDGE('',*,*,#270,.F.);
#330=ORIENTED_EDGE('',*,*,#264,.T.);
#331=ORIENTED_EDGE('',*,*,#271,.F.);
#332=ORIENTED_EDGE('',*,*,#272,.T.);
#333=ORIENTED_EDGE('',*,*,#273,.F.);
#334=ORIENTED_EDGE('',*,*,#265,.T.);
#335=ORIENTED_EDGE('',*,*,#270,.T.);
#336=ORIENTED_EDGE('',*,*,#274,.T.);
#337=ORIENTED_EDGE('',*,*,#254,.F.);
#338=ORIENTED_EDGE('',*,*,#266,.T.);
#339=ORIENTED_EDGE('',*,*,#273,.T.);
#340=ORIENTED_EDGE('',*,*,#248,.T.);
#341=ORIENTED_EDGE('',*,*,#244,.T.);
#342=ORIENTED_EDGE('',*,*,#246,.T.);
#343=ORIENTED_EDGE('',*,*,#275,.T.);
#344=ORIENTED_EDGE('',*,*,#276,.F.);
#345=ORIENTED_EDGE('',*,*,#267,.T.);
#346=ORIENTED_EDGE('',*,*,#252,.T.);
#347=ORIENTED_EDGE('',*,*,#277,.T.);
#348=ORIENTED_EDGE('',*,*,#278,.F.);
#349=ORIENTED_EDGE('',*,*,#268,.T.);
#350=ORIENTED_EDGE('',*,*,#276,.T.);
#351=ORIENTED_EDGE('',*,*,#279,.T.);
#352=ORIENTED_EDGE('',*,*,#280,.F.);
#353=ORIENTED_EDGE('',*,*,#262,.T.);
#354=ORIENTED_EDGE('',*,*,#278,.T.);
#355=ORIENTED_EDGE('',*,*,#281,.T.);
#356=ORIENTED_EDGE('',*,*,#271,.T.);
#357=ORIENTED_EDGE('',*,*,#263,.T.);
#358=ORIENTED_EDGE('',*,*,#280,.T.);
#359=ORIENTED_EDGE('',*,*,#239,.T.);
#360=ORIENTED_EDGE('',*,*,#269,.F.);
#361=ORIENTED_EDGE('',*,*,#281,.F.);
#362=ORIENTED_EDGE('',*,*,#279,.F.);
#363=ORIENTED_EDGE('',*,*,#277,.F.);
#364=ORIENTED_EDGE('',*,*,#275,.F.);
#365=ORIENTED_EDGE('',*,*,#251,.F.);
#366=ORIENTED_EDGE('',*,*,#274,.F.);
#367=ORIENTED_EDGE('',*,*,#272,.F.);
#368=CYLINDRICAL_SURFACE('',#412,0.875);
#369=CYLINDRICAL_SURFACE('',#415,1.5);
#370=CYLINDRICAL_SURFACE('',#421,0.5);
#371=CYLINDRICAL_SURFACE('',#425,0.5);
#372=CYLINDRICAL_SURFACE('',#427,2.75);
#373=CYLINDRICAL_SURFACE('',#432,3.);
#374=CYLINDRICAL_SURFACE('',#436,2.);
#375=CYLINDRICAL_SURFACE('',#446,2.1);
#376=ADVANCED_FACE('',(#109,#89),#368,.F.);
#377=ADVANCED_FACE('',(#110,#90),#369,.T.);
#378=ADVANCED_FACE('',(#111,#91),#74,.F.);
#379=ADVANCED_FACE('',(#112),#64,.T.);
#380=ADVANCED_FACE('',(#113,#92),#370,.T.);
#381=ADVANCED_FACE('',(#114),#65,.T.);
#382=ADVANCED_FACE('',(#115,#93),#371,.T.);
#383=ADVANCED_FACE('',(#116,#94),#372,.F.);
#384=ADVANCED_FACE('',(#117,#95),#75,.T.);
#385=ADVANCED_FACE('',(#118,#96),#373,.T.);
#386=ADVANCED_FACE('',(#119,#97,#98,#99),#76,.T.);
#387=ADVANCED_FACE('',(#120,#100),#374,.T.);
#388=ADVANCED_FACE('',(#121),#66,.T.);
#389=ADVANCED_FACE('',(#122,#101),#14,.T.);
#390=ADVANCED_FACE('',(#123,#102),#77,.T.);
#391=ADVANCED_FACE('',(#124,#103),#15,.F.);
#392=ADVANCED_FACE('',(#125,#104),#375,.F.);
#393=ADVANCED_FACE('',(#126,#105),#78,.T.);
#394=ADVANCED_FACE('',(#127),#79,.F.);
#395=ADVANCED_FACE('',(#128),#80,.T.);
#396=ADVANCED_FACE('',(#129),#81,.T.);
#397=ADVANCED_FACE('',(#130),#82,.T.);
#398=ADVANCED_FACE('',(#131,#106,#107),#83,.T.);
#399=ADVANCED_FACE('',(#132),#84,.T.);
#400=ADVANCED_FACE('',(#133),#85,.T.);
#401=ADVANCED_FACE('',(#134),#86,.T.);
#402=ADVANCED_FACE('',(#135,#108),#87,.T.);
#403=ADVANCED_FACE('',(#136),#88,.T.);
#404=CLOSED_SHELL('',(#376,#377,#378,#379,#380,#381,#382,#383,#384,#385,
#386,#387,#388,#389,#390,#391,#392,#393,#394,#395,#396,#397,#398,#399,#400,
#401,#402,#403));
#405=DATE_TIME_ROLE('creation_date');
#406=APPLIED_DATE_AND_TIME_ASSIGNMENT(#407,#405,(#700));
#407=DATE_AND_TIME(#408,#409);
#408=CALENDAR_DATE(2009,2,3);
#409=LOCAL_TIME(13,49,37.,#410);
#410=COORDINATED_UNIVERSAL_TIME_OFFSET(0,0,.BEHIND.);
#411=AXIS2_PLACEMENT_3D('placement',#579,#459,#460);
#412=AXIS2_PLACEMENT_3D('',#580,#461,#462);
#413=AXIS2_PLACEMENT_3D('',#582,#463,#464);
#414=AXIS2_PLACEMENT_3D('',#584,#465,#466);
#415=AXIS2_PLACEMENT_3D('',#585,#467,#468);
#416=AXIS2_PLACEMENT_3D('',#587,#469,#470);
#417=AXIS2_PLACEMENT_3D('',#589,#471,#472);
#418=AXIS2_PLACEMENT_3D('',#590,#473,#474);
#419=AXIS2_PLACEMENT_3D('',#591,#475,#476);
#420=AXIS2_PLACEMENT_3D('',#593,#477,#478);
#421=AXIS2_PLACEMENT_3D('',#594,#479,#480);
#422=AXIS2_PLACEMENT_3D('',#596,#481,#482);
#423=AXIS2_PLACEMENT_3D('',#597,#483,#484);
#424=AXIS2_PLACEMENT_3D('',#599,#485,#486);
#425=AXIS2_PLACEMENT_3D('',#600,#487,#488);
#426=AXIS2_PLACEMENT_3D('',#602,#489,#490);
#427=AXIS2_PLACEMENT_3D('',#603,#491,#492);
#428=AXIS2_PLACEMENT_3D('',#605,#493,#494);
#429=AXIS2_PLACEMENT_3D('',#607,#495,#496);
#430=AXIS2_PLACEMENT_3D('',#608,#497,#498);
#431=AXIS2_PLACEMENT_3D('',#610,#499,#500);
#432=AXIS2_PLACEMENT_3D('',#611,#501,#502);
#433=AXIS2_PLACEMENT_3D('',#613,#503,#504);
#434=AXIS2_PLACEMENT_3D('',#614,#505,#506);
#435=AXIS2_PLACEMENT_3D('',#624,#511,#512);
#436=AXIS2_PLACEMENT_3D('',#625,#513,#514);
#437=AXIS2_PLACEMENT_3D('',#627,#515,#516);
#438=AXIS2_PLACEMENT_3D('',#629,#517,#518);
#439=AXIS2_PLACEMENT_3D('',#630,#519,#520);
#440=AXIS2_PLACEMENT_3D('',#631,#521,#522);
#441=AXIS2_PLACEMENT_3D('',#633,#523,#524);
#442=AXIS2_PLACEMENT_3D('',#634,#525,#526);
#443=AXIS2_PLACEMENT_3D('',#636,#527,#528);
#444=AXIS2_PLACEMENT_3D('',#637,#529,#530);
#445=AXIS2_PLACEMENT_3D('',#639,#531,#532);
#446=AXIS2_PLACEMENT_3D('',#640,#533,#534);
#447=AXIS2_PLACEMENT_3D('',#642,#535,#536);
#448=AXIS2_PLACEMENT_3D('',#643,#537,#538);
#449=AXIS2_PLACEMENT_3D('',#644,#539,#540);
#450=AXIS2_PLACEMENT_3D('',#658,#548,#549);
#451=AXIS2_PLACEMENT_3D('',#664,#553,#554);
#452=AXIS2_PLACEMENT_3D('',#668,#557,#558);
#453=AXIS2_PLACEMENT_3D('',#670,#560,#561);
#454=AXIS2_PLACEMENT_3D('',#671,#562,#563);
#455=AXIS2_PLACEMENT_3D('',#675,#566,#567);
#456=AXIS2_PLACEMENT_3D('',#679,#570,#571);
#457=AXIS2_PLACEMENT_3D('',#683,#574,#575);
#458=AXIS2_PLACEMENT_3D('',#685,#577,#578);
#459=DIRECTION('axis',(0.,0.,1.));
#460=DIRECTION('refdir',(1.,0.,0.));
#461=DIRECTION('center_axis',(0.,1.,0.));
#462=DIRECTION('ref_axis',(1.,0.,0.));
#463=DIRECTION('center_axis',(0.,1.,0.));
#464=DIRECTION('ref_axis',(1.,0.,0.));
#465=DIRECTION('center_axis',(0.,-1.,0.));
#466=DIRECTION('ref_axis',(1.,0.,0.));
#467=DIRECTION('center_axis',(0.,1.,0.));
#468=DIRECTION('ref_axis',(-1.,0.,0.));
#469=DIRECTION('center_axis',(0.,-1.,0.));
#470=DIRECTION('ref_axis',(-1.,0.,0.));
#471=DIRECTION('center_axis',(0.,-1.,0.));
#472=DIRECTION('ref_axis',(-1.,0.,0.));
#473=DIRECTION('center_axis',(0.,-1.,0.));
#474=DIRECTION('ref_axis',(0.,0.,-1.));
#475=DIRECTION('center_axis',(0.,0.,1.));
#476=DIRECTION('ref_axis',(1.,0.,0.));
#477=DIRECTION('center_axis',(0.,1.,0.));
#478=DIRECTION('ref_axis',(-1.,0.,0.));
#479=DIRECTION('center_axis',(0.,1.,0.));
#480=DIRECTION('ref_axis',(-1.,0.,0.));
#481=DIRECTION('center_axis',(0.,-1.,0.));
#482=DIRECTION('ref_axis',(-1.,0.,0.));
#483=DIRECTION('center_axis',(0.,0.,1.));
#484=DIRECTION('ref_axis',(1.,0.,0.));
#485=DIRECTION('center_axis',(0.,1.,0.));
#486=DIRECTION('ref_axis',(-1.,0.,0.));
#487=DIRECTION('center_axis',(0.,1.,0.));
#488=DIRECTION('ref_axis',(-1.,0.,0.));
#489=DIRECTION('center_axis',(0.,-1.,0.));
#490=DIRECTION('ref_axis',(-1.,0.,0.));
#491=DIRECTION('center_axis',(0.,-1.,-1.90852591614036E-16));
#492=DIRECTION('ref_axis',(0.,0.,-1.));
#493=DIRECTION('center_axis',(0.,-1.,-1.90852591614036E-16));
#494=DIRECTION('ref_axis',(0.,0.,-1.));
#495=DIRECTION('center_axis',(0.,1.,0.));
#496=DIRECTION('ref_axis',(0.,0.,-1.));
#497=DIRECTION('center_axis',(0.,1.,1.90852591614036E-16));
#498=DIRECTION('ref_axis',(0.,-3.5527136788005E-16,1.));
#499=DIRECTION('center_axis',(0.,-1.,-1.90852591614036E-16));
#500=DIRECTION('ref_axis',(0.,0.,-1.));
#501=DIRECTION('center_axis',(0.,-1.,-1.90852591614036E-16));
#502=DIRECTION('ref_axis',(0.,0.,-1.));
#503=DIRECTION('center_axis',(0.,-1.,0.));
#504=DIRECTION('ref_axis',(0.,0.,-1.));
#505=DIRECTION('center_axis',(0.,1.,0.));
#506=DIRECTION('ref_axis',(0.,0.,1.));
#507=DIRECTION('',(1.,0.,0.));
#508=DIRECTION('',(0.,0.,1.));
#509=DIRECTION('',(-1.,0.,0.));
#510=DIRECTION('',(0.,0.,1.));
#511=DIRECTION('center_axis',(0.,-1.,0.));
#512=DIRECTION('ref_axis',(0.,0.,1.));
#513=DIRECTION('center_axis',(0.,1.,1.04055197637045E-16));
#514=DIRECTION('ref_axis',(0.,0.,1.));
#515=DIRECTION('center_axis',(0.,1.,1.04055197637045E-16));
#516=DIRECTION('ref_axis',(0.,0.,1.));
#517=DIRECTION('center_axis',(0.,-1.,0.));
#518=DIRECTION('ref_axis',(0.,0.,1.));
#519=DIRECTION('center_axis',(6.12323399573677E-17,0.,1.));
#520=DIRECTION('ref_axis',(1.,0.,0.));
#521=DIRECTION('center_axis',(0.,-1.,-1.04055197637045E-16));
#522=DIRECTION('ref_axis',(0.,0.,1.));
#523=DIRECTION('center_axis',(0.,1.,1.04055197637045E-16));
#524=DIRECTION('ref_axis',(0.,0.,1.));
#525=DIRECTION('center_axis',(0.,1.,1.04055197637045E-16));
#526=DIRECTION('ref_axis',(0.,-1.77635683940025E-16,1.));
#527=DIRECTION('center_axis',(0.,1.,1.04055197637045E-16));
#528=DIRECTION('ref_axis',(0.,0.,1.));
#529=DIRECTION('center_axis',(0.,1.,1.04055197637045E-16));
#530=DIRECTION('ref_axis',(0.,0.,1.));
#531=DIRECTION('center_axis',(0.,1.,1.04055197637045E-16));
#532=DIRECTION('ref_axis',(0.,0.,1.));
#533=DIRECTION('center_axis',(0.,1.,1.04055197637045E-16));
#534=DIRECTION('ref_axis',(0.,0.,1.));
#535=DIRECTION('center_axis',(0.,1.,0.));
#536=DIRECTION('ref_axis',(0.,0.,1.));
#537=DIRECTION('center_axis',(0.,1.,0.));
#538=DIRECTION('ref_axis',(0.,0.,1.));
#539=DIRECTION('center_axis',(0.,0.,1.));
#540=DIRECTION('ref_axis',(1.,0.,0.));
#541=DIRECTION('',(-4.44089209850063E-16,1.,0.));
#542=DIRECTION('',(1.,0.,0.));
#543=DIRECTION('',(-4.44089209850063E-16,-1.,0.));
#544=DIRECTION('',(-1.,0.,0.));
#545=DIRECTION('',(2.11471052309554E-16,-1.,0.));
#546=DIRECTION('',(2.11471052309554E-16,1.,0.));
#547=DIRECTION('',(-1.,0.,0.));
#548=DIRECTION('center_axis',(-1.,4.44089209850063E-16,0.));
#549=DIRECTION('ref_axis',(0.,0.,1.));
#550=DIRECTION('',(4.44089209850063E-16,1.,0.));
#551=DIRECTION('',(0.,0.,1.));
#552=DIRECTION('',(0.,0.,-1.));
#553=DIRECTION('center_axis',(0.,1.,0.));
#554=DIRECTION('ref_axis',(0.,0.,1.));
#555=DIRECTION('',(1.,0.,0.));
#556=DIRECTION('',(0.,0.,1.));
#557=DIRECTION('center_axis',(-1.,-2.11471052309554E-16,0.));
#558=DIRECTION('ref_axis',(0.,0.,1.));
#559=DIRECTION('',(-2.11471052309554E-16,1.,0.));
#560=DIRECTION('center_axis',(0.,1.,0.));
#561=DIRECTION('ref_axis',(0.,0.,1.));
#562=DIRECTION('center_axis',(1.,-2.11471052309554E-16,0.));
#563=DIRECTION('ref_axis',(0.,0.,-1.));
#564=DIRECTION('',(-2.11471052309554E-16,-1.,0.));
#565=DIRECTION('',(0.,0.,1.));
#566=DIRECTION('center_axis',(0.,1.,0.));
#567=DIRECTION('ref_axis',(0.,0.,1.));
#568=DIRECTION('',(1.,0.,0.));
#569=DIRECTION('',(0.,0.,1.));
#570=DIRECTION('center_axis',(1.,4.44089209850063E-16,0.));
#571=DIRECTION('ref_axis',(0.,0.,-1.));
#572=DIRECTION('',(4.44089209850063E-16,-1.,0.));
#573=DIRECTION('',(0.,0.,1.));
#574=DIRECTION('center_axis',(0.,-1.,0.));
#575=DIRECTION('ref_axis',(0.,0.,-1.));
#576=DIRECTION('',(-1.,0.,0.));
#577=DIRECTION('center_axis',(0.,0.,1.));
#578=DIRECTION('ref_axis',(1.,0.,0.));
#579=CARTESIAN_POINT('',(0.,0.,0.));
#580=CARTESIAN_POINT('Origin',(-1.,-24.3054228914319,-0.1));
#581=CARTESIAN_POINT('',(-1.875,0.,-0.1));
#582=CARTESIAN_POINT('Origin',(-1.,0.,-0.1));
#583=CARTESIAN_POINT('',(-0.125,13.5,-0.1));
#584=CARTESIAN_POINT('Origin',(-1.,13.5,-0.1));
#585=CARTESIAN_POINT('Origin',(-1.,13.,-0.1));
#586=CARTESIAN_POINT('',(0.5,13.5,-0.1));
#587=CARTESIAN_POINT('Origin',(-1.,13.5,-0.1));
#588=CARTESIAN_POINT('',(0.5,13.,-0.1));
#589=CARTESIAN_POINT('Origin',(-1.,13.,-0.1));
#590=CARTESIAN_POINT('Origin',(-1.,13.5,-0.1));
#591=CARTESIAN_POINT('Origin',(1.75,16.,-10.5));
#592=CARTESIAN_POINT('',(2.25,16.,-10.5));
#593=CARTESIAN_POINT('Origin',(1.75,16.,-10.5));
#594=CARTESIAN_POINT('Origin',(1.75,13.,-10.5));
#595=CARTESIAN_POINT('',(2.25,13.,-10.5));
#596=CARTESIAN_POINT('Origin',(1.75,13.,-10.5));
#597=CARTESIAN_POINT('Origin',(-1.75,16.,-10.5));
#598=CARTESIAN_POINT('',(-1.25,16.,-10.5));
#599=CARTESIAN_POINT('Origin',(-1.75,16.,-10.5));
#600=CARTESIAN_POINT('Origin',(-1.75,13.,-10.5));
#601=CARTESIAN_POINT('',(-1.25,13.,-10.5));
#602=CARTESIAN_POINT('Origin',(-1.75,13.,-10.5));
#603=CARTESIAN_POINT('Origin',(0.,15.,-10.5));
#604=CARTESIAN_POINT('',(0.,17.,-13.25));
#605=CARTESIAN_POINT('Origin',(0.,17.,-10.5));
#606=CARTESIAN_POINT('',(0.,13.,-13.25));
#607=CARTESIAN_POINT('Origin',(0.,13.,-10.5));
#608=CARTESIAN_POINT('Origin',(0.,17.,-13.375));
#609=CARTESIAN_POINT('',(0.,17.,-13.5));
#610=CARTESIAN_POINT('Origin',(0.,17.,-10.5));
#611=CARTESIAN_POINT('Origin',(0.,15.,-10.5));
#612=CARTESIAN_POINT('',(0.,13.,-13.5));
#613=CARTESIAN_POINT('Origin',(0.,13.,-10.5));
#614=CARTESIAN_POINT('Origin',(-6.,13.,0.));
#615=CARTESIAN_POINT('',(-6.,13.,15.));
#616=CARTESIAN_POINT('',(6.,13.,15.));
#617=CARTESIAN_POINT('',(6.,13.,15.));
#618=CARTESIAN_POINT('',(6.,13.,-15.));
#619=CARTESIAN_POINT('',(6.,13.,0.));
#620=CARTESIAN_POINT('',(-6.,13.,-15.));
#621=CARTESIAN_POINT('',(6.,13.,-15.));
#622=CARTESIAN_POINT('',(-6.,13.,0.));
#623=CARTESIAN_POINT('',(0.,13.,13.75));
#624=CARTESIAN_POINT('Origin',(0.,13.,10.75));
#625=CARTESIAN_POINT('Origin',(0.,13.1,10.75));
#626=CARTESIAN_POINT('',(0.,13.2,12.75));
#627=CARTESIAN_POINT('Origin',(0.,13.2,10.75));
#628=CARTESIAN_POINT('',(0.,13.,12.75));
#629=CARTESIAN_POINT('Origin',(0.,13.,10.75));
#630=CARTESIAN_POINT('Origin',(0.,-6.6997487421324,10.75));
#631=CARTESIAN_POINT('Origin',(0.,13.3,10.75));
#632=CARTESIAN_POINT('',(0.,13.6,13.5316178594403));
#633=CARTESIAN_POINT('Origin',(0.,13.6,10.75));
#634=CARTESIAN_POINT('Origin',(0.,13.6,13.3908089297201));
#635=CARTESIAN_POINT('',(0.,13.6,13.25));
#636=CARTESIAN_POINT('Origin',(0.,13.6,10.75));
#637=CARTESIAN_POINT('Origin',(0.,13.4,10.75));
#638=CARTESIAN_POINT('',(0.,13.2,12.85));
#639=CARTESIAN_POINT('Origin',(0.,13.2,10.75));
#640=CARTESIAN_POINT('Origin',(0.,13.1,10.75));
#641=CARTESIAN_POINT('',(0.,13.,12.85));
#642=CARTESIAN_POINT('Origin',(0.,13.,10.75));
#643=CARTESIAN_POINT('Origin',(-6.,13.,0.));
#644=CARTESIAN_POINT('Origin',(-2.08166817117217E-16,5.85526315789474,-15.));
#645=CARTESIAN_POINT('',(7.75,0.,-15.));
#646=CARTESIAN_POINT('',(7.75,2.5,-15.));
#647=CARTESIAN_POINT('',(7.75,0.,-15.));
#648=CARTESIAN_POINT('',(-7.75,0.,-15.));
#649=CARTESIAN_POINT('',(-7.75,0.,-15.));
#650=CARTESIAN_POINT('',(-7.75,2.5,-15.));
#651=CARTESIAN_POINT('',(-7.75,2.5,-15.));
#652=CARTESIAN_POINT('',(-6.,2.5,-15.));
#653=CARTESIAN_POINT('',(-6.,2.5,-15.));
#654=CARTESIAN_POINT('',(-6.,13.,-15.));
#655=CARTESIAN_POINT('',(6.,2.5,-15.));
#656=CARTESIAN_POINT('',(6.,2.5,-15.));
#657=CARTESIAN_POINT('',(7.75,2.5,-15.));
#658=CARTESIAN_POINT('Origin',(-7.75,0.,0.));
#659=CARTESIAN_POINT('',(-7.75,0.,15.));
#660=CARTESIAN_POINT('',(-7.75,2.5,15.));
#661=CARTESIAN_POINT('',(-7.75,2.5,15.));
#662=CARTESIAN_POINT('',(-7.75,2.5,0.));
#663=CARTESIAN_POINT('',(-7.75,0.,0.));
#664=CARTESIAN_POINT('Origin',(-7.75,2.5,0.));
#665=CARTESIAN_POINT('',(-6.,2.5,15.));
#666=CARTESIAN_POINT('',(-6.,2.5,15.));
#667=CARTESIAN_POINT('',(-6.,2.5,0.));
#668=CARTESIAN_POINT('Origin',(-6.,2.5,0.));
#669=CARTESIAN_POINT('',(-6.,13.,15.));
#670=CARTESIAN_POINT('Origin',(-6.,13.,0.));
#671=CARTESIAN_POINT('Origin',(6.,13.,0.));
#672=CARTESIAN_POINT('',(6.,2.5,15.));
#673=CARTESIAN_POINT('',(6.,2.5,15.));
#674=CARTESIAN_POINT('',(6.,2.5,0.));
#675=CARTESIAN_POINT('Origin',(6.,2.5,0.));
#676=CARTESIAN_POINT('',(7.75,2.5,15.));
#677=CARTESIAN_POINT('',(7.75,2.5,15.));
#678=CARTESIAN_POINT('',(7.75,2.5,0.));
#679=CARTESIAN_POINT('Origin',(7.75,2.5,0.));
#680=CARTESIAN_POINT('',(7.75,0.,15.));
#681=CARTESIAN_POINT('',(7.75,0.,15.));
#682=CARTESIAN_POINT('',(7.75,0.,0.));
#683=CARTESIAN_POINT('Origin',(7.75,0.,0.));
#684=CARTESIAN_POINT('',(-7.75,0.,15.));
#685=CARTESIAN_POINT('Origin',(-1.38777878078145E-16,5.85526315789474,15.));
#686=UNCERTAINTY_MEASURE_WITH_UNIT(LENGTH_MEASURE(0.01),#690,
'DISTANCE_ACCURACY_VALUE',
'Maximum model space distance between geometric entities at asserted c
onnectivities');
#687=UNCERTAINTY_MEASURE_WITH_UNIT(LENGTH_MEASURE(1.E-6),#690,
'DISTANCE_ACCURACY_VALUE',
'Maximum model space distance between geometric entities at asserted c
onnectivities');
#688=(
GEOMETRIC_REPRESENTATION_CONTEXT(3)
GLOBAL_UNCERTAINTY_ASSIGNED_CONTEXT((#686))
GLOBAL_UNIT_ASSIGNED_CONTEXT((#690,#693,#691))
REPRESENTATION_CONTEXT('','3D')
);
#689=(
GEOMETRIC_REPRESENTATION_CONTEXT(3)
GLOBAL_UNCERTAINTY_ASSIGNED_CONTEXT((#687))
GLOBAL_UNIT_ASSIGNED_CONTEXT((#690,#693,#691))
REPRESENTATION_CONTEXT('','3D')
);
#690=(
LENGTH_UNIT()
NAMED_UNIT(*)
SI_UNIT(.MILLI.,.METRE.)
);
#691=(
NAMED_UNIT(*)
SI_UNIT($,.STERADIAN.)
SOLID_ANGLE_UNIT()
);
#692=DIMENSIONAL_EXPONENTS(0.,0.,0.,0.,0.,0.,0.);
#693=(
CONVERSION_BASED_UNIT('degree',#695)
NAMED_UNIT(#692)
PLANE_ANGLE_UNIT()
);
#694=(
NAMED_UNIT(*)
PLANE_ANGLE_UNIT()
SI_UNIT($,.RADIAN.)
);
#695=PLANE_ANGLE_MEASURE_WITH_UNIT(PLANE_ANGLE_MEASURE(0.01745329252),#694);
#696=SHAPE_DEFINITION_REPRESENTATION(#697,#698);
#697=PRODUCT_DEFINITION_SHAPE('',$,#700);
#698=SHAPE_REPRESENTATION('',(#411),#688);
#699=PRODUCT_DEFINITION_CONTEXT('part definition',#704,'design');
#700=PRODUCT_DEFINITION('RS.UA','RSUA',#701,#699);
#701=PRODUCT_DEFINITION_FORMATION('',$,#706);
#702=PRODUCT_RELATED_PRODUCT_CATEGORY('RSUA','RSUA',(#706));
#703=APPLICATION_PROTOCOL_DEFINITION('international standard',
'automotive_design',2009,#704);
#704=APPLICATION_CONTEXT(
'Core Data for Automotive Mechanical Design Process');
#705=PRODUCT_CONTEXT('part definition',#704,'mechanical');
#706=PRODUCT('RS.UA','RSUA','SENSORE UNIVERSALE N.A. con Led',(#705));
#707=PRESENTATION_STYLE_ASSIGNMENT((#710));
#708=PRESENTATION_STYLE_ASSIGNMENT((#711));
#709=PRESENTATION_STYLE_ASSIGNMENT((#712));
#710=SURFACE_STYLE_USAGE(.BOTH.,#713);
#711=SURFACE_STYLE_USAGE(.BOTH.,#714);
#712=SURFACE_STYLE_USAGE(.BOTH.,#715);
#713=SURFACE_SIDE_STYLE('',(#716));
#714=SURFACE_SIDE_STYLE('',(#717));
#715=SURFACE_SIDE_STYLE('',(#718));
#716=SURFACE_STYLE_FILL_AREA(#719);
#717=SURFACE_STYLE_FILL_AREA(#720);
#718=SURFACE_STYLE_FILL_AREA(#721);
#719=FILL_AREA_STYLE('',(#722));
#720=FILL_AREA_STYLE('',(#723));
#721=FILL_AREA_STYLE('',(#724));
#722=FILL_AREA_STYLE_COLOUR('',#725);
#723=FILL_AREA_STYLE_COLOUR('',#726);
#724=FILL_AREA_STYLE_COLOUR('',#727);
#725=COLOUR_RGB('',0.164705882352941,0.164705882352941,0.164705882352941);
#726=COLOUR_RGB('',0.776470588235294,0.564705882352941,0.109803921568627);
#727=COLOUR_RGB('',0.725490196078431,0.709803921568627,0.);
ENDSEC;
END-ISO-10303-21;
